ISO-10303-21;
HEADER;
/* Generated by software containing ST-Developer
 * from STEP Tools, Inc. (www.steptools.com) 
 */
/* OPTION: using custom schema-name function */

FILE_DESCRIPTION(
/* description */ (''),
/* implementation_level */ '2;1');

FILE_NAME(
/* name */ 'MS2MRBD0600R200.stp',
/* time_stamp */ '2023-03-17T09:19:27+09:00',
/* author */ (''),
/* organization */ (''),
/* preprocessor_version */ 'ST-DEVELOPER v16',
/* originating_system */ 'SIEMENS PLM Software NX 10.0',
/* authorisation */ '');

FILE_SCHEMA (('AUTOMOTIVE_DESIGN { 1 0 10303 214 3 1 1 1 }'));
ENDSEC;

DATA;
#10=CONSTRUCTIVE_GEOMETRY_REPRESENTATION_RELATIONSHIP(
'supplemental geometry','',#26,#11);
#11=CONSTRUCTIVE_GEOMETRY_REPRESENTATION('supplemental geometry',(#279,
#280,#281,#282,#283,#284,#285,#286,#287,#288),#511);
#12=GEOMETRICALLY_BOUNDED_WIREFRAME_SHAPE_REPRESENTATION(
'MS2MRBD0600R200-None',(#27),#511);
#13=SHAPE_REPRESENTATION_RELATIONSHIP('None',
'relationship between MS2MRBD0600R200-None and MS2MRBD0600R200-None',#26,
#15);
#14=SHAPE_REPRESENTATION_RELATIONSHIP('None',
'relationship between MS2MRBD0600R200-None and MS2MRBD0600R200-None',#26,
#12);
#15=ADVANCED_BREP_SHAPE_REPRESENTATION('MS2MRBD0600R200-None',(#40,#41),
#511);
#16=SHAPE_DEFINITION_REPRESENTATION(#17,#26);
#17=PRODUCT_DEFINITION_SHAPE('','SHAPE FOR MS2MRBD0600R200_ASM.',#18);
#18=PRODUCT_DEFINITION('part definition','',#20,#19);
#19=PRODUCT_DEFINITION_CONTEXT('part definition',#25,'design');
#20=PRODUCT_DEFINITION_FORMATION_WITH_SPECIFIED_SOURCE(' ',' ',#22,
 .NOT_KNOWN.);
#21=PRODUCT_RELATED_PRODUCT_CATEGORY('part','',(#22));
#22=PRODUCT('MS2MRBD0600R200_ASM','MS2MRBD0600R200_ASM','NOT SPECIFIED',
(#23));
#23=PRODUCT_CONTEXT('',#25,'mechanical');
#24=APPLICATION_PROTOCOL_DEFINITION('international standard',
'automotive_design',2010,#25);
#25=APPLICATION_CONTEXT(
'core data for automotive mechanical design processes');
#26=SHAPE_REPRESENTATION('MS2MRBD0600R200-None',(#277),#511);
#27=GEOMETRIC_CURVE_SET('None',(#396,#207,#208,#209,#210,#211));
#28=CONICAL_SURFACE('',#309,2.75,45.);
#29=CONICAL_SURFACE('',#311,2.75,45.);
#30=SURFACE_STYLE_USAGE(.BOTH.,#32);
#31=SURFACE_STYLE_USAGE(.BOTH.,#33);
#32=SURFACE_SIDE_STYLE('',(#34));
#33=SURFACE_SIDE_STYLE('',(#35));
#34=SURFACE_STYLE_FILL_AREA(#36);
#35=SURFACE_STYLE_FILL_AREA(#37);
#36=FILL_AREA_STYLE('',(#38));
#37=FILL_AREA_STYLE('',(#39));
#38=FILL_AREA_STYLE_COLOUR('',#275);
#39=FILL_AREA_STYLE_COLOUR('',#276);
#40=MANIFOLD_SOLID_BREP('CUT',#42);
#41=MANIFOLD_SOLID_BREP('NOCUT',#43);
#42=CLOSED_SHELL('',(#50,#51,#52,#53,#54,#55));
#43=CLOSED_SHELL('',(#56,#57,#58,#59,#60,#61));
#44=(
BOUNDED_SURFACE()
B_SPLINE_SURFACE(3,3,((#430,#431,#432,#433,#434,#435,#436),(#437,#438,#439,
#440,#441,#442,#443),(#444,#445,#446,#447,#448,#449,#450),(#451,#452,#453,
#454,#455,#456,#457)),.UNSPECIFIED.,.F.,.F.,.F.)
B_SPLINE_SURFACE_WITH_KNOTS((4,4),(4,3,4),(0.,1.),(0.,0.5,1.),
 .UNSPECIFIED.)
GEOMETRIC_REPRESENTATION_ITEM()
RATIONAL_B_SPLINE_SURFACE(((1.,0.802510115580371,0.802510115580371,1.,0.802510115580371,
0.802510115580371,1.),(0.804738080190751,0.645810449745805,0.645810449745805,
0.804738080190751,0.645810449745805,0.645810449745805,0.804738080190751),
(0.804738080190751,0.645810449745805,0.645810449745805,0.804738080190751,
0.645810449745805,0.645810449745805,0.804738080190751),(1.,0.802510115580371,
0.802510115580371,1.,0.802510115580371,0.802510115580371,1.)))
REPRESENTATION_ITEM('')
SURFACE()
);
#45=(
BOUNDED_SURFACE()
B_SPLINE_SURFACE(3,3,((#459,#460,#461,#462,#463,#464,#465),(#466,#467,#468,
#469,#470,#471,#472),(#473,#474,#475,#476,#477,#478,#479),(#480,#481,#482,
#483,#484,#485,#486)),.UNSPECIFIED.,.F.,.F.,.F.)
B_SPLINE_SURFACE_WITH_KNOTS((4,4),(4,3,4),(0.,1.),(0.,0.5,1.),
 .UNSPECIFIED.)
GEOMETRIC_REPRESENTATION_ITEM()
RATIONAL_B_SPLINE_SURFACE(((1.,0.8025101155804,0.8025101155804,1.,0.8025101155804,
0.8025101155804,1.),(0.804738080190849,0.645810449745907,0.645810449745907,
0.804738080190849,0.645810449745907,0.645810449745907,0.804738080190849),
(0.804738080190849,0.645810449745907,0.645810449745907,0.804738080190849,
0.645810449745907,0.645810449745907,0.804738080190849),(1.,0.8025101155804,
0.8025101155804,1.,0.8025101155804,0.8025101155804,1.)))
REPRESENTATION_ITEM('')
SURFACE()
);
#46=PLANE('',#293);
#47=PLANE('',#300);
#48=PLANE('',#305);
#49=PLANE('',#312);
#50=ADVANCED_FACE('',(#66),#62,.T.);
#51=ADVANCED_FACE('',(#67),#46,.F.);
#52=ADVANCED_FACE('',(#68),#63,.T.);
#53=ADVANCED_FACE('',(#69),#44,.T.);
#54=ADVANCED_FACE('',(#70),#45,.T.);
#55=ADVANCED_FACE('',(#71),#47,.T.);
#56=ADVANCED_FACE('',(#72),#64,.T.);
#57=ADVANCED_FACE('',(#73),#48,.F.);
#58=ADVANCED_FACE('',(#74),#65,.T.);
#59=ADVANCED_FACE('',(#75),#28,.T.);
#60=ADVANCED_FACE('',(#76),#29,.T.);
#61=ADVANCED_FACE('',(#77),#49,.F.);
#62=CYLINDRICAL_SURFACE('',#291,3.);
#63=CYLINDRICAL_SURFACE('',#295,3.);
#64=CYLINDRICAL_SURFACE('',#303,3.);
#65=CYLINDRICAL_SURFACE('',#307,3.);
#66=FACE_OUTER_BOUND('',#78,.T.);
#67=FACE_OUTER_BOUND('',#79,.T.);
#68=FACE_OUTER_BOUND('',#80,.T.);
#69=FACE_OUTER_BOUND('',#81,.T.);
#70=FACE_OUTER_BOUND('',#82,.T.);
#71=FACE_OUTER_BOUND('',#83,.T.);
#72=FACE_OUTER_BOUND('',#84,.T.);
#73=FACE_OUTER_BOUND('',#85,.T.);
#74=FACE_OUTER_BOUND('',#86,.T.);
#75=FACE_OUTER_BOUND('',#87,.T.);
#76=FACE_OUTER_BOUND('',#88,.T.);
#77=FACE_OUTER_BOUND('',#89,.T.);
#78=EDGE_LOOP('',(#90,#91,#92,#93));
#79=EDGE_LOOP('',(#94,#95));
#80=EDGE_LOOP('',(#96,#97,#98,#99));
#81=EDGE_LOOP('',(#100,#101,#102,#103));
#82=EDGE_LOOP('',(#104,#105,#106,#107));
#83=EDGE_LOOP('',(#108,#109));
#84=EDGE_LOOP('',(#110,#111,#112,#113));
#85=EDGE_LOOP('',(#114,#115));
#86=EDGE_LOOP('',(#116,#117,#118,#119));
#87=EDGE_LOOP('',(#120,#121,#122,#123));
#88=EDGE_LOOP('',(#124,#125,#126,#127));
#89=EDGE_LOOP('',(#128,#129));
#90=ORIENTED_EDGE('',*,*,#142,.T.);
#91=ORIENTED_EDGE('',*,*,#143,.T.);
#92=ORIENTED_EDGE('',*,*,#144,.F.);
#93=ORIENTED_EDGE('',*,*,#145,.T.);
#94=ORIENTED_EDGE('',*,*,#146,.F.);
#95=ORIENTED_EDGE('',*,*,#145,.F.);
#96=ORIENTED_EDGE('',*,*,#144,.T.);
#97=ORIENTED_EDGE('',*,*,#147,.T.);
#98=ORIENTED_EDGE('',*,*,#142,.F.);
#99=ORIENTED_EDGE('',*,*,#146,.T.);
#100=ORIENTED_EDGE('',*,*,#148,.T.);
#101=ORIENTED_EDGE('',*,*,#149,.T.);
#102=ORIENTED_EDGE('',*,*,#147,.F.);
#103=ORIENTED_EDGE('',*,*,#150,.F.);
#104=ORIENTED_EDGE('',*,*,#143,.F.);
#105=ORIENTED_EDGE('',*,*,#149,.F.);
#106=ORIENTED_EDGE('',*,*,#151,.T.);
#107=ORIENTED_EDGE('',*,*,#150,.T.);
#108=ORIENTED_EDGE('',*,*,#151,.F.);
#109=ORIENTED_EDGE('',*,*,#148,.F.);
#110=ORIENTED_EDGE('',*,*,#152,.F.);
#111=ORIENTED_EDGE('',*,*,#153,.T.);
#112=ORIENTED_EDGE('',*,*,#154,.T.);
#113=ORIENTED_EDGE('',*,*,#155,.T.);
#114=ORIENTED_EDGE('',*,*,#156,.F.);
#115=ORIENTED_EDGE('',*,*,#155,.F.);
#116=ORIENTED_EDGE('',*,*,#154,.F.);
#117=ORIENTED_EDGE('',*,*,#157,.T.);
#118=ORIENTED_EDGE('',*,*,#152,.T.);
#119=ORIENTED_EDGE('',*,*,#156,.T.);
#120=ORIENTED_EDGE('',*,*,#157,.F.);
#121=ORIENTED_EDGE('',*,*,#158,.T.);
#122=ORIENTED_EDGE('',*,*,#159,.T.);
#123=ORIENTED_EDGE('',*,*,#160,.F.);
#124=ORIENTED_EDGE('',*,*,#161,.T.);
#125=ORIENTED_EDGE('',*,*,#158,.F.);
#126=ORIENTED_EDGE('',*,*,#153,.F.);
#127=ORIENTED_EDGE('',*,*,#160,.T.);
#128=ORIENTED_EDGE('',*,*,#161,.F.);
#129=ORIENTED_EDGE('',*,*,#159,.F.);
#130=VERTEX_POINT('',#413);
#131=VERTEX_POINT('',#414);
#132=VERTEX_POINT('',#416);
#133=VERTEX_POINT('',#418);
#134=VERTEX_POINT('',#426);
#135=VERTEX_POINT('',#427);
#136=VERTEX_POINT('',#489);
#137=VERTEX_POINT('',#490);
#138=VERTEX_POINT('',#492);
#139=VERTEX_POINT('',#494);
#140=VERTEX_POINT('',#502);
#141=VERTEX_POINT('',#504);
#142=EDGE_CURVE('',#130,#131,#216,.T.);
#143=EDGE_CURVE('',#131,#132,#163,.T.);
#144=EDGE_CURVE('',#133,#132,#217,.T.);
#145=EDGE_CURVE('',#133,#130,#164,.T.);
#146=EDGE_CURVE('',#130,#133,#165,.T.);
#147=EDGE_CURVE('',#132,#131,#166,.T.);
#148=EDGE_CURVE('',#134,#135,#167,.T.);
#149=EDGE_CURVE('',#135,#131,#168,.T.);
#150=EDGE_CURVE('',#134,#132,#169,.T.);
#151=EDGE_CURVE('',#135,#134,#170,.T.);
#152=EDGE_CURVE('',#136,#137,#218,.T.);
#153=EDGE_CURVE('',#136,#138,#171,.T.);
#154=EDGE_CURVE('',#138,#139,#219,.T.);
#155=EDGE_CURVE('',#139,#137,#172,.T.);
#156=EDGE_CURVE('',#137,#139,#173,.T.);
#157=EDGE_CURVE('',#138,#136,#174,.T.);
#158=EDGE_CURVE('',#138,#140,#220,.T.);
#159=EDGE_CURVE('',#140,#141,#175,.T.);
#160=EDGE_CURVE('',#136,#141,#221,.T.);
#161=EDGE_CURVE('',#141,#140,#176,.T.);
#162=CIRCLE('',#278,2.);
#163=CIRCLE('',#289,3.);
#164=CIRCLE('',#290,3.);
#165=CIRCLE('',#292,3.);
#166=CIRCLE('',#294,3.);
#167=CIRCLE('',#296,1.000001918238);
#168=CIRCLE('',#297,2.);
#169=CIRCLE('',#298,2.);
#170=CIRCLE('',#299,1.000001918238);
#171=CIRCLE('',#301,3.);
#172=CIRCLE('',#302,3.);
#173=CIRCLE('',#304,3.);
#174=CIRCLE('',#306,3.);
#175=CIRCLE('',#308,2.5);
#176=CIRCLE('',#310,2.5);
#177=CURVE_STYLE('',#192,POSITIVE_LENGTH_MEASURE(0.18),#272);
#178=CURVE_STYLE('',#193,POSITIVE_LENGTH_MEASURE(0.18),#272);
#179=CURVE_STYLE('',#194,POSITIVE_LENGTH_MEASURE(0.18),#272);
#180=CURVE_STYLE('',#195,POSITIVE_LENGTH_MEASURE(0.18),#272);
#181=CURVE_STYLE('',#196,POSITIVE_LENGTH_MEASURE(0.18),#272);
#182=CURVE_STYLE('',#197,POSITIVE_LENGTH_MEASURE(0.13),#273);
#183=CURVE_STYLE('',#198,POSITIVE_LENGTH_MEASURE(0.13),#273);
#184=CURVE_STYLE('',#199,POSITIVE_LENGTH_MEASURE(0.13),#274);
#185=CURVE_STYLE('',#200,POSITIVE_LENGTH_MEASURE(0.13),#274);
#186=CURVE_STYLE('',#201,POSITIVE_LENGTH_MEASURE(0.13),#273);
#187=CURVE_STYLE('',#202,POSITIVE_LENGTH_MEASURE(0.13),#273);
#188=CURVE_STYLE('',#203,POSITIVE_LENGTH_MEASURE(0.13),#274);
#189=CURVE_STYLE('',#204,POSITIVE_LENGTH_MEASURE(0.13),#273);
#190=CURVE_STYLE('',#205,POSITIVE_LENGTH_MEASURE(0.13),#273);
#191=CURVE_STYLE('',#206,POSITIVE_LENGTH_MEASURE(0.13),#273);
#192=DRAUGHTING_PRE_DEFINED_CURVE_FONT('continuous');
#193=DRAUGHTING_PRE_DEFINED_CURVE_FONT('continuous');
#194=DRAUGHTING_PRE_DEFINED_CURVE_FONT('continuous');
#195=DRAUGHTING_PRE_DEFINED_CURVE_FONT('continuous');
#196=DRAUGHTING_PRE_DEFINED_CURVE_FONT('continuous');
#197=DRAUGHTING_PRE_DEFINED_CURVE_FONT('continuous');
#198=DRAUGHTING_PRE_DEFINED_CURVE_FONT('continuous');
#199=DRAUGHTING_PRE_DEFINED_CURVE_FONT('continuous');
#200=DRAUGHTING_PRE_DEFINED_CURVE_FONT('continuous');
#201=DRAUGHTING_PRE_DEFINED_CURVE_FONT('continuous');
#202=DRAUGHTING_PRE_DEFINED_CURVE_FONT('continuous');
#203=DRAUGHTING_PRE_DEFINED_CURVE_FONT('continuous');
#204=DRAUGHTING_PRE_DEFINED_CURVE_FONT('continuous');
#205=DRAUGHTING_PRE_DEFINED_CURVE_FONT('continuous');
#206=DRAUGHTING_PRE_DEFINED_CURVE_FONT('continuous');
#207=TRIMMED_CURVE('',#212,(PARAMETER_VALUE(0.)),(PARAMETER_VALUE(1.)),
 .T.,.PARAMETER.);
#208=TRIMMED_CURVE('',#213,(PARAMETER_VALUE(0.)),(PARAMETER_VALUE(1.)),
 .T.,.PARAMETER.);
#209=TRIMMED_CURVE('',#214,(PARAMETER_VALUE(0.)),(PARAMETER_VALUE(1.)),
 .T.,.PARAMETER.);
#210=TRIMMED_CURVE('',#215,(PARAMETER_VALUE(0.)),(PARAMETER_VALUE(1.)),
 .T.,.PARAMETER.);
#211=TRIMMED_CURVE('',#162,(PARAMETER_VALUE(0.)),(PARAMETER_VALUE(90.)),
 .T.,.PARAMETER.);
#212=LINE('',#397,#222);
#213=LINE('',#398,#223);
#214=LINE('',#399,#224);
#215=LINE('',#400,#225);
#216=LINE('',#412,#226);
#217=LINE('',#417,#227);
#218=LINE('',#488,#228);
#219=LINE('',#493,#229);
#220=LINE('',#501,#230);
#221=LINE('',#505,#231);
#222=VECTOR('',#315,1.);
#223=VECTOR('',#316,10.);
#224=VECTOR('',#317,3.);
#225=VECTOR('',#318,12.);
#226=VECTOR('',#341,1.);
#227=VECTOR('',#344,1.);
#228=VECTOR('',#367,1.);
#229=VECTOR('',#370,1.);
#230=VECTOR('',#383,1.);
#231=VECTOR('',#386,1.);
#232=PRESENTATION_LAYER_ASSIGNMENT('1','Layer 1',(#396,#207,#208,#209,#210,
#211,#279,#280,#283,#284,#285,#286,#287,#288,#40,#41));
#233=PRESENTATION_LAYER_ASSIGNMENT('2','Layer 2',(#281,#282));
#234=STYLED_ITEM('',(#252),#396);
#235=STYLED_ITEM('',(#253),#207);
#236=STYLED_ITEM('',(#254),#208);
#237=STYLED_ITEM('',(#255),#209);
#238=STYLED_ITEM('',(#256),#210);
#239=STYLED_ITEM('',(#257),#211);
#240=STYLED_ITEM('',(#258),#279);
#241=STYLED_ITEM('',(#259),#280);
#242=STYLED_ITEM('',(#260),#281);
#243=STYLED_ITEM('',(#261),#282);
#244=STYLED_ITEM('',(#262),#283);
#245=STYLED_ITEM('',(#263),#284);
#246=STYLED_ITEM('',(#264),#285);
#247=STYLED_ITEM('',(#265),#286);
#248=STYLED_ITEM('',(#266),#287);
#249=STYLED_ITEM('',(#267),#288);
#250=STYLED_ITEM('',(#268),#40);
#251=STYLED_ITEM('',(#269),#41);
#252=PRESENTATION_STYLE_ASSIGNMENT((#270));
#253=PRESENTATION_STYLE_ASSIGNMENT((#177));
#254=PRESENTATION_STYLE_ASSIGNMENT((#178));
#255=PRESENTATION_STYLE_ASSIGNMENT((#179));
#256=PRESENTATION_STYLE_ASSIGNMENT((#180));
#257=PRESENTATION_STYLE_ASSIGNMENT((#181));
#258=PRESENTATION_STYLE_ASSIGNMENT((#182));
#259=PRESENTATION_STYLE_ASSIGNMENT((#183));
#260=PRESENTATION_STYLE_ASSIGNMENT((#184));
#261=PRESENTATION_STYLE_ASSIGNMENT((#185));
#262=PRESENTATION_STYLE_ASSIGNMENT((#186));
#263=PRESENTATION_STYLE_ASSIGNMENT((#187));
#264=PRESENTATION_STYLE_ASSIGNMENT((#188));
#265=PRESENTATION_STYLE_ASSIGNMENT((#189));
#266=PRESENTATION_STYLE_ASSIGNMENT((#190));
#267=PRESENTATION_STYLE_ASSIGNMENT((#191));
#268=PRESENTATION_STYLE_ASSIGNMENT((#30));
#269=PRESENTATION_STYLE_ASSIGNMENT((#31));
#270=POINT_STYLE('',#271,POSITIVE_LENGTH_MEASURE(3.),#272);
#271=PRE_DEFINED_POINT_MARKER_SYMBOL('plus');
#272=COLOUR_RGB('Medium Royal',0.2,0.4,0.8);
#273=COLOUR_RGB('Strong Stone',0.576470588235294,0.54508278019379,0.392156862745098);
#274=COLOUR_RGB('Medium Umber',0.372533760585946,0.313725490196078,0.270572976272221);
#275=COLOUR_RGB('cutting part',0.8,0.8,0.8);
#276=COLOUR_RGB('non-cutting part and shank',0.501960784313725,0.501960784313725,
0.501960784313725);
#277=AXIS2_PLACEMENT_3D('',#395,#313,#314);
#278=AXIS2_PLACEMENT_3D('',#401,#319,#320);
#279=AXIS2_PLACEMENT_3D('',#402,#321,#322);
#280=AXIS2_PLACEMENT_3D('',#403,#323,#324);
#281=AXIS2_PLACEMENT_3D('CIP',#404,#325,#326);
#282=AXIS2_PLACEMENT_3D('PCS',#405,#327,#328);
#283=AXIS2_PLACEMENT_3D('MCS',#406,#329,#330);
#284=AXIS2_PLACEMENT_3D('',#407,#331,#332);
#285=AXIS2_PLACEMENT_3D('STEP_TEMP_EM4_1',#408,#333,#334);
#286=AXIS2_PLACEMENT_3D('',#409,#335,#336);
#287=AXIS2_PLACEMENT_3D('',#410,#337,#338);
#288=AXIS2_PLACEMENT_3D('',#411,#339,#340);
#289=AXIS2_PLACEMENT_3D('',#415,#342,#343);
#290=AXIS2_PLACEMENT_3D('',#419,#345,#346);
#291=AXIS2_PLACEMENT_3D('',#420,#347,#348);
#292=AXIS2_PLACEMENT_3D('',#421,#349,#350);
#293=AXIS2_PLACEMENT_3D('',#422,#351,#352);
#294=AXIS2_PLACEMENT_3D('',#423,#353,#354);
#295=AXIS2_PLACEMENT_3D('',#424,#355,#356);
#296=AXIS2_PLACEMENT_3D('',#425,#357,#358);
#297=AXIS2_PLACEMENT_3D('',#428,#359,#360);
#298=AXIS2_PLACEMENT_3D('',#429,#361,#362);
#299=AXIS2_PLACEMENT_3D('',#458,#363,#364);
#300=AXIS2_PLACEMENT_3D('',#487,#365,#366);
#301=AXIS2_PLACEMENT_3D('',#491,#368,#369);
#302=AXIS2_PLACEMENT_3D('',#495,#371,#372);
#303=AXIS2_PLACEMENT_3D('',#496,#373,#374);
#304=AXIS2_PLACEMENT_3D('',#497,#375,#376);
#305=AXIS2_PLACEMENT_3D('',#498,#377,#378);
#306=AXIS2_PLACEMENT_3D('',#499,#379,#380);
#307=AXIS2_PLACEMENT_3D('',#500,#381,#382);
#308=AXIS2_PLACEMENT_3D('',#503,#384,#385);
#309=AXIS2_PLACEMENT_3D('',#506,#387,#388);
#310=AXIS2_PLACEMENT_3D('',#507,#389,#390);
#311=AXIS2_PLACEMENT_3D('',#508,#391,#392);
#312=AXIS2_PLACEMENT_3D('',#509,#393,#394);
#313=DIRECTION('',(0.,0.,1.));
#314=DIRECTION('',(1.,0.,0.));
#315=DIRECTION('',(-1.,0.,0.));
#316=DIRECTION('',(0.,0.,1.));
#317=DIRECTION('',(1.,0.,0.));
#318=DIRECTION('',(0.,0.,-1.));
#319=DIRECTION('',(0.,1.,0.));
#320=DIRECTION('',(0.,0.,-1.));
#321=DIRECTION('',(0.,0.,1.));
#322=DIRECTION('',(1.,0.,0.));
#323=DIRECTION('',(0.,0.,1.));
#324=DIRECTION('',(1.,0.,0.));
#325=DIRECTION('',(0.,0.,1.));
#326=DIRECTION('',(1.,0.,0.));
#327=DIRECTION('',(0.,0.,1.));
#328=DIRECTION('',(1.,0.,0.));
#329=DIRECTION('',(0.,0.,1.));
#330=DIRECTION('',(1.,0.,0.));
#331=DIRECTION('',(0.,0.,1.));
#332=DIRECTION('',(1.,0.,0.));
#333=DIRECTION('',(0.,0.,1.));
#334=DIRECTION('',(1.,0.,0.));
#335=DIRECTION('',(0.,0.,1.));
#336=DIRECTION('',(1.,0.,0.));
#337=DIRECTION('',(0.,0.,1.));
#338=DIRECTION('',(1.,0.,0.));
#339=DIRECTION('',(0.,0.,1.));
#340=DIRECTION('',(1.,0.,0.));
#341=DIRECTION('',(0.,6.061595669848E-12,-1.));
#342=DIRECTION('',(-1.938738405481E-13,0.,1.));
#343=DIRECTION('',(1.161632145563E-13,-1.,0.));
#344=DIRECTION('',(0.,-6.371524407701E-12,-1.));
#345=DIRECTION('',(0.,0.,-1.));
#346=DIRECTION('',(0.,1.,0.));
#347=DIRECTION('',(0.,0.,-1.));
#348=DIRECTION('',(0.,1.,0.));
#349=DIRECTION('',(0.,0.,-1.));
#350=DIRECTION('',(0.,-1.,0.));
#351=DIRECTION('',(0.,0.,-1.));
#352=DIRECTION('',(1.,0.,0.));
#353=DIRECTION('',(1.938738405481E-13,0.,1.));
#354=DIRECTION('',(-1.160407498764E-13,1.,0.));
#355=DIRECTION('',(0.,0.,-1.));
#356=DIRECTION('',(0.,1.,0.));
#357=DIRECTION('',(1.938738405481E-13,0.,1.));
#358=DIRECTION('',(3.999282550676E-14,1.,-7.78998649600937E-27));
#359=DIRECTION('',(-0.999999999959567,8.9925832767177E-6,1.93874037553294E-13));
#360=DIRECTION('',(-8.9925832767177E-6,-0.999999999959567,0.));
#361=DIRECTION('',(0.999999999959567,-8.9925832995747E-6,1.93874037553294E-13));
#362=DIRECTION('',(8.99258329951964E-6,0.999999999953368,-3.52098473402514E-6));
#363=DIRECTION('',(-1.938738405481E-13,0.,1.));
#364=DIRECTION('',(-3.999313387675E-14,-1.,-7.78998649600937E-27));
#365=DIRECTION('',(0.,0.,-1.));
#366=DIRECTION('',(0.,1.,0.));
#367=DIRECTION('',(0.,0.,-1.));
#368=DIRECTION('',(0.,0.,-1.));
#369=DIRECTION('',(0.,1.,0.));
#370=DIRECTION('',(0.,0.,-1.));
#371=DIRECTION('',(0.,0.,1.));
#372=DIRECTION('',(0.,-1.,0.));
#373=DIRECTION('',(0.,0.,-1.));
#374=DIRECTION('',(0.,1.,0.));
#375=DIRECTION('',(0.,0.,1.));
#376=DIRECTION('',(0.,1.,0.));
#377=DIRECTION('',(0.,0.,1.));
#378=DIRECTION('',(-1.,0.,0.));
#379=DIRECTION('',(0.,0.,-1.));
#380=DIRECTION('',(0.,-1.,0.));
#381=DIRECTION('',(0.,0.,-1.));
#382=DIRECTION('',(0.,1.,0.));
#383=DIRECTION('',(0.,0.707106781186547,0.707106781186547));
#384=DIRECTION('',(0.,0.,-1.));
#385=DIRECTION('',(0.,-1.,0.));
#386=DIRECTION('',(0.,-0.707106781186547,0.707106781186547));
#387=DIRECTION('',(0.,0.,-1.));
#388=DIRECTION('',(0.,1.,-4.15191856628705E-17));
#389=DIRECTION('',(0.,0.,-1.));
#390=DIRECTION('',(0.,1.,0.));
#391=DIRECTION('',(0.,0.,-1.));
#392=DIRECTION('',(0.,1.,-4.15191856628705E-17));
#393=DIRECTION('',(0.,0.,-1.));
#394=DIRECTION('',(0.,1.,0.));
#395=CARTESIAN_POINT('',(0.,0.,0.));
#396=CARTESIAN_POINT('CRP',(-3.,0.,0.));
#397=CARTESIAN_POINT('',(0.,0.,0.));
#398=CARTESIAN_POINT('',(-3.,0.,2.));
#399=CARTESIAN_POINT('',(-3.,0.,12.));
#400=CARTESIAN_POINT('',(0.,0.,12.));
#401=CARTESIAN_POINT('',(-1.,0.,2.));
#402=CARTESIAN_POINT('',(0.,0.,0.));
#403=CARTESIAN_POINT('',(0.,0.,0.));
#404=CARTESIAN_POINT('',(0.,0.,0.));
#405=CARTESIAN_POINT('',(0.,0.,50.));
#406=CARTESIAN_POINT('',(0.,0.,32.));
#407=CARTESIAN_POINT('',(0.,0.,0.));
#408=CARTESIAN_POINT('',(0.,0.,0.));
#409=CARTESIAN_POINT('',(0.,0.,0.));
#410=CARTESIAN_POINT('',(0.,0.,0.));
#411=CARTESIAN_POINT('',(0.,0.,0.));
#412=CARTESIAN_POINT('',(0.,-3.,12.));
#413=CARTESIAN_POINT('',(0.,-3.,12.));
#414=CARTESIAN_POINT('',(0.,-3.,2.));
#415=CARTESIAN_POINT('',(-3.477548555894E-13,0.,2.));
#416=CARTESIAN_POINT('',(0.,2.999999999936,1.999998239507));
#417=CARTESIAN_POINT('',(0.,3.,12.));
#418=CARTESIAN_POINT('',(0.,3.,12.));
#419=CARTESIAN_POINT('',(0.,0.,12.));
#420=CARTESIAN_POINT('',(0.,0.,52.5));
#421=CARTESIAN_POINT('',(0.,0.,12.));
#422=CARTESIAN_POINT('',(150.,150.,12.));
#423=CARTESIAN_POINT('',(3.477548555894E-13,0.,2.));
#424=CARTESIAN_POINT('',(0.,0.,52.5));
#425=CARTESIAN_POINT('',(-3.99928255066E-14,0.,8.246736626916E-13));
#426=CARTESIAN_POINT('',(8.992616135025E-6,1.000003646907,3.22941673403E-12));
#427=CARTESIAN_POINT('',(-8.992616112182E-6,-1.000003646907,3.229638778635E-12));
#428=CARTESIAN_POINT('',(-8.992582928963E-6,-0.9999999999599,2.));
#429=CARTESIAN_POINT('',(8.992582951806E-6,0.9999999999599,2.));
#430=CARTESIAN_POINT('',(0.0188485298174321,-0.999824269261411,6.77409517368943E-13));
#431=CARTESIAN_POINT('',(-0.57122322368277,-1.01094820911967,6.77542340602176E-13));
#432=CARTESIAN_POINT('',(-0.99439798389714,-0.59957059836006,6.77539054034973E-13));
#433=CARTESIAN_POINT('',(-0.999957547373557,-0.00942018738780199,6.77401604858665E-13));
#434=CARTESIAN_POINT('',(-1.00551711084997,0.580730223584456,6.77264155682356E-13));
#435=CARTESIAN_POINT('',(-0.590167604943294,1.00000722541004,6.77073978362771E-13));
#436=CARTESIAN_POINT('',(8.99260070087583E-6,1.00000191819792,6.76943747190501E-13));
#437=CARTESIAN_POINT('',(0.0409308969371147,-2.17118812539324,1.12367763205341E-6));
#438=CARTESIAN_POINT('',(-1.24045106559118,-2.19534453654505,1.12367763234185E-6));
#439=CARTESIAN_POINT('',(-2.15940456831252,-1.30200936656192,1.12367763233471E-6));
#440=CARTESIAN_POINT('',(-2.17147754810854,-0.0204565938477212,1.12367763203623E-6));
#441=CARTESIAN_POINT('',(-2.18355052790456,1.26109617886648,1.12367763173775E-6));
#442=CARTESIAN_POINT('',(-1.28159011062172,2.17158542742879,1.12367763132477E-6));
#443=CARTESIAN_POINT('',(1.95280591741401E-5,2.17157390244756,1.12367763104196E-6));
#444=CARTESIAN_POINT('',(0.0565454809839704,-2.99946705409182,0.828428015702449));
#445=CARTESIAN_POINT('',(-1.71366638382853,-3.03283880965161,0.828428015702449));
#446=CARTESIAN_POINT('',(-2.98318822922629,-1.79870834472904,0.828428015702449));
#447=CARTESIAN_POINT('',(-2.9998668876619,-0.0282605079530194,0.828428015702449));
#448=CARTESIAN_POINT('',(-3.01654554609751,1.742187328823,0.828428015702448));
#449=CARTESIAN_POINT('',(-1.77049941859081,3.00001592148484,0.828428015702448));
#450=CARTESIAN_POINT('',(2.69777497311165E-5,2.99999999987902,0.828428015702448));
#451=CARTESIAN_POINT('',(0.0565454809839635,-2.99946705409143,2.));
#452=CARTESIAN_POINT('',(-1.71366638382832,-3.03283880965122,2.));
#453=CARTESIAN_POINT('',(-2.98318822922591,-1.79870834472881,2.));
#454=CARTESIAN_POINT('',(-2.99986688766152,-0.0282605079530155,2.));
#455=CARTESIAN_POINT('',(-3.01654554609712,1.74218732882278,2.));
#456=CARTESIAN_POINT('',(-1.77049941859058,3.00001592148446,2.));
#457=CARTESIAN_POINT('',(2.69777497313665E-5,2.99999999987864,2.));
#458=CARTESIAN_POINT('',(3.99928255066E-14,0.,8.237854842719E-13));
#459=CARTESIAN_POINT('',(-0.0188485298169421,0.999824269261197,1.01437955257744E-12));
#460=CARTESIAN_POINT('',(0.571223223683095,1.01094820911927,1.3347557613932E-12));
#461=CARTESIAN_POINT('',(0.994397983897246,0.599570598359681,1.56451616686898E-12));
#462=CARTESIAN_POINT('',(0.999957547373558,0.00942018738759003,1.56753470123983E-12));
#463=CARTESIAN_POINT('',(1.00551711084987,-0.580730223584501,1.57055323561069E-12));
#464=CARTESIAN_POINT('',(0.590167604943261,-1.00000722540992,1.34504150886471E-12));
#465=CARTESIAN_POINT('',(-8.99260056607699E-6,-1.00000191819777,1.02460837555279E-12));
#466=CARTESIAN_POINT('',(-0.040930896936271,2.17118812539304,1.12367784727736E-6));
#467=CARTESIAN_POINT('',(1.2404510655918,2.19534453654446,1.12367854299664E-6));
#468=CARTESIAN_POINT('',(2.15940456831275,1.30200936656127,1.12367904193738E-6));
#469=CARTESIAN_POINT('',(2.17147754810855,0.0204565938473032,1.12367904849234E-6));
#470=CARTESIAN_POINT('',(2.18355052790435,-1.26109617886666,1.12367905504729E-6));
#471=CARTESIAN_POINT('',(1.28159011062157,-2.17158542742871,1.12367856533285E-6));
#472=CARTESIAN_POINT('',(-1.95280590976889E-5,-2.17157390244742,1.12367786948996E-6));
#473=CARTESIAN_POINT('',(-0.0565454809833309,2.99946705409187,0.82842801570241));
#474=CARTESIAN_POINT('',(1.71366638382905,3.03283880965113,0.828428015703371));
#475=CARTESIAN_POINT('',(2.98318822922641,1.79870834472835,0.828428015704061));
#476=CARTESIAN_POINT('',(2.99986688766171,0.0282605079524582,0.82842801570407));
#477=CARTESIAN_POINT('',(3.01654554609701,-1.74218732882343,0.828428015704079));
#478=CARTESIAN_POINT('',(1.77049941859026,-3.00001592148504,0.828428015703402));
#479=CARTESIAN_POINT('',(-2.69777501455286E-5,-2.99999999987913,0.828428015702441));
#480=CARTESIAN_POINT('',(-0.056545480983971,2.99946705409209,1.99999999999997));
#481=CARTESIAN_POINT('',(1.71366638382854,3.03283880965134,2.00000000000093));
#482=CARTESIAN_POINT('',(2.98318822922599,1.79870834472848,2.00000000000162));
#483=CARTESIAN_POINT('',(2.99986688766129,0.0282605079524602,2.00000000000163));
#484=CARTESIAN_POINT('',(3.01654554609659,-1.74218732882356,2.00000000000164));
#485=CARTESIAN_POINT('',(1.77049941858975,-3.00001592148525,2.00000000000096));
#486=CARTESIAN_POINT('',(-2.69777507816348E-5,-2.99999999987934,2.));
#487=CARTESIAN_POINT('',(0.,0.,0.));
#488=CARTESIAN_POINT('',(0.,3.,49.5));
#489=CARTESIAN_POINT('',(0.,3.,49.5));
#490=CARTESIAN_POINT('',(0.,3.,12.));
#491=CARTESIAN_POINT('',(0.,0.,49.5));
#492=CARTESIAN_POINT('',(0.,-3.,49.5));
#493=CARTESIAN_POINT('',(0.,-3.,49.5));
#494=CARTESIAN_POINT('',(0.,-3.,12.));
#495=CARTESIAN_POINT('',(0.,0.,12.));
#496=CARTESIAN_POINT('',(0.,0.,52.5));
#497=CARTESIAN_POINT('',(0.,0.,12.));
#498=CARTESIAN_POINT('',(-150.,150.,12.));
#499=CARTESIAN_POINT('',(0.,0.,49.5));
#500=CARTESIAN_POINT('',(0.,0.,52.5));
#501=CARTESIAN_POINT('',(0.,-2.5,50.));
#502=CARTESIAN_POINT('',(0.,-2.5,50.));
#503=CARTESIAN_POINT('',(0.,0.,50.));
#504=CARTESIAN_POINT('',(0.,2.5,50.));
#505=CARTESIAN_POINT('',(0.,2.5,50.));
#506=CARTESIAN_POINT('',(0.,0.,49.75));
#507=CARTESIAN_POINT('',(0.,0.,50.));
#508=CARTESIAN_POINT('',(0.,0.,49.75));
#509=CARTESIAN_POINT('',(0.,0.,50.));
#510=MECHANICAL_DESIGN_GEOMETRIC_PRESENTATION_REPRESENTATION('',(#234,#235,
#236,#237,#238,#239,#240,#241,#242,#243,#244,#245,#246,#247,#248,#249,#250,
#251),#511);
#511=(
GEOMETRIC_REPRESENTATION_CONTEXT(3)
GLOBAL_UNCERTAINTY_ASSIGNED_CONTEXT((#512))
GLOBAL_UNIT_ASSIGNED_CONTEXT((#518,#514,#513))
REPRESENTATION_CONTEXT('MS2MRBD0600R200','TOP_LEVEL_ASSEMBLY_PART')
);
#512=UNCERTAINTY_MEASURE_WITH_UNIT(LENGTH_MEASURE(0.0254),#518,
'DISTANCE_ACCURACY_VALUE','Maximum Tolerance applied to model');
#513=(
NAMED_UNIT(*)
SI_UNIT($,.STERADIAN.)
SOLID_ANGLE_UNIT()
);
#514=(
CONVERSION_BASED_UNIT('DEGREE',#516)
NAMED_UNIT(#515)
PLANE_ANGLE_UNIT()
);
#515=DIMENSIONAL_EXPONENTS(0.,0.,0.,0.,0.,0.,0.);
#516=PLANE_ANGLE_MEASURE_WITH_UNIT(PLANE_ANGLE_MEASURE(0.0174532925),#517);
#517=(
NAMED_UNIT(*)
PLANE_ANGLE_UNIT()
SI_UNIT($,.RADIAN.)
);
#518=(
LENGTH_UNIT()
NAMED_UNIT(*)
SI_UNIT(.MILLI.,.METRE.)
);
ENDSEC;
END-ISO-10303-21;
