ISO-10303-21;
HEADER;
/* Generated by software containing ST-Developer
 * from STEP Tools, Inc. (www.steptools.com) 
 */
/* OPTION: using custom schema-name function */

FILE_DESCRIPTION(
/* description */ (''),
/* implementation_level */ '2;1');

FILE_NAME(
/* name */ 'MFE0220X02S040.stp',
/* time_stamp */ '2023-03-08T09:18:51+09:00',
/* author */ (''),
/* organization */ (''),
/* preprocessor_version */ 'ST-DEVELOPER v16',
/* originating_system */ 'SIEMENS PLM Software NX 10.0',
/* authorisation */ '');

FILE_SCHEMA (('AUTOMOTIVE_DESIGN { 1 0 10303 214 3 1 1 1 }'));
ENDSEC;

DATA;
#10=CONSTRUCTIVE_GEOMETRY_REPRESENTATION_RELATIONSHIP(
'supplemental geometry','',#26,#11);
#11=CONSTRUCTIVE_GEOMETRY_REPRESENTATION('supplemental geometry',(#302,
#303,#304,#305,#306,#307,#308,#309,#310,#311),#501);
#12=GEOMETRICALLY_BOUNDED_WIREFRAME_SHAPE_REPRESENTATION(
'MFE0220X02S040-None',(#27),#501);
#13=SHAPE_REPRESENTATION_RELATIONSHIP('None',
'relationship between MFE0220X02S040-None and MFE0220X02S040-None',#26,
#15);
#14=SHAPE_REPRESENTATION_RELATIONSHIP('None',
'relationship between MFE0220X02S040-None and MFE0220X02S040-None',#26,
#12);
#15=ADVANCED_BREP_SHAPE_REPRESENTATION('MFE0220X02S040-None',(#42,#43),
#501);
#16=SHAPE_DEFINITION_REPRESENTATION(#17,#26);
#17=PRODUCT_DEFINITION_SHAPE('','SHAPE FOR MFE0220X02S040_ASM.',#18);
#18=PRODUCT_DEFINITION('part definition','',#20,#19);
#19=PRODUCT_DEFINITION_CONTEXT('part definition',#25,'design');
#20=PRODUCT_DEFINITION_FORMATION_WITH_SPECIFIED_SOURCE(' ',' ',#22,
 .NOT_KNOWN.);
#21=PRODUCT_RELATED_PRODUCT_CATEGORY('part','',(#22));
#22=PRODUCT('MFE0220X02S040_ASM','MFE0220X02S040_ASM','NOT SPECIFIED',(#23));
#23=PRODUCT_CONTEXT('',#25,'mechanical');
#24=APPLICATION_PROTOCOL_DEFINITION('international standard',
'automotive_design',2010,#25);
#25=APPLICATION_CONTEXT(
'core data for automotive mechanical design processes');
#26=SHAPE_REPRESENTATION('MFE0220X02S040-None',(#301),#501);
#27=GEOMETRIC_CURVE_SET('None',(#433,#230,#231,#232,#233));
#28=CONICAL_SURFACE('',#328,1.550000000001,15.);
#29=CONICAL_SURFACE('',#330,1.550000000001,15.);
#30=CONICAL_SURFACE('',#336,1.8,45.);
#31=CONICAL_SURFACE('',#338,1.8,45.);
#32=SURFACE_STYLE_USAGE(.BOTH.,#34);
#33=SURFACE_STYLE_USAGE(.BOTH.,#35);
#34=SURFACE_SIDE_STYLE('',(#36));
#35=SURFACE_SIDE_STYLE('',(#37));
#36=SURFACE_STYLE_FILL_AREA(#38);
#37=SURFACE_STYLE_FILL_AREA(#39);
#38=FILL_AREA_STYLE('',(#40));
#39=FILL_AREA_STYLE('',(#41));
#40=FILL_AREA_STYLE_COLOUR('',#200);
#41=FILL_AREA_STYLE_COLOUR('',#201);
#42=MANIFOLD_SOLID_BREP('CUT',#44);
#43=MANIFOLD_SOLID_BREP('NOCUT',#45);
#44=CLOSED_SHELL('',(#50,#51,#52,#53));
#45=CLOSED_SHELL('',(#54,#55,#56,#57,#58,#59,#60,#61,#62,#63));
#46=PLANE('',#316);
#47=PLANE('',#319);
#48=PLANE('',#324);
#49=PLANE('',#339);
#50=ADVANCED_FACE('',(#70),#64,.T.);
#51=ADVANCED_FACE('',(#71),#46,.F.);
#52=ADVANCED_FACE('',(#72),#65,.T.);
#53=ADVANCED_FACE('',(#73),#47,.T.);
#54=ADVANCED_FACE('',(#74),#66,.T.);
#55=ADVANCED_FACE('',(#75),#48,.F.);
#56=ADVANCED_FACE('',(#76),#67,.T.);
#57=ADVANCED_FACE('',(#77),#28,.T.);
#58=ADVANCED_FACE('',(#78),#29,.T.);
#59=ADVANCED_FACE('',(#79),#68,.T.);
#60=ADVANCED_FACE('',(#80),#69,.T.);
#61=ADVANCED_FACE('',(#81),#30,.T.);
#62=ADVANCED_FACE('',(#82),#31,.T.);
#63=ADVANCED_FACE('',(#83),#49,.F.);
#64=CYLINDRICAL_SURFACE('',#314,1.1);
#65=CYLINDRICAL_SURFACE('',#318,1.1);
#66=CYLINDRICAL_SURFACE('',#322,1.1);
#67=CYLINDRICAL_SURFACE('',#326,1.1);
#68=CYLINDRICAL_SURFACE('',#332,2.);
#69=CYLINDRICAL_SURFACE('',#334,2.);
#70=FACE_OUTER_BOUND('',#84,.T.);
#71=FACE_OUTER_BOUND('',#85,.T.);
#72=FACE_OUTER_BOUND('',#86,.T.);
#73=FACE_OUTER_BOUND('',#87,.T.);
#74=FACE_OUTER_BOUND('',#88,.T.);
#75=FACE_OUTER_BOUND('',#89,.T.);
#76=FACE_OUTER_BOUND('',#90,.T.);
#77=FACE_OUTER_BOUND('',#91,.T.);
#78=FACE_OUTER_BOUND('',#92,.T.);
#79=FACE_OUTER_BOUND('',#93,.T.);
#80=FACE_OUTER_BOUND('',#94,.T.);
#81=FACE_OUTER_BOUND('',#95,.T.);
#82=FACE_OUTER_BOUND('',#96,.T.);
#83=FACE_OUTER_BOUND('',#97,.T.);
#84=EDGE_LOOP('',(#112,#113,#114,#115));
#85=EDGE_LOOP('',(#116,#117));
#86=EDGE_LOOP('',(#118,#119,#120,#121));
#87=EDGE_LOOP('',(#122,#123));
#88=EDGE_LOOP('',(#124,#125,#126,#127));
#89=EDGE_LOOP('',(#128,#129));
#90=EDGE_LOOP('',(#130,#131,#132,#133));
#91=EDGE_LOOP('',(#134,#135,#136,#137));
#92=EDGE_LOOP('',(#138,#139,#140,#141));
#93=EDGE_LOOP('',(#142,#143,#144,#145));
#94=EDGE_LOOP('',(#146,#147,#148,#149));
#95=EDGE_LOOP('',(#150,#151,#152,#153));
#96=EDGE_LOOP('',(#154,#155,#156,#157));
#97=EDGE_LOOP('',(#158,#159));
#98=CIRCLE('',#312,1.1);
#99=CIRCLE('',#313,1.1);
#100=CIRCLE('',#315,1.1);
#101=CIRCLE('',#317,1.1);
#102=CIRCLE('',#320,1.100000000001);
#103=CIRCLE('',#321,1.1);
#104=CIRCLE('',#323,1.1);
#105=CIRCLE('',#325,1.100000000001);
#106=CIRCLE('',#327,2.000000000001);
#107=CIRCLE('',#329,2.000000000001);
#108=CIRCLE('',#331,2.);
#109=CIRCLE('',#333,2.);
#110=CIRCLE('',#335,1.6);
#111=CIRCLE('',#337,1.6);
#112=ORIENTED_EDGE('',*,*,#174,.T.);
#113=ORIENTED_EDGE('',*,*,#175,.T.);
#114=ORIENTED_EDGE('',*,*,#176,.F.);
#115=ORIENTED_EDGE('',*,*,#177,.T.);
#116=ORIENTED_EDGE('',*,*,#178,.F.);
#117=ORIENTED_EDGE('',*,*,#177,.F.);
#118=ORIENTED_EDGE('',*,*,#176,.T.);
#119=ORIENTED_EDGE('',*,*,#179,.T.);
#120=ORIENTED_EDGE('',*,*,#174,.F.);
#121=ORIENTED_EDGE('',*,*,#178,.T.);
#122=ORIENTED_EDGE('',*,*,#175,.F.);
#123=ORIENTED_EDGE('',*,*,#179,.F.);
#124=ORIENTED_EDGE('',*,*,#180,.F.);
#125=ORIENTED_EDGE('',*,*,#181,.T.);
#126=ORIENTED_EDGE('',*,*,#182,.T.);
#127=ORIENTED_EDGE('',*,*,#183,.T.);
#128=ORIENTED_EDGE('',*,*,#184,.F.);
#129=ORIENTED_EDGE('',*,*,#183,.F.);
#130=ORIENTED_EDGE('',*,*,#182,.F.);
#131=ORIENTED_EDGE('',*,*,#185,.T.);
#132=ORIENTED_EDGE('',*,*,#180,.T.);
#133=ORIENTED_EDGE('',*,*,#184,.T.);
#134=ORIENTED_EDGE('',*,*,#185,.F.);
#135=ORIENTED_EDGE('',*,*,#186,.T.);
#136=ORIENTED_EDGE('',*,*,#187,.F.);
#137=ORIENTED_EDGE('',*,*,#188,.F.);
#138=ORIENTED_EDGE('',*,*,#189,.F.);
#139=ORIENTED_EDGE('',*,*,#186,.F.);
#140=ORIENTED_EDGE('',*,*,#181,.F.);
#141=ORIENTED_EDGE('',*,*,#188,.T.);
#142=ORIENTED_EDGE('',*,*,#190,.T.);
#143=ORIENTED_EDGE('',*,*,#191,.T.);
#144=ORIENTED_EDGE('',*,*,#189,.T.);
#145=ORIENTED_EDGE('',*,*,#192,.F.);
#146=ORIENTED_EDGE('',*,*,#187,.T.);
#147=ORIENTED_EDGE('',*,*,#191,.F.);
#148=ORIENTED_EDGE('',*,*,#193,.T.);
#149=ORIENTED_EDGE('',*,*,#192,.T.);
#150=ORIENTED_EDGE('',*,*,#193,.F.);
#151=ORIENTED_EDGE('',*,*,#194,.T.);
#152=ORIENTED_EDGE('',*,*,#195,.T.);
#153=ORIENTED_EDGE('',*,*,#196,.F.);
#154=ORIENTED_EDGE('',*,*,#197,.T.);
#155=ORIENTED_EDGE('',*,*,#194,.F.);
#156=ORIENTED_EDGE('',*,*,#190,.F.);
#157=ORIENTED_EDGE('',*,*,#196,.T.);
#158=ORIENTED_EDGE('',*,*,#197,.F.);
#159=ORIENTED_EDGE('',*,*,#195,.F.);
#160=VERTEX_POINT('',#449);
#161=VERTEX_POINT('',#450);
#162=VERTEX_POINT('',#452);
#163=VERTEX_POINT('',#454);
#164=VERTEX_POINT('',#463);
#165=VERTEX_POINT('',#464);
#166=VERTEX_POINT('',#466);
#167=VERTEX_POINT('',#468);
#168=VERTEX_POINT('',#476);
#169=VERTEX_POINT('',#478);
#170=VERTEX_POINT('',#484);
#171=VERTEX_POINT('',#485);
#172=VERTEX_POINT('',#492);
#173=VERTEX_POINT('',#494);
#174=EDGE_CURVE('',#160,#161,#238,.T.);
#175=EDGE_CURVE('',#161,#162,#98,.T.);
#176=EDGE_CURVE('',#163,#162,#239,.T.);
#177=EDGE_CURVE('',#163,#160,#99,.T.);
#178=EDGE_CURVE('',#160,#163,#100,.T.);
#179=EDGE_CURVE('',#162,#161,#101,.T.);
#180=EDGE_CURVE('',#164,#165,#240,.T.);
#181=EDGE_CURVE('',#164,#166,#102,.T.);
#182=EDGE_CURVE('',#166,#167,#241,.T.);
#183=EDGE_CURVE('',#167,#165,#103,.T.);
#184=EDGE_CURVE('',#165,#167,#104,.T.);
#185=EDGE_CURVE('',#166,#164,#105,.T.);
#186=EDGE_CURVE('',#166,#168,#242,.T.);
#187=EDGE_CURVE('',#169,#168,#106,.T.);
#188=EDGE_CURVE('',#164,#169,#243,.T.);
#189=EDGE_CURVE('',#168,#169,#107,.T.);
#190=EDGE_CURVE('',#170,#171,#108,.T.);
#191=EDGE_CURVE('',#171,#168,#244,.T.);
#192=EDGE_CURVE('',#170,#169,#245,.T.);
#193=EDGE_CURVE('',#171,#170,#109,.T.);
#194=EDGE_CURVE('',#171,#172,#246,.T.);
#195=EDGE_CURVE('',#172,#173,#110,.T.);
#196=EDGE_CURVE('',#170,#173,#247,.T.);
#197=EDGE_CURVE('',#173,#172,#111,.T.);
#198=COLOUR_RGB('Strong Stone',0.576470588235294,0.54508278019379,0.392156862745098);
#199=COLOUR_RGB('Medium Umber',0.372533760585946,0.313725490196078,0.270572976272221);
#200=COLOUR_RGB('Light Gray',0.8,0.8,0.8);
#201=COLOUR_RGB('non-cutting part and shank',0.501960784313725,0.501960784313725,
0.501960784313725);
#202=CURVE_STYLE('',#216,POSITIVE_LENGTH_MEASURE(0.18),#300);
#203=CURVE_STYLE('',#217,POSITIVE_LENGTH_MEASURE(0.18),#300);
#204=CURVE_STYLE('',#218,POSITIVE_LENGTH_MEASURE(0.18),#300);
#205=CURVE_STYLE('',#219,POSITIVE_LENGTH_MEASURE(0.18),#300);
#206=CURVE_STYLE('',#220,POSITIVE_LENGTH_MEASURE(0.13),#198);
#207=CURVE_STYLE('',#221,POSITIVE_LENGTH_MEASURE(0.13),#198);
#208=CURVE_STYLE('',#222,POSITIVE_LENGTH_MEASURE(0.13),#199);
#209=CURVE_STYLE('',#223,POSITIVE_LENGTH_MEASURE(0.13),#199);
#210=CURVE_STYLE('',#224,POSITIVE_LENGTH_MEASURE(0.13),#198);
#211=CURVE_STYLE('',#225,POSITIVE_LENGTH_MEASURE(0.13),#198);
#212=CURVE_STYLE('',#226,POSITIVE_LENGTH_MEASURE(0.13),#199);
#213=CURVE_STYLE('',#227,POSITIVE_LENGTH_MEASURE(0.13),#198);
#214=CURVE_STYLE('',#228,POSITIVE_LENGTH_MEASURE(0.13),#198);
#215=CURVE_STYLE('',#229,POSITIVE_LENGTH_MEASURE(0.13),#198);
#216=DRAUGHTING_PRE_DEFINED_CURVE_FONT('continuous');
#217=DRAUGHTING_PRE_DEFINED_CURVE_FONT('continuous');
#218=DRAUGHTING_PRE_DEFINED_CURVE_FONT('continuous');
#219=DRAUGHTING_PRE_DEFINED_CURVE_FONT('continuous');
#220=DRAUGHTING_PRE_DEFINED_CURVE_FONT('continuous');
#221=DRAUGHTING_PRE_DEFINED_CURVE_FONT('continuous');
#222=DRAUGHTING_PRE_DEFINED_CURVE_FONT('continuous');
#223=DRAUGHTING_PRE_DEFINED_CURVE_FONT('continuous');
#224=DRAUGHTING_PRE_DEFINED_CURVE_FONT('continuous');
#225=DRAUGHTING_PRE_DEFINED_CURVE_FONT('continuous');
#226=DRAUGHTING_PRE_DEFINED_CURVE_FONT('continuous');
#227=DRAUGHTING_PRE_DEFINED_CURVE_FONT('continuous');
#228=DRAUGHTING_PRE_DEFINED_CURVE_FONT('continuous');
#229=DRAUGHTING_PRE_DEFINED_CURVE_FONT('continuous');
#230=TRIMMED_CURVE('',#234,(PARAMETER_VALUE(0.)),(PARAMETER_VALUE(1.)),
 .T.,.PARAMETER.);
#231=TRIMMED_CURVE('',#235,(PARAMETER_VALUE(0.)),(PARAMETER_VALUE(1.)),
 .T.,.PARAMETER.);
#232=TRIMMED_CURVE('',#236,(PARAMETER_VALUE(0.)),(PARAMETER_VALUE(1.)),
 .T.,.PARAMETER.);
#233=TRIMMED_CURVE('',#237,(PARAMETER_VALUE(0.)),(PARAMETER_VALUE(1.)),
 .T.,.PARAMETER.);
#234=LINE('',#434,#248);
#235=LINE('',#435,#249);
#236=LINE('',#436,#250);
#237=LINE('',#437,#251);
#238=LINE('',#448,#252);
#239=LINE('',#453,#253);
#240=LINE('',#462,#254);
#241=LINE('',#467,#255);
#242=LINE('',#475,#256);
#243=LINE('',#479,#257);
#244=LINE('',#486,#258);
#245=LINE('',#487,#259);
#246=LINE('',#491,#260);
#247=LINE('',#495,#261);
#248=VECTOR('',#342,1.1);
#249=VECTOR('',#343,4.4);
#250=VECTOR('',#344,1.1);
#251=VECTOR('',#345,4.4);
#252=VECTOR('',#366,1.);
#253=VECTOR('',#369,1.);
#254=VECTOR('',#384,1.);
#255=VECTOR('',#387,1.);
#256=VECTOR('',#400,1.);
#257=VECTOR('',#403,1.);
#258=VECTOR('',#412,1.);
#259=VECTOR('',#413,1.);
#260=VECTOR('',#420,1.);
#261=VECTOR('',#423,1.);
#262=PRESENTATION_LAYER_ASSIGNMENT('1','Layer 1',(#433,#230,#231,#232,#233,
#302,#303,#306,#307,#308,#309,#310,#311,#42,#43));
#263=PRESENTATION_LAYER_ASSIGNMENT('2','Layer 2',(#304,#305));
#264=STYLED_ITEM('',(#281),#433);
#265=STYLED_ITEM('',(#282),#230);
#266=STYLED_ITEM('',(#283),#231);
#267=STYLED_ITEM('',(#284),#232);
#268=STYLED_ITEM('',(#285),#233);
#269=STYLED_ITEM('',(#286),#302);
#270=STYLED_ITEM('',(#287),#303);
#271=STYLED_ITEM('',(#288),#304);
#272=STYLED_ITEM('',(#289),#305);
#273=STYLED_ITEM('',(#290),#306);
#274=STYLED_ITEM('',(#291),#307);
#275=STYLED_ITEM('',(#292),#308);
#276=STYLED_ITEM('',(#293),#309);
#277=STYLED_ITEM('',(#294),#310);
#278=STYLED_ITEM('',(#295),#311);
#279=STYLED_ITEM('',(#296),#42);
#280=STYLED_ITEM('',(#297),#43);
#281=PRESENTATION_STYLE_ASSIGNMENT((#298));
#282=PRESENTATION_STYLE_ASSIGNMENT((#202));
#283=PRESENTATION_STYLE_ASSIGNMENT((#203));
#284=PRESENTATION_STYLE_ASSIGNMENT((#204));
#285=PRESENTATION_STYLE_ASSIGNMENT((#205));
#286=PRESENTATION_STYLE_ASSIGNMENT((#206));
#287=PRESENTATION_STYLE_ASSIGNMENT((#207));
#288=PRESENTATION_STYLE_ASSIGNMENT((#208));
#289=PRESENTATION_STYLE_ASSIGNMENT((#209));
#290=PRESENTATION_STYLE_ASSIGNMENT((#210));
#291=PRESENTATION_STYLE_ASSIGNMENT((#211));
#292=PRESENTATION_STYLE_ASSIGNMENT((#212));
#293=PRESENTATION_STYLE_ASSIGNMENT((#213));
#294=PRESENTATION_STYLE_ASSIGNMENT((#214));
#295=PRESENTATION_STYLE_ASSIGNMENT((#215));
#296=PRESENTATION_STYLE_ASSIGNMENT((#32));
#297=PRESENTATION_STYLE_ASSIGNMENT((#33));
#298=POINT_STYLE('',#299,POSITIVE_LENGTH_MEASURE(3.),#300);
#299=PRE_DEFINED_POINT_MARKER_SYMBOL('plus');
#300=DRAUGHTING_PRE_DEFINED_COLOUR('blue');
#301=AXIS2_PLACEMENT_3D('',#432,#340,#341);
#302=AXIS2_PLACEMENT_3D('',#438,#346,#347);
#303=AXIS2_PLACEMENT_3D('',#439,#348,#349);
#304=AXIS2_PLACEMENT_3D('CIP',#440,#350,#351);
#305=AXIS2_PLACEMENT_3D('PCS',#441,#352,#353);
#306=AXIS2_PLACEMENT_3D('MCS',#442,#354,#355);
#307=AXIS2_PLACEMENT_3D('',#443,#356,#357);
#308=AXIS2_PLACEMENT_3D('STEP_TEMP_1_1',#444,#358,#359);
#309=AXIS2_PLACEMENT_3D('',#445,#360,#361);
#310=AXIS2_PLACEMENT_3D('',#446,#362,#363);
#311=AXIS2_PLACEMENT_3D('',#447,#364,#365);
#312=AXIS2_PLACEMENT_3D('',#451,#367,#368);
#313=AXIS2_PLACEMENT_3D('',#455,#370,#371);
#314=AXIS2_PLACEMENT_3D('',#456,#372,#373);
#315=AXIS2_PLACEMENT_3D('',#457,#374,#375);
#316=AXIS2_PLACEMENT_3D('',#458,#376,#377);
#317=AXIS2_PLACEMENT_3D('',#459,#378,#379);
#318=AXIS2_PLACEMENT_3D('',#460,#380,#381);
#319=AXIS2_PLACEMENT_3D('',#461,#382,#383);
#320=AXIS2_PLACEMENT_3D('',#465,#385,#386);
#321=AXIS2_PLACEMENT_3D('',#469,#388,#389);
#322=AXIS2_PLACEMENT_3D('',#470,#390,#391);
#323=AXIS2_PLACEMENT_3D('',#471,#392,#393);
#324=AXIS2_PLACEMENT_3D('',#472,#394,#395);
#325=AXIS2_PLACEMENT_3D('',#473,#396,#397);
#326=AXIS2_PLACEMENT_3D('',#474,#398,#399);
#327=AXIS2_PLACEMENT_3D('',#477,#401,#402);
#328=AXIS2_PLACEMENT_3D('',#480,#404,#405);
#329=AXIS2_PLACEMENT_3D('',#481,#406,#407);
#330=AXIS2_PLACEMENT_3D('',#482,#408,#409);
#331=AXIS2_PLACEMENT_3D('',#483,#410,#411);
#332=AXIS2_PLACEMENT_3D('',#488,#414,#415);
#333=AXIS2_PLACEMENT_3D('',#489,#416,#417);
#334=AXIS2_PLACEMENT_3D('',#490,#418,#419);
#335=AXIS2_PLACEMENT_3D('',#493,#421,#422);
#336=AXIS2_PLACEMENT_3D('',#496,#424,#425);
#337=AXIS2_PLACEMENT_3D('',#497,#426,#427);
#338=AXIS2_PLACEMENT_3D('',#498,#428,#429);
#339=AXIS2_PLACEMENT_3D('',#499,#430,#431);
#340=DIRECTION('',(0.,0.,1.));
#341=DIRECTION('',(1.,0.,0.));
#342=DIRECTION('',(-1.,0.,0.));
#343=DIRECTION('',(0.,0.,1.));
#344=DIRECTION('',(1.,0.,0.));
#345=DIRECTION('',(0.,0.,-1.));
#346=DIRECTION('',(0.,0.,1.));
#347=DIRECTION('',(1.,0.,0.));
#348=DIRECTION('',(0.,0.,1.));
#349=DIRECTION('',(1.,0.,0.));
#350=DIRECTION('',(0.,0.,1.));
#351=DIRECTION('',(1.,0.,0.));
#352=DIRECTION('',(0.,0.,1.));
#353=DIRECTION('',(1.,0.,0.));
#354=DIRECTION('',(0.,0.,1.));
#355=DIRECTION('',(1.,0.,0.));
#356=DIRECTION('',(0.,0.,1.));
#357=DIRECTION('',(1.,0.,0.));
#358=DIRECTION('',(0.,0.,1.));
#359=DIRECTION('',(1.,0.,0.));
#360=DIRECTION('',(0.,0.,1.));
#361=DIRECTION('',(1.,0.,0.));
#362=DIRECTION('',(0.,0.,1.));
#363=DIRECTION('',(1.,0.,0.));
#364=DIRECTION('',(0.,0.,1.));
#365=DIRECTION('',(1.,0.,0.));
#366=DIRECTION('',(0.,0.,-1.));
#367=DIRECTION('',(0.,0.,1.));
#368=DIRECTION('',(0.,-1.,0.));
#369=DIRECTION('',(0.,0.,-1.));
#370=DIRECTION('',(0.,0.,-1.));
#371=DIRECTION('',(0.,1.,0.));
#372=DIRECTION('',(0.,0.,-1.));
#373=DIRECTION('',(0.,1.,0.));
#374=DIRECTION('',(0.,0.,-1.));
#375=DIRECTION('',(0.,-1.,0.));
#376=DIRECTION('',(0.,0.,-1.));
#377=DIRECTION('',(1.,0.,0.));
#378=DIRECTION('',(0.,0.,1.));
#379=DIRECTION('',(0.,1.,0.));
#380=DIRECTION('',(0.,0.,-1.));
#381=DIRECTION('',(0.,1.,0.));
#382=DIRECTION('',(0.,0.,-1.));
#383=DIRECTION('',(0.,1.,0.));
#384=DIRECTION('',(0.,-1.014695535093E-13,-1.));
#385=DIRECTION('',(0.,0.,-1.));
#386=DIRECTION('',(0.,1.,0.));
#387=DIRECTION('',(0.,1.014695535093E-13,-1.));
#388=DIRECTION('',(0.,0.,1.));
#389=DIRECTION('',(0.,-1.,0.));
#390=DIRECTION('',(0.,0.,-1.));
#391=DIRECTION('',(0.,1.,0.));
#392=DIRECTION('',(0.,0.,1.));
#393=DIRECTION('',(0.,1.,0.));
#394=DIRECTION('',(0.,0.,1.));
#395=DIRECTION('',(-1.,0.,0.));
#396=DIRECTION('',(0.,0.,-1.));
#397=DIRECTION('',(0.,-1.,0.));
#398=DIRECTION('',(0.,0.,-1.));
#399=DIRECTION('',(0.,1.,0.));
#400=DIRECTION('',(0.,-0.258819045102493,0.965925826289076));
#401=DIRECTION('',(0.,0.,1.));
#402=DIRECTION('',(0.,1.,0.));
#403=DIRECTION('',(0.,0.258819045102493,0.965925826289076));
#404=DIRECTION('',(0.,0.,1.));
#405=DIRECTION('',(0.,-1.,3.86210465492245E-16));
#406=DIRECTION('',(0.,0.,1.));
#407=DIRECTION('',(0.,-1.,0.));
#408=DIRECTION('',(0.,0.,1.));
#409=DIRECTION('',(0.,-1.,3.86210465492245E-16));
#410=DIRECTION('',(0.,0.,-1.));
#411=DIRECTION('',(0.,1.,0.));
#412=DIRECTION('',(0.,-1.357540999216E-14,-1.));
#413=DIRECTION('',(0.,1.357540999216E-14,-1.));
#414=DIRECTION('',(0.,0.,-1.));
#415=DIRECTION('',(0.,1.,0.));
#416=DIRECTION('',(0.,0.,-1.));
#417=DIRECTION('',(0.,-1.,0.));
#418=DIRECTION('',(0.,0.,-1.));
#419=DIRECTION('',(0.,1.,0.));
#420=DIRECTION('',(0.,0.707106781186498,0.707106781186598));
#421=DIRECTION('',(0.,0.,-1.));
#422=DIRECTION('',(0.,-1.,0.));
#423=DIRECTION('',(0.,-0.707106781186498,0.707106781186598));
#424=DIRECTION('',(0.,0.,-1.));
#425=DIRECTION('',(0.,1.,-4.15585580190092E-17));
#426=DIRECTION('',(0.,0.,-1.));
#427=DIRECTION('',(0.,1.,0.));
#428=DIRECTION('',(0.,0.,-1.));
#429=DIRECTION('',(0.,1.,-4.15585580190092E-17));
#430=DIRECTION('',(0.,0.,-1.));
#431=DIRECTION('',(0.,1.,0.));
#432=CARTESIAN_POINT('',(0.,0.,0.));
#433=CARTESIAN_POINT('CRP',(-1.1,0.,0.));
#434=CARTESIAN_POINT('',(0.,0.,0.));
#435=CARTESIAN_POINT('',(-1.1,0.,0.));
#436=CARTESIAN_POINT('',(-1.1,0.,4.4));
#437=CARTESIAN_POINT('',(0.,0.,4.4));
#438=CARTESIAN_POINT('',(0.,0.,0.));
#439=CARTESIAN_POINT('',(0.,0.,0.));
#440=CARTESIAN_POINT('',(0.,0.,0.));
#441=CARTESIAN_POINT('',(0.,0.,50.));
#442=CARTESIAN_POINT('',(0.,0.,14.7));
#443=CARTESIAN_POINT('',(0.,0.,0.));
#444=CARTESIAN_POINT('',(0.,0.,0.));
#445=CARTESIAN_POINT('',(0.,0.,0.));
#446=CARTESIAN_POINT('',(0.,0.,0.));
#447=CARTESIAN_POINT('',(0.,0.,0.));
#448=CARTESIAN_POINT('',(0.,-1.1,4.4));
#449=CARTESIAN_POINT('',(0.,-1.1,4.4));
#450=CARTESIAN_POINT('',(0.,-1.1,0.));
#451=CARTESIAN_POINT('',(0.,0.,0.));
#452=CARTESIAN_POINT('',(0.,1.1,0.));
#453=CARTESIAN_POINT('',(0.,1.1,4.4));
#454=CARTESIAN_POINT('',(0.,1.1,4.4));
#455=CARTESIAN_POINT('',(0.,0.,4.4));
#456=CARTESIAN_POINT('',(0.,0.,52.5));
#457=CARTESIAN_POINT('',(0.,0.,4.4));
#458=CARTESIAN_POINT('',(150.,150.,4.4));
#459=CARTESIAN_POINT('',(0.,0.,0.));
#460=CARTESIAN_POINT('',(0.,0.,52.5));
#461=CARTESIAN_POINT('',(0.,0.,0.));
#462=CARTESIAN_POINT('',(0.,1.1,9.341154273188));
#463=CARTESIAN_POINT('',(0.,1.100000000001,9.341154273188));
#464=CARTESIAN_POINT('',(0.,1.1,4.4));
#465=CARTESIAN_POINT('',(0.,0.,9.341154273188));
#466=CARTESIAN_POINT('',(0.,-1.1,9.341154273188));
#467=CARTESIAN_POINT('',(0.,-1.1,9.341154273188));
#468=CARTESIAN_POINT('',(0.,-1.1,4.4));
#469=CARTESIAN_POINT('',(0.,0.,4.4));
#470=CARTESIAN_POINT('',(0.,0.,52.5));
#471=CARTESIAN_POINT('',(0.,0.,4.4));
#472=CARTESIAN_POINT('',(-150.,150.,4.4));
#473=CARTESIAN_POINT('',(0.,0.,9.341154273188));
#474=CARTESIAN_POINT('',(0.,0.,52.5));
#475=CARTESIAN_POINT('',(0.,-2.000000000001,12.7));
#476=CARTESIAN_POINT('',(0.,-2.000000000001,12.7));
#477=CARTESIAN_POINT('',(0.,0.,12.7));
#478=CARTESIAN_POINT('',(0.,2.000000000001,12.7));
#479=CARTESIAN_POINT('',(0.,2.000000000001,12.7));
#480=CARTESIAN_POINT('',(0.,0.,11.02057713659));
#481=CARTESIAN_POINT('',(0.,0.,12.7));
#482=CARTESIAN_POINT('',(0.,0.,11.02057713659));
#483=CARTESIAN_POINT('',(0.,0.,49.6));
#484=CARTESIAN_POINT('',(0.,2.,49.6));
#485=CARTESIAN_POINT('',(0.,-2.,49.6));
#486=CARTESIAN_POINT('',(0.,-2.,49.6));
#487=CARTESIAN_POINT('',(0.,2.,49.6));
#488=CARTESIAN_POINT('',(0.,0.,52.5));
#489=CARTESIAN_POINT('',(0.,0.,49.6));
#490=CARTESIAN_POINT('',(0.,0.,52.5));
#491=CARTESIAN_POINT('',(0.,-1.6,50.));
#492=CARTESIAN_POINT('',(0.,-1.6,50.));
#493=CARTESIAN_POINT('',(0.,0.,50.));
#494=CARTESIAN_POINT('',(0.,1.6,50.));
#495=CARTESIAN_POINT('',(0.,1.6,50.));
#496=CARTESIAN_POINT('',(0.,0.,49.8));
#497=CARTESIAN_POINT('',(0.,0.,50.));
#498=CARTESIAN_POINT('',(0.,0.,49.8));
#499=CARTESIAN_POINT('',(0.,0.,50.));
#500=MECHANICAL_DESIGN_GEOMETRIC_PRESENTATION_REPRESENTATION('',(#264,#265,
#266,#267,#268,#269,#270,#271,#272,#273,#274,#275,#276,#277,#278,#279,#280),
#501);
#501=(
GEOMETRIC_REPRESENTATION_CONTEXT(3)
GLOBAL_UNCERTAINTY_ASSIGNED_CONTEXT((#502))
GLOBAL_UNIT_ASSIGNED_CONTEXT((#508,#504,#503))
REPRESENTATION_CONTEXT('MFE0220X02S040','TOP_LEVEL_ASSEMBLY_PART')
);
#502=UNCERTAINTY_MEASURE_WITH_UNIT(LENGTH_MEASURE(2.E-5),#508,
'DISTANCE_ACCURACY_VALUE','Maximum Tolerance applied to model');
#503=(
NAMED_UNIT(*)
SI_UNIT($,.STERADIAN.)
SOLID_ANGLE_UNIT()
);
#504=(
CONVERSION_BASED_UNIT('DEGREE',#506)
NAMED_UNIT(#505)
PLANE_ANGLE_UNIT()
);
#505=DIMENSIONAL_EXPONENTS(0.,0.,0.,0.,0.,0.,0.);
#506=PLANE_ANGLE_MEASURE_WITH_UNIT(PLANE_ANGLE_MEASURE(0.0174532925),#507);
#507=(
NAMED_UNIT(*)
PLANE_ANGLE_UNIT()
SI_UNIT($,.RADIAN.)
);
#508=(
LENGTH_UNIT()
NAMED_UNIT(*)
SI_UNIT(.MILLI.,.METRE.)
);
ENDSEC;
END-ISO-10303-21;
