ISO-10303-21;
HEADER;
/* Generated by software containing ST-Developer
 * from STEP Tools, Inc. (www.steptools.com) 
 */
/* OPTION: using custom schema-name function */

FILE_DESCRIPTION(
/* description */ (''),
/* implementation_level */ '2;1');

FILE_NAME(
/* name */ 'IMX12B3FV12009.stp',
/* time_stamp */ '2023-10-12T14:09:47+09:00',
/* author */ (''),
/* organization */ (''),
/* preprocessor_version */ 'ST-DEVELOPER v16',
/* originating_system */ 'SIEMENS PLM Software NX 10.0',
/* authorisation */ '');

FILE_SCHEMA (('AUTOMOTIVE_DESIGN { 1 0 10303 214 3 1 1 1 }'));
ENDSEC;

DATA;
#10=CONSTRUCTIVE_GEOMETRY_REPRESENTATION_RELATIONSHIP(
'supplemental geometry','',#26,#11);
#11=CONSTRUCTIVE_GEOMETRY_REPRESENTATION('supplemental geometry',(#347,
#348,#349,#350,#351,#352,#353,#354,#355,#356),#588);
#12=GEOMETRICALLY_BOUNDED_WIREFRAME_SHAPE_REPRESENTATION(
'IMX12B3FV12009-None',(#27),#588);
#13=SHAPE_REPRESENTATION_RELATIONSHIP('None',
'relationship between IMX12B3FV12009-None and IMX12B3FV12009-None',#26,
#15);
#14=SHAPE_REPRESENTATION_RELATIONSHIP('None',
'relationship between IMX12B3FV12009-None and IMX12B3FV12009-None',#26,
#12);
#15=ADVANCED_BREP_SHAPE_REPRESENTATION('IMX12B3FV12009-None',(#46,#47),
#588);
#16=SHAPE_DEFINITION_REPRESENTATION(#17,#26);
#17=PRODUCT_DEFINITION_SHAPE('','SHAPE FOR IMX12B3FV12009_ASM.',#18);
#18=PRODUCT_DEFINITION('part definition','',#20,#19);
#19=PRODUCT_DEFINITION_CONTEXT('part definition',#25,'design');
#20=PRODUCT_DEFINITION_FORMATION_WITH_SPECIFIED_SOURCE(' ',' ',#22,
 .NOT_KNOWN.);
#21=PRODUCT_RELATED_PRODUCT_CATEGORY('part','',(#22));
#22=PRODUCT('IMX12B3FV12009_ASM','IMX12B3FV12009_ASM','NOT SPECIFIED',(#23));
#23=PRODUCT_CONTEXT('',#25,'mechanical');
#24=APPLICATION_PROTOCOL_DEFINITION('international standard',
'automotive_design',2010,#25);
#25=APPLICATION_CONTEXT(
'core data for automotive mechanical design processes');
#26=SHAPE_REPRESENTATION('IMX12B3FV12009-None',(#345),#588);
#27=GEOMETRIC_CURVE_SET('None',(#506,#276,#277,#278,#279));
#28=CONICAL_SURFACE('',#379,4.071666666667,1.909152432996);
#29=CONICAL_SURFACE('',#381,4.071666666667,1.909152432996);
#30=CONICAL_SURFACE('',#390,2.75,45.);
#31=CONICAL_SURFACE('',#392,2.75,45.);
#32=FACE_BOUND('',#103,.T.);
#33=FACE_BOUND('',#104,.T.);
#34=FACE_BOUND('',#107,.T.);
#35=FACE_BOUND('',#108,.T.);
#36=SURFACE_STYLE_USAGE(.BOTH.,#38);
#37=SURFACE_STYLE_USAGE(.BOTH.,#39);
#38=SURFACE_SIDE_STYLE('',(#40));
#39=SURFACE_SIDE_STYLE('',(#41));
#40=SURFACE_STYLE_FILL_AREA(#42);
#41=SURFACE_STYLE_FILL_AREA(#43);
#42=FILL_AREA_STYLE('',(#44));
#43=FILL_AREA_STYLE('',(#45));
#44=FILL_AREA_STYLE_COLOUR('',#225);
#45=FILL_AREA_STYLE_COLOUR('',#226);
#46=MANIFOLD_SOLID_BREP('CUT',#48);
#47=MANIFOLD_SOLID_BREP('NOCUT',#49);
#48=CLOSED_SHELL('',(#57,#58,#59,#60,#61));
#49=CLOSED_SHELL('',(#62,#63,#64,#65,#66,#67,#68,#69,#70,#71,#72,#73));
#50=SPHERICAL_SURFACE('',#366,6.);
#51=SPHERICAL_SURFACE('',#367,6.);
#52=PLANE('',#363);
#53=PLANE('',#372);
#54=PLANE('',#377);
#55=PLANE('',#384);
#56=PLANE('',#393);
#57=ADVANCED_FACE('',(#80),#74,.T.);
#58=ADVANCED_FACE('',(#81),#75,.T.);
#59=ADVANCED_FACE('',(#82),#52,.F.);
#60=ADVANCED_FACE('',(#83),#50,.T.);
#61=ADVANCED_FACE('',(#84),#51,.T.);
#62=ADVANCED_FACE('',(#85),#76,.T.);
#63=ADVANCED_FACE('',(#86),#53,.F.);
#64=ADVANCED_FACE('',(#87),#77,.T.);
#65=ADVANCED_FACE('',(#32,#33),#54,.F.);
#66=ADVANCED_FACE('',(#88),#28,.T.);
#67=ADVANCED_FACE('',(#89),#29,.T.);
#68=ADVANCED_FACE('',(#34,#35),#55,.F.);
#69=ADVANCED_FACE('',(#90),#78,.T.);
#70=ADVANCED_FACE('',(#91),#79,.T.);
#71=ADVANCED_FACE('',(#92),#30,.T.);
#72=ADVANCED_FACE('',(#93),#31,.T.);
#73=ADVANCED_FACE('',(#94),#56,.F.);
#74=CYLINDRICAL_SURFACE('',#359,6.);
#75=CYLINDRICAL_SURFACE('',#362,6.);
#76=CYLINDRICAL_SURFACE('',#370,5.85);
#77=CYLINDRICAL_SURFACE('',#374,5.85);
#78=CYLINDRICAL_SURFACE('',#386,3.);
#79=CYLINDRICAL_SURFACE('',#388,3.);
#80=FACE_OUTER_BOUND('',#95,.T.);
#81=FACE_OUTER_BOUND('',#96,.T.);
#82=FACE_OUTER_BOUND('',#97,.T.);
#83=FACE_OUTER_BOUND('',#98,.T.);
#84=FACE_OUTER_BOUND('',#99,.T.);
#85=FACE_OUTER_BOUND('',#100,.T.);
#86=FACE_OUTER_BOUND('',#101,.T.);
#87=FACE_OUTER_BOUND('',#102,.T.);
#88=FACE_OUTER_BOUND('',#105,.T.);
#89=FACE_OUTER_BOUND('',#106,.T.);
#90=FACE_OUTER_BOUND('',#109,.T.);
#91=FACE_OUTER_BOUND('',#110,.T.);
#92=FACE_OUTER_BOUND('',#111,.T.);
#93=FACE_OUTER_BOUND('',#112,.T.);
#94=FACE_OUTER_BOUND('',#113,.T.);
#95=EDGE_LOOP('',(#114,#115,#116,#117));
#96=EDGE_LOOP('',(#118,#119,#120,#121));
#97=EDGE_LOOP('',(#122,#123));
#98=EDGE_LOOP('',(#124,#125,#126));
#99=EDGE_LOOP('',(#127,#128,#129));
#100=EDGE_LOOP('',(#130,#131,#132,#133));
#101=EDGE_LOOP('',(#134,#135));
#102=EDGE_LOOP('',(#136,#137,#138,#139));
#103=EDGE_LOOP('',(#140,#141));
#104=EDGE_LOOP('',(#142,#143));
#105=EDGE_LOOP('',(#144,#145,#146,#147));
#106=EDGE_LOOP('',(#148,#149,#150,#151));
#107=EDGE_LOOP('',(#152,#153));
#108=EDGE_LOOP('',(#154,#155));
#109=EDGE_LOOP('',(#156,#157,#158,#159));
#110=EDGE_LOOP('',(#160,#161,#162,#163));
#111=EDGE_LOOP('',(#164,#165,#166,#167));
#112=EDGE_LOOP('',(#168,#169,#170,#171));
#113=EDGE_LOOP('',(#172,#173));
#114=ORIENTED_EDGE('',*,*,#193,.T.);
#115=ORIENTED_EDGE('',*,*,#194,.T.);
#116=ORIENTED_EDGE('',*,*,#195,.T.);
#117=ORIENTED_EDGE('',*,*,#196,.F.);
#118=ORIENTED_EDGE('',*,*,#197,.T.);
#119=ORIENTED_EDGE('',*,*,#194,.F.);
#120=ORIENTED_EDGE('',*,*,#198,.T.);
#121=ORIENTED_EDGE('',*,*,#196,.T.);
#122=ORIENTED_EDGE('',*,*,#193,.F.);
#123=ORIENTED_EDGE('',*,*,#198,.F.);
#124=ORIENTED_EDGE('',*,*,#199,.T.);
#125=ORIENTED_EDGE('',*,*,#197,.F.);
#126=ORIENTED_EDGE('',*,*,#200,.F.);
#127=ORIENTED_EDGE('',*,*,#195,.F.);
#128=ORIENTED_EDGE('',*,*,#199,.F.);
#129=ORIENTED_EDGE('',*,*,#200,.T.);
#130=ORIENTED_EDGE('',*,*,#201,.F.);
#131=ORIENTED_EDGE('',*,*,#202,.T.);
#132=ORIENTED_EDGE('',*,*,#203,.T.);
#133=ORIENTED_EDGE('',*,*,#204,.T.);
#134=ORIENTED_EDGE('',*,*,#205,.F.);
#135=ORIENTED_EDGE('',*,*,#204,.F.);
#136=ORIENTED_EDGE('',*,*,#203,.F.);
#137=ORIENTED_EDGE('',*,*,#206,.T.);
#138=ORIENTED_EDGE('',*,*,#201,.T.);
#139=ORIENTED_EDGE('',*,*,#205,.T.);
#140=ORIENTED_EDGE('',*,*,#202,.F.);
#141=ORIENTED_EDGE('',*,*,#206,.F.);
#142=ORIENTED_EDGE('',*,*,#207,.F.);
#143=ORIENTED_EDGE('',*,*,#208,.F.);
#144=ORIENTED_EDGE('',*,*,#209,.T.);
#145=ORIENTED_EDGE('',*,*,#210,.T.);
#146=ORIENTED_EDGE('',*,*,#208,.T.);
#147=ORIENTED_EDGE('',*,*,#211,.F.);
#148=ORIENTED_EDGE('',*,*,#207,.T.);
#149=ORIENTED_EDGE('',*,*,#210,.F.);
#150=ORIENTED_EDGE('',*,*,#212,.T.);
#151=ORIENTED_EDGE('',*,*,#211,.T.);
#152=ORIENTED_EDGE('',*,*,#209,.F.);
#153=ORIENTED_EDGE('',*,*,#212,.F.);
#154=ORIENTED_EDGE('',*,*,#213,.F.);
#155=ORIENTED_EDGE('',*,*,#214,.F.);
#156=ORIENTED_EDGE('',*,*,#215,.T.);
#157=ORIENTED_EDGE('',*,*,#216,.T.);
#158=ORIENTED_EDGE('',*,*,#214,.T.);
#159=ORIENTED_EDGE('',*,*,#217,.F.);
#160=ORIENTED_EDGE('',*,*,#213,.T.);
#161=ORIENTED_EDGE('',*,*,#216,.F.);
#162=ORIENTED_EDGE('',*,*,#218,.T.);
#163=ORIENTED_EDGE('',*,*,#217,.T.);
#164=ORIENTED_EDGE('',*,*,#218,.F.);
#165=ORIENTED_EDGE('',*,*,#219,.T.);
#166=ORIENTED_EDGE('',*,*,#220,.T.);
#167=ORIENTED_EDGE('',*,*,#221,.F.);
#168=ORIENTED_EDGE('',*,*,#222,.T.);
#169=ORIENTED_EDGE('',*,*,#219,.F.);
#170=ORIENTED_EDGE('',*,*,#215,.F.);
#171=ORIENTED_EDGE('',*,*,#221,.T.);
#172=ORIENTED_EDGE('',*,*,#222,.F.);
#173=ORIENTED_EDGE('',*,*,#220,.F.);
#174=VERTEX_POINT('',#522);
#175=VERTEX_POINT('',#523);
#176=VERTEX_POINT('',#525);
#177=VERTEX_POINT('',#527);
#178=VERTEX_POINT('',#535);
#179=VERTEX_POINT('',#540);
#180=VERTEX_POINT('',#541);
#181=VERTEX_POINT('',#543);
#182=VERTEX_POINT('',#545);
#183=VERTEX_POINT('',#553);
#184=VERTEX_POINT('',#554);
#185=VERTEX_POINT('',#558);
#186=VERTEX_POINT('',#559);
#187=VERTEX_POINT('',#566);
#188=VERTEX_POINT('',#567);
#189=VERTEX_POINT('',#571);
#190=VERTEX_POINT('',#572);
#191=VERTEX_POINT('',#579);
#192=VERTEX_POINT('',#581);
#193=EDGE_CURVE('',#174,#175,#228,.T.);
#194=EDGE_CURVE('',#175,#176,#283,.T.);
#195=EDGE_CURVE('',#176,#177,#229,.T.);
#196=EDGE_CURVE('',#174,#177,#284,.T.);
#197=EDGE_CURVE('',#177,#176,#230,.T.);
#198=EDGE_CURVE('',#175,#174,#231,.T.);
#199=EDGE_CURVE('',#178,#176,#232,.T.);
#200=EDGE_CURVE('',#178,#177,#233,.T.);
#201=EDGE_CURVE('',#179,#180,#285,.T.);
#202=EDGE_CURVE('',#179,#181,#234,.T.);
#203=EDGE_CURVE('',#181,#182,#286,.T.);
#204=EDGE_CURVE('',#182,#180,#235,.T.);
#205=EDGE_CURVE('',#180,#182,#236,.T.);
#206=EDGE_CURVE('',#181,#179,#237,.T.);
#207=EDGE_CURVE('',#183,#184,#238,.T.);
#208=EDGE_CURVE('',#184,#183,#239,.T.);
#209=EDGE_CURVE('',#185,#186,#240,.T.);
#210=EDGE_CURVE('',#186,#184,#287,.T.);
#211=EDGE_CURVE('',#185,#183,#288,.T.);
#212=EDGE_CURVE('',#186,#185,#241,.T.);
#213=EDGE_CURVE('',#187,#188,#242,.T.);
#214=EDGE_CURVE('',#188,#187,#243,.T.);
#215=EDGE_CURVE('',#189,#190,#244,.T.);
#216=EDGE_CURVE('',#190,#188,#289,.T.);
#217=EDGE_CURVE('',#189,#187,#290,.T.);
#218=EDGE_CURVE('',#190,#189,#245,.T.);
#219=EDGE_CURVE('',#190,#191,#291,.T.);
#220=EDGE_CURVE('',#191,#192,#246,.T.);
#221=EDGE_CURVE('',#189,#192,#292,.T.);
#222=EDGE_CURVE('',#192,#191,#247,.T.);
#223=COLOUR_RGB('Strong Stone',0.576470588235294,0.54508278019379,0.392156862745098);
#224=COLOUR_RGB('Medium Umber',0.372533760585946,0.313725490196078,0.270572976272221);
#225=COLOUR_RGB('Light Gray',0.8,0.8,0.8);
#226=COLOUR_RGB('non-cutting part and shank',0.501960784313725,0.501960784313725,
0.501960784313725);
#227=CIRCLE('',#346,6.);
#228=CIRCLE('',#357,6.);
#229=CIRCLE('',#358,6.);
#230=CIRCLE('',#360,6.);
#231=CIRCLE('',#361,6.);
#232=CIRCLE('',#364,6.);
#233=CIRCLE('',#365,6.);
#234=CIRCLE('',#368,5.85);
#235=CIRCLE('',#369,5.85);
#236=CIRCLE('',#371,5.85);
#237=CIRCLE('',#373,5.85);
#238=CIRCLE('',#375,4.2);
#239=CIRCLE('',#376,4.2);
#240=CIRCLE('',#378,3.943333333334);
#241=CIRCLE('',#380,3.943333333334);
#242=CIRCLE('',#382,3.);
#243=CIRCLE('',#383,3.);
#244=CIRCLE('',#385,3.);
#245=CIRCLE('',#387,3.);
#246=CIRCLE('',#389,2.5);
#247=CIRCLE('',#391,2.5);
#248=CURVE_STYLE('',#262,POSITIVE_LENGTH_MEASURE(0.18),#344);
#249=CURVE_STYLE('',#263,POSITIVE_LENGTH_MEASURE(0.18),#344);
#250=CURVE_STYLE('',#264,POSITIVE_LENGTH_MEASURE(0.18),#344);
#251=CURVE_STYLE('',#265,POSITIVE_LENGTH_MEASURE(0.18),#344);
#252=CURVE_STYLE('',#266,POSITIVE_LENGTH_MEASURE(0.13),#223);
#253=CURVE_STYLE('',#267,POSITIVE_LENGTH_MEASURE(0.13),#223);
#254=CURVE_STYLE('',#268,POSITIVE_LENGTH_MEASURE(0.13),#224);
#255=CURVE_STYLE('',#269,POSITIVE_LENGTH_MEASURE(0.13),#224);
#256=CURVE_STYLE('',#270,POSITIVE_LENGTH_MEASURE(0.13),#223);
#257=CURVE_STYLE('',#271,POSITIVE_LENGTH_MEASURE(0.13),#223);
#258=CURVE_STYLE('',#272,POSITIVE_LENGTH_MEASURE(0.13),#224);
#259=CURVE_STYLE('',#273,POSITIVE_LENGTH_MEASURE(0.13),#223);
#260=CURVE_STYLE('',#274,POSITIVE_LENGTH_MEASURE(0.13),#223);
#261=CURVE_STYLE('',#275,POSITIVE_LENGTH_MEASURE(0.13),#223);
#262=DRAUGHTING_PRE_DEFINED_CURVE_FONT('continuous');
#263=DRAUGHTING_PRE_DEFINED_CURVE_FONT('continuous');
#264=DRAUGHTING_PRE_DEFINED_CURVE_FONT('continuous');
#265=DRAUGHTING_PRE_DEFINED_CURVE_FONT('continuous');
#266=DRAUGHTING_PRE_DEFINED_CURVE_FONT('continuous');
#267=DRAUGHTING_PRE_DEFINED_CURVE_FONT('continuous');
#268=DRAUGHTING_PRE_DEFINED_CURVE_FONT('continuous');
#269=DRAUGHTING_PRE_DEFINED_CURVE_FONT('continuous');
#270=DRAUGHTING_PRE_DEFINED_CURVE_FONT('continuous');
#271=DRAUGHTING_PRE_DEFINED_CURVE_FONT('continuous');
#272=DRAUGHTING_PRE_DEFINED_CURVE_FONT('continuous');
#273=DRAUGHTING_PRE_DEFINED_CURVE_FONT('continuous');
#274=DRAUGHTING_PRE_DEFINED_CURVE_FONT('continuous');
#275=DRAUGHTING_PRE_DEFINED_CURVE_FONT('continuous');
#276=TRIMMED_CURVE('',#280,(PARAMETER_VALUE(0.)),(PARAMETER_VALUE(1.)),
 .T.,.PARAMETER.);
#277=TRIMMED_CURVE('',#281,(PARAMETER_VALUE(0.)),(PARAMETER_VALUE(1.)),
 .T.,.PARAMETER.);
#278=TRIMMED_CURVE('',#282,(PARAMETER_VALUE(0.)),(PARAMETER_VALUE(1.)),
 .T.,.PARAMETER.);
#279=TRIMMED_CURVE('',#227,(PARAMETER_VALUE(0.)),(PARAMETER_VALUE(90.)),
 .T.,.PARAMETER.);
#280=LINE('',#507,#293);
#281=LINE('',#508,#294);
#282=LINE('',#509,#295);
#283=LINE('',#524,#296);
#284=LINE('',#528,#297);
#285=LINE('',#539,#298);
#286=LINE('',#544,#299);
#287=LINE('',#560,#300);
#288=LINE('',#561,#301);
#289=LINE('',#573,#302);
#290=LINE('',#574,#303);
#291=LINE('',#578,#304);
#292=LINE('',#582,#305);
#293=VECTOR('',#396,3.6);
#294=VECTOR('',#397,6.);
#295=VECTOR('',#398,9.6);
#296=VECTOR('',#423,1.);
#297=VECTOR('',#426,1.);
#298=VECTOR('',#445,1.);
#299=VECTOR('',#448,1.);
#300=VECTOR('',#469,1.);
#301=VECTOR('',#470,1.);
#302=VECTOR('',#485,1.);
#303=VECTOR('',#486,1.);
#304=VECTOR('',#493,1.);
#305=VECTOR('',#496,1.);
#306=PRESENTATION_LAYER_ASSIGNMENT('1','Layer 1',(#506,#276,#277,#278,#279,
#347,#348,#351,#352,#353,#354,#355,#356,#46,#47));
#307=PRESENTATION_LAYER_ASSIGNMENT('2','Layer 2',(#349,#350));
#308=STYLED_ITEM('',(#325),#506);
#309=STYLED_ITEM('',(#326),#276);
#310=STYLED_ITEM('',(#327),#277);
#311=STYLED_ITEM('',(#328),#278);
#312=STYLED_ITEM('',(#329),#279);
#313=STYLED_ITEM('',(#330),#347);
#314=STYLED_ITEM('',(#331),#348);
#315=STYLED_ITEM('',(#332),#349);
#316=STYLED_ITEM('',(#333),#350);
#317=STYLED_ITEM('',(#334),#351);
#318=STYLED_ITEM('',(#335),#352);
#319=STYLED_ITEM('',(#336),#353);
#320=STYLED_ITEM('',(#337),#354);
#321=STYLED_ITEM('',(#338),#355);
#322=STYLED_ITEM('',(#339),#356);
#323=STYLED_ITEM('',(#340),#46);
#324=STYLED_ITEM('',(#341),#47);
#325=PRESENTATION_STYLE_ASSIGNMENT((#342));
#326=PRESENTATION_STYLE_ASSIGNMENT((#248));
#327=PRESENTATION_STYLE_ASSIGNMENT((#249));
#328=PRESENTATION_STYLE_ASSIGNMENT((#250));
#329=PRESENTATION_STYLE_ASSIGNMENT((#251));
#330=PRESENTATION_STYLE_ASSIGNMENT((#252));
#331=PRESENTATION_STYLE_ASSIGNMENT((#253));
#332=PRESENTATION_STYLE_ASSIGNMENT((#254));
#333=PRESENTATION_STYLE_ASSIGNMENT((#255));
#334=PRESENTATION_STYLE_ASSIGNMENT((#256));
#335=PRESENTATION_STYLE_ASSIGNMENT((#257));
#336=PRESENTATION_STYLE_ASSIGNMENT((#258));
#337=PRESENTATION_STYLE_ASSIGNMENT((#259));
#338=PRESENTATION_STYLE_ASSIGNMENT((#260));
#339=PRESENTATION_STYLE_ASSIGNMENT((#261));
#340=PRESENTATION_STYLE_ASSIGNMENT((#36));
#341=PRESENTATION_STYLE_ASSIGNMENT((#37));
#342=POINT_STYLE('',#343,POSITIVE_LENGTH_MEASURE(3.),#344);
#343=PRE_DEFINED_POINT_MARKER_SYMBOL('plus');
#344=DRAUGHTING_PRE_DEFINED_COLOUR('blue');
#345=AXIS2_PLACEMENT_3D('',#505,#394,#395);
#346=AXIS2_PLACEMENT_3D('',#510,#399,#400);
#347=AXIS2_PLACEMENT_3D('',#511,#401,#402);
#348=AXIS2_PLACEMENT_3D('',#512,#403,#404);
#349=AXIS2_PLACEMENT_3D('CIP',#513,#405,#406);
#350=AXIS2_PLACEMENT_3D('PCS',#514,#407,#408);
#351=AXIS2_PLACEMENT_3D('MCS',#515,#409,#410);
#352=AXIS2_PLACEMENT_3D('',#516,#411,#412);
#353=AXIS2_PLACEMENT_3D('STEP_TEMP_IMX_2_1',#517,#413,#414);
#354=AXIS2_PLACEMENT_3D('',#518,#415,#416);
#355=AXIS2_PLACEMENT_3D('',#519,#417,#418);
#356=AXIS2_PLACEMENT_3D('',#520,#419,#420);
#357=AXIS2_PLACEMENT_3D('',#521,#421,#422);
#358=AXIS2_PLACEMENT_3D('',#526,#424,#425);
#359=AXIS2_PLACEMENT_3D('',#529,#427,#428);
#360=AXIS2_PLACEMENT_3D('',#530,#429,#430);
#361=AXIS2_PLACEMENT_3D('',#531,#431,#432);
#362=AXIS2_PLACEMENT_3D('',#532,#433,#434);
#363=AXIS2_PLACEMENT_3D('',#533,#435,#436);
#364=AXIS2_PLACEMENT_3D('',#534,#437,#438);
#365=AXIS2_PLACEMENT_3D('',#536,#439,#440);
#366=AXIS2_PLACEMENT_3D('',#537,#441,#442);
#367=AXIS2_PLACEMENT_3D('',#538,#443,#444);
#368=AXIS2_PLACEMENT_3D('',#542,#446,#447);
#369=AXIS2_PLACEMENT_3D('',#546,#449,#450);
#370=AXIS2_PLACEMENT_3D('',#547,#451,#452);
#371=AXIS2_PLACEMENT_3D('',#548,#453,#454);
#372=AXIS2_PLACEMENT_3D('',#549,#455,#456);
#373=AXIS2_PLACEMENT_3D('',#550,#457,#458);
#374=AXIS2_PLACEMENT_3D('',#551,#459,#460);
#375=AXIS2_PLACEMENT_3D('',#552,#461,#462);
#376=AXIS2_PLACEMENT_3D('',#555,#463,#464);
#377=AXIS2_PLACEMENT_3D('',#556,#465,#466);
#378=AXIS2_PLACEMENT_3D('',#557,#467,#468);
#379=AXIS2_PLACEMENT_3D('',#562,#471,#472);
#380=AXIS2_PLACEMENT_3D('',#563,#473,#474);
#381=AXIS2_PLACEMENT_3D('',#564,#475,#476);
#382=AXIS2_PLACEMENT_3D('',#565,#477,#478);
#383=AXIS2_PLACEMENT_3D('',#568,#479,#480);
#384=AXIS2_PLACEMENT_3D('',#569,#481,#482);
#385=AXIS2_PLACEMENT_3D('',#570,#483,#484);
#386=AXIS2_PLACEMENT_3D('',#575,#487,#488);
#387=AXIS2_PLACEMENT_3D('',#576,#489,#490);
#388=AXIS2_PLACEMENT_3D('',#577,#491,#492);
#389=AXIS2_PLACEMENT_3D('',#580,#494,#495);
#390=AXIS2_PLACEMENT_3D('',#583,#497,#498);
#391=AXIS2_PLACEMENT_3D('',#584,#499,#500);
#392=AXIS2_PLACEMENT_3D('',#585,#501,#502);
#393=AXIS2_PLACEMENT_3D('',#586,#503,#504);
#394=DIRECTION('',(0.,0.,1.));
#395=DIRECTION('',(1.,0.,0.));
#396=DIRECTION('',(0.,0.,1.));
#397=DIRECTION('',(1.,0.,0.));
#398=DIRECTION('',(0.,0.,-1.));
#399=DIRECTION('',(0.,1.,0.));
#400=DIRECTION('',(0.,0.,-1.));
#401=DIRECTION('',(0.,0.,1.));
#402=DIRECTION('',(1.,0.,0.));
#403=DIRECTION('',(0.,0.,1.));
#404=DIRECTION('',(1.,0.,0.));
#405=DIRECTION('',(0.,0.,1.));
#406=DIRECTION('',(1.,0.,0.));
#407=DIRECTION('',(0.,0.,1.));
#408=DIRECTION('',(1.,0.,0.));
#409=DIRECTION('',(0.,0.,1.));
#410=DIRECTION('',(1.,0.,0.));
#411=DIRECTION('',(0.,0.,1.));
#412=DIRECTION('',(1.,0.,0.));
#413=DIRECTION('',(0.,0.,1.));
#414=DIRECTION('',(1.,0.,0.));
#415=DIRECTION('',(0.,0.,1.));
#416=DIRECTION('',(1.,0.,0.));
#417=DIRECTION('',(0.,0.,1.));
#418=DIRECTION('',(1.,0.,0.));
#419=DIRECTION('',(0.,0.,1.));
#420=DIRECTION('',(1.,0.,0.));
#421=DIRECTION('',(0.,0.,-1.));
#422=DIRECTION('',(0.,1.,0.));
#423=DIRECTION('',(0.,0.,-1.));
#424=DIRECTION('',(0.,0.,1.));
#425=DIRECTION('',(0.,-1.,0.));
#426=DIRECTION('',(0.,0.,-1.));
#427=DIRECTION('',(0.,0.,-1.));
#428=DIRECTION('',(0.,1.,0.));
#429=DIRECTION('',(0.,0.,1.));
#430=DIRECTION('',(0.,1.,0.));
#431=DIRECTION('',(0.,0.,-1.));
#432=DIRECTION('',(0.,-1.,0.));
#433=DIRECTION('',(0.,0.,-1.));
#434=DIRECTION('',(0.,1.,0.));
#435=DIRECTION('',(0.,0.,-1.));
#436=DIRECTION('',(0.,1.,0.));
#437=DIRECTION('',(-1.,0.,0.));
#438=DIRECTION('',(0.,-1.,0.));
#439=DIRECTION('',(1.,0.,0.));
#440=DIRECTION('',(0.,1.,0.));
#441=DIRECTION('',(0.,6.12323399573677E-17,-1.));
#442=DIRECTION('',(0.,1.,0.));
#443=DIRECTION('',(0.,6.12323399573677E-17,-1.));
#444=DIRECTION('',(0.,1.,0.));
#445=DIRECTION('',(0.,0.,-1.));
#446=DIRECTION('',(0.,0.,-1.));
#447=DIRECTION('',(0.,1.,0.));
#448=DIRECTION('',(0.,0.,-1.));
#449=DIRECTION('',(0.,0.,1.));
#450=DIRECTION('',(0.,-1.,0.));
#451=DIRECTION('',(0.,0.,-1.));
#452=DIRECTION('',(0.,1.,0.));
#453=DIRECTION('',(0.,0.,1.));
#454=DIRECTION('',(0.,1.,0.));
#455=DIRECTION('',(0.,0.,1.));
#456=DIRECTION('',(-1.,0.,0.));
#457=DIRECTION('',(0.,0.,-1.));
#458=DIRECTION('',(0.,-1.,0.));
#459=DIRECTION('',(0.,0.,-1.));
#460=DIRECTION('',(0.,1.,0.));
#461=DIRECTION('',(0.,0.,1.));
#462=DIRECTION('',(0.,1.,0.));
#463=DIRECTION('',(0.,0.,1.));
#464=DIRECTION('',(0.,-1.,0.));
#465=DIRECTION('',(0.,0.,-1.));
#466=DIRECTION('',(0.,1.,0.));
#467=DIRECTION('',(0.,0.,-1.));
#468=DIRECTION('',(0.,1.,0.));
#469=DIRECTION('',(0.,-0.0333148302326485,-0.999444906979154));
#470=DIRECTION('',(0.,0.0333148302326485,-0.999444906979154));
#471=DIRECTION('',(0.,0.,-1.));
#472=DIRECTION('',(0.,1.,9.2753561073498E-16));
#473=DIRECTION('',(0.,0.,-1.));
#474=DIRECTION('',(0.,-1.,0.));
#475=DIRECTION('',(0.,0.,-1.));
#476=DIRECTION('',(0.,1.,9.2753561073498E-16));
#477=DIRECTION('',(0.,0.,1.));
#478=DIRECTION('',(0.,1.,0.));
#479=DIRECTION('',(0.,0.,1.));
#480=DIRECTION('',(0.,-1.,0.));
#481=DIRECTION('',(0.,0.,-1.));
#482=DIRECTION('',(0.,1.,0.));
#483=DIRECTION('',(0.,0.,-1.));
#484=DIRECTION('',(0.,1.,0.));
#485=DIRECTION('',(0.,0.,-1.));
#486=DIRECTION('',(0.,0.,-1.));
#487=DIRECTION('',(0.,0.,-1.));
#488=DIRECTION('',(0.,1.,0.));
#489=DIRECTION('',(0.,0.,-1.));
#490=DIRECTION('',(0.,-1.,0.));
#491=DIRECTION('',(0.,0.,-1.));
#492=DIRECTION('',(0.,1.,0.));
#493=DIRECTION('',(0.,0.707106781186547,0.707106781186547));
#494=DIRECTION('',(0.,0.,-1.));
#495=DIRECTION('',(0.,-1.,0.));
#496=DIRECTION('',(0.,-0.707106781186547,0.707106781186547));
#497=DIRECTION('',(0.,0.,-1.));
#498=DIRECTION('',(0.,1.,-2.07595928314352E-17));
#499=DIRECTION('',(0.,0.,-1.));
#500=DIRECTION('',(0.,1.,0.));
#501=DIRECTION('',(0.,0.,-1.));
#502=DIRECTION('',(0.,1.,-2.07595928314352E-17));
#503=DIRECTION('',(0.,0.,-1.));
#504=DIRECTION('',(0.,1.,0.));
#505=CARTESIAN_POINT('',(0.,0.,0.));
#506=CARTESIAN_POINT('CRP',(-6.,0.,0.));
#507=CARTESIAN_POINT('',(-6.,0.,6.));
#508=CARTESIAN_POINT('',(-6.,0.,9.6));
#509=CARTESIAN_POINT('',(0.,0.,9.6));
#510=CARTESIAN_POINT('',(0.,0.,6.));
#511=CARTESIAN_POINT('',(0.,0.,0.));
#512=CARTESIAN_POINT('',(0.,0.,0.));
#513=CARTESIAN_POINT('',(0.,0.,0.));
#514=CARTESIAN_POINT('',(0.,0.,19.));
#515=CARTESIAN_POINT('',(0.,0.,19.));
#516=CARTESIAN_POINT('',(0.,0.,0.));
#517=CARTESIAN_POINT('',(0.,0.,0.));
#518=CARTESIAN_POINT('',(0.,0.,0.));
#519=CARTESIAN_POINT('',(0.,0.,0.));
#520=CARTESIAN_POINT('',(0.,0.,0.));
#521=CARTESIAN_POINT('',(0.,0.,9.6));
#522=CARTESIAN_POINT('',(0.,6.,9.6));
#523=CARTESIAN_POINT('',(0.,-6.,9.6));
#524=CARTESIAN_POINT('',(0.,-6.,9.6));
#525=CARTESIAN_POINT('',(0.,-6.,6.));
#526=CARTESIAN_POINT('',(0.,0.,6.));
#527=CARTESIAN_POINT('',(0.,6.,6.));
#528=CARTESIAN_POINT('',(0.,6.,9.6));
#529=CARTESIAN_POINT('',(0.,0.,35.385));
#530=CARTESIAN_POINT('',(0.,0.,6.));
#531=CARTESIAN_POINT('',(0.,0.,9.6));
#532=CARTESIAN_POINT('',(0.,0.,35.385));
#533=CARTESIAN_POINT('',(0.,0.,9.6));
#534=CARTESIAN_POINT('',(0.,0.,6.));
#535=CARTESIAN_POINT('',(0.,0.,0.));
#536=CARTESIAN_POINT('',(0.,0.,6.));
#537=CARTESIAN_POINT('',(0.,0.,6.));
#538=CARTESIAN_POINT('',(0.,0.,6.));
#539=CARTESIAN_POINT('',(0.,5.85,19.));
#540=CARTESIAN_POINT('',(0.,5.85,19.));
#541=CARTESIAN_POINT('',(0.,5.85,9.6));
#542=CARTESIAN_POINT('',(0.,0.,19.));
#543=CARTESIAN_POINT('',(0.,-5.85,19.));
#544=CARTESIAN_POINT('',(0.,-5.85,19.));
#545=CARTESIAN_POINT('',(0.,-5.85,9.6));
#546=CARTESIAN_POINT('',(0.,0.,9.6));
#547=CARTESIAN_POINT('',(0.,0.,35.385));
#548=CARTESIAN_POINT('',(0.,0.,9.6));
#549=CARTESIAN_POINT('',(-150.,150.,9.6));
#550=CARTESIAN_POINT('',(0.,0.,19.));
#551=CARTESIAN_POINT('',(0.,0.,35.385));
#552=CARTESIAN_POINT('',(0.,0.,19.));
#553=CARTESIAN_POINT('',(0.,4.2,19.));
#554=CARTESIAN_POINT('',(0.,-4.2,19.));
#555=CARTESIAN_POINT('',(0.,0.,19.));
#556=CARTESIAN_POINT('',(0.,0.,19.));
#557=CARTESIAN_POINT('',(0.,0.,26.7));
#558=CARTESIAN_POINT('',(0.,3.943333333333,26.7));
#559=CARTESIAN_POINT('',(0.,-3.943333333333,26.7));
#560=CARTESIAN_POINT('',(0.,-3.943333333333,26.7));
#561=CARTESIAN_POINT('',(0.,3.943333333333,26.7));
#562=CARTESIAN_POINT('',(0.,0.,22.85));
#563=CARTESIAN_POINT('',(0.,0.,26.7));
#564=CARTESIAN_POINT('',(0.,0.,22.85));
#565=CARTESIAN_POINT('',(0.,0.,26.7));
#566=CARTESIAN_POINT('',(0.,3.,26.7));
#567=CARTESIAN_POINT('',(0.,-3.,26.7));
#568=CARTESIAN_POINT('',(0.,0.,26.7));
#569=CARTESIAN_POINT('',(0.,0.,26.7));
#570=CARTESIAN_POINT('',(0.,0.,33.2));
#571=CARTESIAN_POINT('',(0.,3.,33.2));
#572=CARTESIAN_POINT('',(0.,-3.,33.2));
#573=CARTESIAN_POINT('',(0.,-3.,33.2));
#574=CARTESIAN_POINT('',(0.,3.,33.2));
#575=CARTESIAN_POINT('',(0.,0.,35.385));
#576=CARTESIAN_POINT('',(0.,0.,33.2));
#577=CARTESIAN_POINT('',(0.,0.,35.385));
#578=CARTESIAN_POINT('',(0.,-2.5,33.7));
#579=CARTESIAN_POINT('',(0.,-2.5,33.7));
#580=CARTESIAN_POINT('',(0.,0.,33.7));
#581=CARTESIAN_POINT('',(0.,2.5,33.7));
#582=CARTESIAN_POINT('',(0.,2.5,33.7));
#583=CARTESIAN_POINT('',(0.,0.,33.45));
#584=CARTESIAN_POINT('',(0.,0.,33.7));
#585=CARTESIAN_POINT('',(0.,0.,33.45));
#586=CARTESIAN_POINT('',(0.,0.,33.7));
#587=MECHANICAL_DESIGN_GEOMETRIC_PRESENTATION_REPRESENTATION('',(#308,#309,
#310,#311,#312,#313,#314,#315,#316,#317,#318,#319,#320,#321,#322,#323,#324),
#588);
#588=(
GEOMETRIC_REPRESENTATION_CONTEXT(3)
GLOBAL_UNCERTAINTY_ASSIGNED_CONTEXT((#589))
GLOBAL_UNIT_ASSIGNED_CONTEXT((#595,#591,#590))
REPRESENTATION_CONTEXT('IMX12B3FV12009','TOP_LEVEL_ASSEMBLY_PART')
);
#589=UNCERTAINTY_MEASURE_WITH_UNIT(LENGTH_MEASURE(2.E-5),#595,
'DISTANCE_ACCURACY_VALUE','Maximum Tolerance applied to model');
#590=(
NAMED_UNIT(*)
SI_UNIT($,.STERADIAN.)
SOLID_ANGLE_UNIT()
);
#591=(
CONVERSION_BASED_UNIT('DEGREE',#593)
NAMED_UNIT(#592)
PLANE_ANGLE_UNIT()
);
#592=DIMENSIONAL_EXPONENTS(0.,0.,0.,0.,0.,0.,0.);
#593=PLANE_ANGLE_MEASURE_WITH_UNIT(PLANE_ANGLE_MEASURE(0.0174532925),#594);
#594=(
NAMED_UNIT(*)
PLANE_ANGLE_UNIT()
SI_UNIT($,.RADIAN.)
);
#595=(
LENGTH_UNIT()
NAMED_UNIT(*)
SI_UNIT(.MILLI.,.METRE.)
);
ENDSEC;
END-ISO-10303-21;
