ISO-10303-21;
HEADER;
/* Generated by software containing ST-Developer
 * from STEP Tools, Inc. (www.steptools.com) 
 */
/* OPTION: using custom schema-name function */

FILE_DESCRIPTION(
/* description */ (''),
/* implementation_level */ '2;1');

FILE_NAME(
/* name */ 'MP4MRBD5-16R045.stp',
/* time_stamp */ '2023-03-17T09:19:44+09:00',
/* author */ (''),
/* organization */ (''),
/* preprocessor_version */ 'ST-DEVELOPER v16',
/* originating_system */ 'SIEMENS PLM Software NX 10.0',
/* authorisation */ '');

FILE_SCHEMA (('AUTOMOTIVE_DESIGN { 1 0 10303 214 3 1 1 1 }'));
ENDSEC;

DATA;
#10=CONSTRUCTIVE_GEOMETRY_REPRESENTATION_RELATIONSHIP(
'supplemental geometry','',#26,#11);
#11=CONSTRUCTIVE_GEOMETRY_REPRESENTATION('supplemental geometry',(#279,
#280,#281,#282,#283,#284,#285,#286,#287,#288),#463);
#12=GEOMETRICALLY_BOUNDED_WIREFRAME_SHAPE_REPRESENTATION(
'MP4MRBD5-16R045-None',(#27),#463);
#13=SHAPE_REPRESENTATION_RELATIONSHIP('None',
'relationship between MP4MRBD5-16R045-None and MP4MRBD5-16R045-None',#26,
#15);
#14=SHAPE_REPRESENTATION_RELATIONSHIP('None',
'relationship between MP4MRBD5-16R045-None and MP4MRBD5-16R045-None',#26,
#12);
#15=ADVANCED_BREP_SHAPE_REPRESENTATION('MP4MRBD5-16R045-None',(#40,#41),
#463);
#16=SHAPE_DEFINITION_REPRESENTATION(#17,#26);
#17=PRODUCT_DEFINITION_SHAPE('','SHAPE FOR MP4MRBD5-16R045_ASM.',#18);
#18=PRODUCT_DEFINITION('part definition','',#20,#19);
#19=PRODUCT_DEFINITION_CONTEXT('part definition',#25,'design');
#20=PRODUCT_DEFINITION_FORMATION_WITH_SPECIFIED_SOURCE(' ',' ',#22,
 .NOT_KNOWN.);
#21=PRODUCT_RELATED_PRODUCT_CATEGORY('part','',(#22));
#22=PRODUCT('MP4MRBD5-16R045_ASM','MP4MRBD5-16R045_ASM','NOT SPECIFIED',
(#23));
#23=PRODUCT_CONTEXT('',#25,'mechanical');
#24=APPLICATION_PROTOCOL_DEFINITION('international standard',
'automotive_design',2010,#25);
#25=APPLICATION_CONTEXT(
'core data for automotive mechanical design processes');
#26=SHAPE_REPRESENTATION('MP4MRBD5-16R045-None',(#277),#463);
#27=GEOMETRIC_CURVE_SET('None',(#402,#207,#208,#209,#210,#211));
#28=CONICAL_SURFACE('',#311,3.719,45.);
#29=CONICAL_SURFACE('',#313,3.719,45.);
#30=SURFACE_STYLE_USAGE(.BOTH.,#32);
#31=SURFACE_STYLE_USAGE(.BOTH.,#33);
#32=SURFACE_SIDE_STYLE('',(#34));
#33=SURFACE_SIDE_STYLE('',(#35));
#34=SURFACE_STYLE_FILL_AREA(#36);
#35=SURFACE_STYLE_FILL_AREA(#37);
#36=FILL_AREA_STYLE('',(#38));
#37=FILL_AREA_STYLE('',(#39));
#38=FILL_AREA_STYLE_COLOUR('',#275);
#39=FILL_AREA_STYLE_COLOUR('',#276);
#40=MANIFOLD_SOLID_BREP('CUT',#42);
#41=MANIFOLD_SOLID_BREP('NOCUT',#43);
#42=CLOSED_SHELL('',(#50,#51,#52,#53,#54,#55));
#43=CLOSED_SHELL('',(#56,#57,#58,#59,#60,#61));
#44=TOROIDAL_SURFACE('',#299,2.826,1.143);
#45=TOROIDAL_SURFACE('',#301,2.826,1.143);
#46=PLANE('',#293);
#47=PLANE('',#302);
#48=PLANE('',#307);
#49=PLANE('',#314);
#50=ADVANCED_FACE('',(#66),#62,.T.);
#51=ADVANCED_FACE('',(#67),#46,.F.);
#52=ADVANCED_FACE('',(#68),#63,.T.);
#53=ADVANCED_FACE('',(#69),#44,.T.);
#54=ADVANCED_FACE('',(#70),#45,.T.);
#55=ADVANCED_FACE('',(#71),#47,.T.);
#56=ADVANCED_FACE('',(#72),#64,.T.);
#57=ADVANCED_FACE('',(#73),#48,.F.);
#58=ADVANCED_FACE('',(#74),#65,.T.);
#59=ADVANCED_FACE('',(#75),#28,.T.);
#60=ADVANCED_FACE('',(#76),#29,.T.);
#61=ADVANCED_FACE('',(#77),#49,.F.);
#62=CYLINDRICAL_SURFACE('',#291,3.969);
#63=CYLINDRICAL_SURFACE('',#295,3.969);
#64=CYLINDRICAL_SURFACE('',#305,3.969);
#65=CYLINDRICAL_SURFACE('',#309,3.969);
#66=FACE_OUTER_BOUND('',#78,.T.);
#67=FACE_OUTER_BOUND('',#79,.T.);
#68=FACE_OUTER_BOUND('',#80,.T.);
#69=FACE_OUTER_BOUND('',#81,.T.);
#70=FACE_OUTER_BOUND('',#82,.T.);
#71=FACE_OUTER_BOUND('',#83,.T.);
#72=FACE_OUTER_BOUND('',#84,.T.);
#73=FACE_OUTER_BOUND('',#85,.T.);
#74=FACE_OUTER_BOUND('',#86,.T.);
#75=FACE_OUTER_BOUND('',#87,.T.);
#76=FACE_OUTER_BOUND('',#88,.T.);
#77=FACE_OUTER_BOUND('',#89,.T.);
#78=EDGE_LOOP('',(#90,#91,#92,#93));
#79=EDGE_LOOP('',(#94,#95));
#80=EDGE_LOOP('',(#96,#97,#98,#99));
#81=EDGE_LOOP('',(#100,#101,#102,#103));
#82=EDGE_LOOP('',(#104,#105,#106,#107));
#83=EDGE_LOOP('',(#108,#109));
#84=EDGE_LOOP('',(#110,#111,#112,#113));
#85=EDGE_LOOP('',(#114,#115));
#86=EDGE_LOOP('',(#116,#117,#118,#119));
#87=EDGE_LOOP('',(#120,#121,#122,#123));
#88=EDGE_LOOP('',(#124,#125,#126,#127));
#89=EDGE_LOOP('',(#128,#129));
#90=ORIENTED_EDGE('',*,*,#142,.T.);
#91=ORIENTED_EDGE('',*,*,#143,.T.);
#92=ORIENTED_EDGE('',*,*,#144,.F.);
#93=ORIENTED_EDGE('',*,*,#145,.T.);
#94=ORIENTED_EDGE('',*,*,#146,.F.);
#95=ORIENTED_EDGE('',*,*,#145,.F.);
#96=ORIENTED_EDGE('',*,*,#144,.T.);
#97=ORIENTED_EDGE('',*,*,#147,.T.);
#98=ORIENTED_EDGE('',*,*,#142,.F.);
#99=ORIENTED_EDGE('',*,*,#146,.T.);
#100=ORIENTED_EDGE('',*,*,#148,.T.);
#101=ORIENTED_EDGE('',*,*,#149,.T.);
#102=ORIENTED_EDGE('',*,*,#147,.F.);
#103=ORIENTED_EDGE('',*,*,#150,.F.);
#104=ORIENTED_EDGE('',*,*,#143,.F.);
#105=ORIENTED_EDGE('',*,*,#149,.F.);
#106=ORIENTED_EDGE('',*,*,#151,.T.);
#107=ORIENTED_EDGE('',*,*,#150,.T.);
#108=ORIENTED_EDGE('',*,*,#151,.F.);
#109=ORIENTED_EDGE('',*,*,#148,.F.);
#110=ORIENTED_EDGE('',*,*,#152,.F.);
#111=ORIENTED_EDGE('',*,*,#153,.T.);
#112=ORIENTED_EDGE('',*,*,#154,.T.);
#113=ORIENTED_EDGE('',*,*,#155,.T.);
#114=ORIENTED_EDGE('',*,*,#156,.F.);
#115=ORIENTED_EDGE('',*,*,#155,.F.);
#116=ORIENTED_EDGE('',*,*,#154,.F.);
#117=ORIENTED_EDGE('',*,*,#157,.T.);
#118=ORIENTED_EDGE('',*,*,#152,.T.);
#119=ORIENTED_EDGE('',*,*,#156,.T.);
#120=ORIENTED_EDGE('',*,*,#157,.F.);
#121=ORIENTED_EDGE('',*,*,#158,.T.);
#122=ORIENTED_EDGE('',*,*,#159,.T.);
#123=ORIENTED_EDGE('',*,*,#160,.F.);
#124=ORIENTED_EDGE('',*,*,#161,.T.);
#125=ORIENTED_EDGE('',*,*,#158,.F.);
#126=ORIENTED_EDGE('',*,*,#153,.F.);
#127=ORIENTED_EDGE('',*,*,#160,.T.);
#128=ORIENTED_EDGE('',*,*,#161,.F.);
#129=ORIENTED_EDGE('',*,*,#159,.F.);
#130=VERTEX_POINT('',#419);
#131=VERTEX_POINT('',#420);
#132=VERTEX_POINT('',#422);
#133=VERTEX_POINT('',#424);
#134=VERTEX_POINT('',#432);
#135=VERTEX_POINT('',#433);
#136=VERTEX_POINT('',#441);
#137=VERTEX_POINT('',#442);
#138=VERTEX_POINT('',#444);
#139=VERTEX_POINT('',#446);
#140=VERTEX_POINT('',#454);
#141=VERTEX_POINT('',#456);
#142=EDGE_CURVE('',#130,#131,#216,.T.);
#143=EDGE_CURVE('',#131,#132,#163,.T.);
#144=EDGE_CURVE('',#133,#132,#217,.T.);
#145=EDGE_CURVE('',#133,#130,#164,.T.);
#146=EDGE_CURVE('',#130,#133,#165,.T.);
#147=EDGE_CURVE('',#132,#131,#166,.T.);
#148=EDGE_CURVE('',#134,#135,#167,.T.);
#149=EDGE_CURVE('',#135,#131,#168,.T.);
#150=EDGE_CURVE('',#134,#132,#169,.T.);
#151=EDGE_CURVE('',#135,#134,#170,.T.);
#152=EDGE_CURVE('',#136,#137,#218,.T.);
#153=EDGE_CURVE('',#136,#138,#171,.T.);
#154=EDGE_CURVE('',#138,#139,#219,.T.);
#155=EDGE_CURVE('',#139,#137,#172,.T.);
#156=EDGE_CURVE('',#137,#139,#173,.T.);
#157=EDGE_CURVE('',#138,#136,#174,.T.);
#158=EDGE_CURVE('',#138,#140,#220,.T.);
#159=EDGE_CURVE('',#140,#141,#175,.T.);
#160=EDGE_CURVE('',#136,#141,#221,.T.);
#161=EDGE_CURVE('',#141,#140,#176,.T.);
#162=CIRCLE('',#278,1.143);
#163=CIRCLE('',#289,3.969);
#164=CIRCLE('',#290,3.969);
#165=CIRCLE('',#292,3.969);
#166=CIRCLE('',#294,3.969);
#167=CIRCLE('',#296,2.826);
#168=CIRCLE('',#297,1.143);
#169=CIRCLE('',#298,1.143);
#170=CIRCLE('',#300,2.826);
#171=CIRCLE('',#303,3.969);
#172=CIRCLE('',#304,3.969);
#173=CIRCLE('',#306,3.969);
#174=CIRCLE('',#308,3.969);
#175=CIRCLE('',#310,3.469);
#176=CIRCLE('',#312,3.469);
#177=CURVE_STYLE('',#192,POSITIVE_LENGTH_MEASURE(0.18),#272);
#178=CURVE_STYLE('',#193,POSITIVE_LENGTH_MEASURE(0.18),#272);
#179=CURVE_STYLE('',#194,POSITIVE_LENGTH_MEASURE(0.18),#272);
#180=CURVE_STYLE('',#195,POSITIVE_LENGTH_MEASURE(0.18),#272);
#181=CURVE_STYLE('',#196,POSITIVE_LENGTH_MEASURE(0.18),#272);
#182=CURVE_STYLE('',#197,POSITIVE_LENGTH_MEASURE(0.13),#273);
#183=CURVE_STYLE('',#198,POSITIVE_LENGTH_MEASURE(0.13),#273);
#184=CURVE_STYLE('',#199,POSITIVE_LENGTH_MEASURE(0.13),#274);
#185=CURVE_STYLE('',#200,POSITIVE_LENGTH_MEASURE(0.13),#274);
#186=CURVE_STYLE('',#201,POSITIVE_LENGTH_MEASURE(0.13),#273);
#187=CURVE_STYLE('',#202,POSITIVE_LENGTH_MEASURE(0.13),#273);
#188=CURVE_STYLE('',#203,POSITIVE_LENGTH_MEASURE(0.13),#274);
#189=CURVE_STYLE('',#204,POSITIVE_LENGTH_MEASURE(0.13),#273);
#190=CURVE_STYLE('',#205,POSITIVE_LENGTH_MEASURE(0.13),#273);
#191=CURVE_STYLE('',#206,POSITIVE_LENGTH_MEASURE(0.13),#273);
#192=DRAUGHTING_PRE_DEFINED_CURVE_FONT('continuous');
#193=DRAUGHTING_PRE_DEFINED_CURVE_FONT('continuous');
#194=DRAUGHTING_PRE_DEFINED_CURVE_FONT('continuous');
#195=DRAUGHTING_PRE_DEFINED_CURVE_FONT('continuous');
#196=DRAUGHTING_PRE_DEFINED_CURVE_FONT('continuous');
#197=DRAUGHTING_PRE_DEFINED_CURVE_FONT('continuous');
#198=DRAUGHTING_PRE_DEFINED_CURVE_FONT('continuous');
#199=DRAUGHTING_PRE_DEFINED_CURVE_FONT('continuous');
#200=DRAUGHTING_PRE_DEFINED_CURVE_FONT('continuous');
#201=DRAUGHTING_PRE_DEFINED_CURVE_FONT('continuous');
#202=DRAUGHTING_PRE_DEFINED_CURVE_FONT('continuous');
#203=DRAUGHTING_PRE_DEFINED_CURVE_FONT('continuous');
#204=DRAUGHTING_PRE_DEFINED_CURVE_FONT('continuous');
#205=DRAUGHTING_PRE_DEFINED_CURVE_FONT('continuous');
#206=DRAUGHTING_PRE_DEFINED_CURVE_FONT('continuous');
#207=TRIMMED_CURVE('',#212,(PARAMETER_VALUE(0.)),(PARAMETER_VALUE(1.)),
 .T.,.PARAMETER.);
#208=TRIMMED_CURVE('',#213,(PARAMETER_VALUE(0.)),(PARAMETER_VALUE(1.)),
 .T.,.PARAMETER.);
#209=TRIMMED_CURVE('',#214,(PARAMETER_VALUE(0.)),(PARAMETER_VALUE(1.)),
 .T.,.PARAMETER.);
#210=TRIMMED_CURVE('',#215,(PARAMETER_VALUE(0.)),(PARAMETER_VALUE(1.)),
 .T.,.PARAMETER.);
#211=TRIMMED_CURVE('',#162,(PARAMETER_VALUE(0.)),(PARAMETER_VALUE(90.)),
 .T.,.PARAMETER.);
#212=LINE('',#403,#222);
#213=LINE('',#404,#223);
#214=LINE('',#405,#224);
#215=LINE('',#406,#225);
#216=LINE('',#418,#226);
#217=LINE('',#423,#227);
#218=LINE('',#440,#228);
#219=LINE('',#445,#229);
#220=LINE('',#453,#230);
#221=LINE('',#457,#231);
#222=VECTOR('',#317,2.826);
#223=VECTOR('',#318,18.697);
#224=VECTOR('',#319,3.969);
#225=VECTOR('',#320,19.84);
#226=VECTOR('',#343,1.);
#227=VECTOR('',#346,1.);
#228=VECTOR('',#373,1.);
#229=VECTOR('',#376,1.);
#230=VECTOR('',#389,1.);
#231=VECTOR('',#392,1.);
#232=PRESENTATION_LAYER_ASSIGNMENT('1','Layer 1',(#402,#207,#208,#209,#210,
#211,#279,#280,#283,#284,#285,#286,#287,#288,#40,#41));
#233=PRESENTATION_LAYER_ASSIGNMENT('2','Layer 2',(#281,#282));
#234=STYLED_ITEM('',(#252),#402);
#235=STYLED_ITEM('',(#253),#207);
#236=STYLED_ITEM('',(#254),#208);
#237=STYLED_ITEM('',(#255),#209);
#238=STYLED_ITEM('',(#256),#210);
#239=STYLED_ITEM('',(#257),#211);
#240=STYLED_ITEM('',(#258),#279);
#241=STYLED_ITEM('',(#259),#280);
#242=STYLED_ITEM('',(#260),#281);
#243=STYLED_ITEM('',(#261),#282);
#244=STYLED_ITEM('',(#262),#283);
#245=STYLED_ITEM('',(#263),#284);
#246=STYLED_ITEM('',(#264),#285);
#247=STYLED_ITEM('',(#265),#286);
#248=STYLED_ITEM('',(#266),#287);
#249=STYLED_ITEM('',(#267),#288);
#250=STYLED_ITEM('',(#268),#40);
#251=STYLED_ITEM('',(#269),#41);
#252=PRESENTATION_STYLE_ASSIGNMENT((#270));
#253=PRESENTATION_STYLE_ASSIGNMENT((#177));
#254=PRESENTATION_STYLE_ASSIGNMENT((#178));
#255=PRESENTATION_STYLE_ASSIGNMENT((#179));
#256=PRESENTATION_STYLE_ASSIGNMENT((#180));
#257=PRESENTATION_STYLE_ASSIGNMENT((#181));
#258=PRESENTATION_STYLE_ASSIGNMENT((#182));
#259=PRESENTATION_STYLE_ASSIGNMENT((#183));
#260=PRESENTATION_STYLE_ASSIGNMENT((#184));
#261=PRESENTATION_STYLE_ASSIGNMENT((#185));
#262=PRESENTATION_STYLE_ASSIGNMENT((#186));
#263=PRESENTATION_STYLE_ASSIGNMENT((#187));
#264=PRESENTATION_STYLE_ASSIGNMENT((#188));
#265=PRESENTATION_STYLE_ASSIGNMENT((#189));
#266=PRESENTATION_STYLE_ASSIGNMENT((#190));
#267=PRESENTATION_STYLE_ASSIGNMENT((#191));
#268=PRESENTATION_STYLE_ASSIGNMENT((#30));
#269=PRESENTATION_STYLE_ASSIGNMENT((#31));
#270=POINT_STYLE('',#271,POSITIVE_LENGTH_MEASURE(3.),#272);
#271=PRE_DEFINED_POINT_MARKER_SYMBOL('plus');
#272=COLOUR_RGB('Medium Royal',0.2,0.4,0.8);
#273=COLOUR_RGB('Strong Stone',0.576470588235294,0.54508278019379,0.392156862745098);
#274=COLOUR_RGB('Medium Umber',0.372533760585946,0.313725490196078,0.270572976272221);
#275=COLOUR_RGB('cutting part',0.8,0.8,0.8);
#276=COLOUR_RGB('non-cutting part and shank',0.501960784313725,0.501960784313725,
0.501960784313725);
#277=AXIS2_PLACEMENT_3D('',#401,#315,#316);
#278=AXIS2_PLACEMENT_3D('',#407,#321,#322);
#279=AXIS2_PLACEMENT_3D('',#408,#323,#324);
#280=AXIS2_PLACEMENT_3D('',#409,#325,#326);
#281=AXIS2_PLACEMENT_3D('CIP',#410,#327,#328);
#282=AXIS2_PLACEMENT_3D('PCS',#411,#329,#330);
#283=AXIS2_PLACEMENT_3D('MCS',#412,#331,#332);
#284=AXIS2_PLACEMENT_3D('',#413,#333,#334);
#285=AXIS2_PLACEMENT_3D('STEP_TEMP_EM4_1',#414,#335,#336);
#286=AXIS2_PLACEMENT_3D('',#415,#337,#338);
#287=AXIS2_PLACEMENT_3D('',#416,#339,#340);
#288=AXIS2_PLACEMENT_3D('',#417,#341,#342);
#289=AXIS2_PLACEMENT_3D('',#421,#344,#345);
#290=AXIS2_PLACEMENT_3D('',#425,#347,#348);
#291=AXIS2_PLACEMENT_3D('',#426,#349,#350);
#292=AXIS2_PLACEMENT_3D('',#427,#351,#352);
#293=AXIS2_PLACEMENT_3D('',#428,#353,#354);
#294=AXIS2_PLACEMENT_3D('',#429,#355,#356);
#295=AXIS2_PLACEMENT_3D('',#430,#357,#358);
#296=AXIS2_PLACEMENT_3D('',#431,#359,#360);
#297=AXIS2_PLACEMENT_3D('',#434,#361,#362);
#298=AXIS2_PLACEMENT_3D('',#435,#363,#364);
#299=AXIS2_PLACEMENT_3D('',#436,#365,#366);
#300=AXIS2_PLACEMENT_3D('',#437,#367,#368);
#301=AXIS2_PLACEMENT_3D('',#438,#369,#370);
#302=AXIS2_PLACEMENT_3D('',#439,#371,#372);
#303=AXIS2_PLACEMENT_3D('',#443,#374,#375);
#304=AXIS2_PLACEMENT_3D('',#447,#377,#378);
#305=AXIS2_PLACEMENT_3D('',#448,#379,#380);
#306=AXIS2_PLACEMENT_3D('',#449,#381,#382);
#307=AXIS2_PLACEMENT_3D('',#450,#383,#384);
#308=AXIS2_PLACEMENT_3D('',#451,#385,#386);
#309=AXIS2_PLACEMENT_3D('',#452,#387,#388);
#310=AXIS2_PLACEMENT_3D('',#455,#390,#391);
#311=AXIS2_PLACEMENT_3D('',#458,#393,#394);
#312=AXIS2_PLACEMENT_3D('',#459,#395,#396);
#313=AXIS2_PLACEMENT_3D('',#460,#397,#398);
#314=AXIS2_PLACEMENT_3D('',#461,#399,#400);
#315=DIRECTION('',(0.,0.,1.));
#316=DIRECTION('',(1.,0.,0.));
#317=DIRECTION('',(-1.,0.,0.));
#318=DIRECTION('',(0.,0.,1.));
#319=DIRECTION('',(1.,0.,0.));
#320=DIRECTION('',(0.,0.,-1.));
#321=DIRECTION('',(0.,1.,0.));
#322=DIRECTION('',(0.,0.,-1.));
#323=DIRECTION('',(0.,0.,1.));
#324=DIRECTION('',(1.,0.,0.));
#325=DIRECTION('',(0.,0.,1.));
#326=DIRECTION('',(1.,0.,0.));
#327=DIRECTION('',(0.,0.,1.));
#328=DIRECTION('',(1.,0.,0.));
#329=DIRECTION('',(0.,0.,1.));
#330=DIRECTION('',(1.,0.,0.));
#331=DIRECTION('',(0.,0.,1.));
#332=DIRECTION('',(1.,0.,0.));
#333=DIRECTION('',(0.,0.,1.));
#334=DIRECTION('',(1.,0.,0.));
#335=DIRECTION('',(0.,0.,1.));
#336=DIRECTION('',(1.,0.,0.));
#337=DIRECTION('',(0.,0.,1.));
#338=DIRECTION('',(1.,0.,0.));
#339=DIRECTION('',(0.,0.,1.));
#340=DIRECTION('',(1.,0.,0.));
#341=DIRECTION('',(0.,0.,1.));
#342=DIRECTION('',(1.,0.,0.));
#343=DIRECTION('',(0.,0.,-1.));
#344=DIRECTION('',(0.,0.,1.));
#345=DIRECTION('',(0.,-1.,0.));
#346=DIRECTION('',(0.,0.,-1.));
#347=DIRECTION('',(0.,0.,-1.));
#348=DIRECTION('',(0.,1.,0.));
#349=DIRECTION('',(0.,0.,-1.));
#350=DIRECTION('',(0.,1.,0.));
#351=DIRECTION('',(0.,0.,-1.));
#352=DIRECTION('',(0.,-1.,0.));
#353=DIRECTION('',(0.,0.,-1.));
#354=DIRECTION('',(1.,0.,0.));
#355=DIRECTION('',(0.,0.,1.));
#356=DIRECTION('',(0.,1.,0.));
#357=DIRECTION('',(0.,0.,-1.));
#358=DIRECTION('',(0.,1.,0.));
#359=DIRECTION('',(0.,0.,1.));
#360=DIRECTION('',(0.,1.,0.));
#361=DIRECTION('',(-1.,0.,0.));
#362=DIRECTION('',(0.,-1.,0.));
#363=DIRECTION('',(1.,0.,0.));
#364=DIRECTION('',(0.,1.,0.));
#365=DIRECTION('',(0.,0.,-1.));
#366=DIRECTION('',(0.,1.,0.));
#367=DIRECTION('',(0.,0.,1.));
#368=DIRECTION('',(0.,-1.,0.));
#369=DIRECTION('',(0.,0.,-1.));
#370=DIRECTION('',(0.,1.,0.));
#371=DIRECTION('',(0.,0.,-1.));
#372=DIRECTION('',(0.,1.,0.));
#373=DIRECTION('',(0.,0.,-1.));
#374=DIRECTION('',(0.,0.,-1.));
#375=DIRECTION('',(0.,1.,0.));
#376=DIRECTION('',(0.,0.,-1.));
#377=DIRECTION('',(0.,0.,1.));
#378=DIRECTION('',(0.,-1.,0.));
#379=DIRECTION('',(0.,0.,-1.));
#380=DIRECTION('',(0.,1.,0.));
#381=DIRECTION('',(0.,0.,1.));
#382=DIRECTION('',(0.,1.,0.));
#383=DIRECTION('',(0.,0.,1.));
#384=DIRECTION('',(-1.,0.,0.));
#385=DIRECTION('',(0.,0.,-1.));
#386=DIRECTION('',(0.,-1.,0.));
#387=DIRECTION('',(0.,0.,-1.));
#388=DIRECTION('',(0.,1.,0.));
#389=DIRECTION('',(0.,0.707106781186598,0.707106781186498));
#390=DIRECTION('',(0.,0.,-1.));
#391=DIRECTION('',(0.,-1.,0.));
#392=DIRECTION('',(0.,-0.707106781186598,0.707106781186498));
#393=DIRECTION('',(0.,0.,-1.));
#394=DIRECTION('',(0.,1.,0.));
#395=DIRECTION('',(0.,0.,-1.));
#396=DIRECTION('',(0.,1.,0.));
#397=DIRECTION('',(0.,0.,-1.));
#398=DIRECTION('',(0.,1.,0.));
#399=DIRECTION('',(0.,0.,-1.));
#400=DIRECTION('',(0.,1.,0.));
#401=CARTESIAN_POINT('',(0.,0.,0.));
#402=CARTESIAN_POINT('CRP',(-3.969,0.,0.));
#403=CARTESIAN_POINT('',(0.,0.,0.));
#404=CARTESIAN_POINT('',(-3.969,0.,1.143));
#405=CARTESIAN_POINT('',(-3.969,0.,19.84));
#406=CARTESIAN_POINT('',(0.,0.,19.84));
#407=CARTESIAN_POINT('',(-2.826,0.,1.143));
#408=CARTESIAN_POINT('',(0.,0.,0.));
#409=CARTESIAN_POINT('',(0.,0.,0.));
#410=CARTESIAN_POINT('',(0.,0.,0.));
#411=CARTESIAN_POINT('',(0.,0.,69.85));
#412=CARTESIAN_POINT('',(0.,0.,41.275));
#413=CARTESIAN_POINT('',(0.,0.,0.));
#414=CARTESIAN_POINT('',(0.,0.,0.));
#415=CARTESIAN_POINT('',(0.,0.,0.));
#416=CARTESIAN_POINT('',(0.,0.,0.));
#417=CARTESIAN_POINT('',(0.,0.,0.));
#418=CARTESIAN_POINT('',(0.,-3.969,19.84));
#419=CARTESIAN_POINT('',(0.,-3.969,19.84));
#420=CARTESIAN_POINT('',(0.,-3.969,1.143));
#421=CARTESIAN_POINT('',(0.,-1.261686880725E-14,1.143));
#422=CARTESIAN_POINT('',(0.,3.969,1.143));
#423=CARTESIAN_POINT('',(0.,3.969,19.84));
#424=CARTESIAN_POINT('',(0.,3.969,19.84));
#425=CARTESIAN_POINT('',(0.,0.,19.84));
#426=CARTESIAN_POINT('',(0.,0.,73.3425));
#427=CARTESIAN_POINT('',(0.,0.,19.84));
#428=CARTESIAN_POINT('',(150.,150.,19.84));
#429=CARTESIAN_POINT('',(0.,-1.261686880725E-14,1.143));
#430=CARTESIAN_POINT('',(0.,0.,73.3425));
#431=CARTESIAN_POINT('',(0.,-1.261686880725E-14,0.));
#432=CARTESIAN_POINT('',(0.,2.826,0.));
#433=CARTESIAN_POINT('',(0.,-2.826,0.));
#434=CARTESIAN_POINT('',(0.,-2.826,1.143));
#435=CARTESIAN_POINT('',(0.,2.826,1.143));
#436=CARTESIAN_POINT('',(0.,-1.261686880725E-14,1.143));
#437=CARTESIAN_POINT('',(0.,-1.261686880725E-14,0.));
#438=CARTESIAN_POINT('',(0.,-1.261686880725E-14,1.143));
#439=CARTESIAN_POINT('',(0.,-1.282683450097E-14,0.));
#440=CARTESIAN_POINT('',(0.,3.969,69.35));
#441=CARTESIAN_POINT('',(0.,3.969,69.35));
#442=CARTESIAN_POINT('',(0.,3.969,19.84));
#443=CARTESIAN_POINT('',(0.,0.,69.35));
#444=CARTESIAN_POINT('',(0.,-3.969,69.35));
#445=CARTESIAN_POINT('',(0.,-3.969,69.35));
#446=CARTESIAN_POINT('',(0.,-3.969,19.84));
#447=CARTESIAN_POINT('',(0.,0.,19.84));
#448=CARTESIAN_POINT('',(0.,0.,73.3425));
#449=CARTESIAN_POINT('',(0.,0.,19.84));
#450=CARTESIAN_POINT('',(-150.,150.,19.84));
#451=CARTESIAN_POINT('',(0.,0.,69.35));
#452=CARTESIAN_POINT('',(0.,0.,73.3425));
#453=CARTESIAN_POINT('',(0.,-3.469,69.85));
#454=CARTESIAN_POINT('',(0.,-3.469,69.85));
#455=CARTESIAN_POINT('',(0.,0.,69.85));
#456=CARTESIAN_POINT('',(0.,3.469,69.85));
#457=CARTESIAN_POINT('',(0.,3.469,69.85));
#458=CARTESIAN_POINT('',(0.,0.,69.6));
#459=CARTESIAN_POINT('',(0.,0.,69.85));
#460=CARTESIAN_POINT('',(0.,0.,69.6));
#461=CARTESIAN_POINT('',(0.,0.,69.85));
#462=MECHANICAL_DESIGN_GEOMETRIC_PRESENTATION_REPRESENTATION('',(#234,#235,
#236,#237,#238,#239,#240,#241,#242,#243,#244,#245,#246,#247,#248,#249,#250,
#251),#463);
#463=(
GEOMETRIC_REPRESENTATION_CONTEXT(3)
GLOBAL_UNCERTAINTY_ASSIGNED_CONTEXT((#464))
GLOBAL_UNIT_ASSIGNED_CONTEXT((#470,#466,#465))
REPRESENTATION_CONTEXT('MP4MRBD5-16R045','TOP_LEVEL_ASSEMBLY_PART')
);
#464=UNCERTAINTY_MEASURE_WITH_UNIT(LENGTH_MEASURE(2.E-5),#470,
'DISTANCE_ACCURACY_VALUE','Maximum Tolerance applied to model');
#465=(
NAMED_UNIT(*)
SI_UNIT($,.STERADIAN.)
SOLID_ANGLE_UNIT()
);
#466=(
CONVERSION_BASED_UNIT('DEGREE',#468)
NAMED_UNIT(#467)
PLANE_ANGLE_UNIT()
);
#467=DIMENSIONAL_EXPONENTS(0.,0.,0.,0.,0.,0.,0.);
#468=PLANE_ANGLE_MEASURE_WITH_UNIT(PLANE_ANGLE_MEASURE(0.0174532925),#469);
#469=(
NAMED_UNIT(*)
PLANE_ANGLE_UNIT()
SI_UNIT($,.RADIAN.)
);
#470=(
LENGTH_UNIT()
NAMED_UNIT(*)
SI_UNIT(.MILLI.,.METRE.)
);
ENDSEC;
END-ISO-10303-21;
