ISO-10303-21;
HEADER;
/* Generated by software containing ST-Developer
 * from STEP Tools, Inc. (www.steptools.com) 
 */
/* OPTION: using custom schema-name function */

FILE_DESCRIPTION(
/* description */ (''),
/* implementation_level */ '2;1');

FILE_NAME(
/* name */ 'MFE1508X02S160.stp',
/* time_stamp */ '2023-03-06T16:46:18+09:00',
/* author */ (''),
/* organization */ (''),
/* preprocessor_version */ 'ST-DEVELOPER v16',
/* originating_system */ 'SIEMENS PLM Software NX 10.0',
/* authorisation */ '');

FILE_SCHEMA (('AUTOMOTIVE_DESIGN { 1 0 10303 214 3 1 1 1 }'));
ENDSEC;

DATA;
#10=CONSTRUCTIVE_GEOMETRY_REPRESENTATION_RELATIONSHIP(
'supplemental geometry','',#26,#11);
#11=CONSTRUCTIVE_GEOMETRY_REPRESENTATION('supplemental geometry',(#290,
#291,#292,#293,#294,#295,#296,#297,#298,#299),#481);
#12=GEOMETRICALLY_BOUNDED_WIREFRAME_SHAPE_REPRESENTATION(
'MFE1508X02S160-None',(#27),#481);
#13=SHAPE_REPRESENTATION_RELATIONSHIP('None',
'relationship between MFE1508X02S160-None and MFE1508X02S160-None',#26,
#15);
#14=SHAPE_REPRESENTATION_RELATIONSHIP('None',
'relationship between MFE1508X02S160-None and MFE1508X02S160-None',#26,
#12);
#15=ADVANCED_BREP_SHAPE_REPRESENTATION('MFE1508X02S160-None',(#42,#43),
#481);
#16=SHAPE_DEFINITION_REPRESENTATION(#17,#26);
#17=PRODUCT_DEFINITION_SHAPE('','SHAPE FOR MFE1508X02S160_ASM.',#18);
#18=PRODUCT_DEFINITION('part definition','',#20,#19);
#19=PRODUCT_DEFINITION_CONTEXT('part definition',#25,'design');
#20=PRODUCT_DEFINITION_FORMATION_WITH_SPECIFIED_SOURCE(' ',' ',#22,
 .NOT_KNOWN.);
#21=PRODUCT_RELATED_PRODUCT_CATEGORY('part','',(#22));
#22=PRODUCT('MFE1508X02S160_ASM','MFE1508X02S160_ASM','NOT SPECIFIED',(#23));
#23=PRODUCT_CONTEXT('',#25,'mechanical');
#24=APPLICATION_PROTOCOL_DEFINITION('international standard',
'automotive_design',2010,#25);
#25=APPLICATION_CONTEXT(
'core data for automotive mechanical design processes');
#26=SHAPE_REPRESENTATION('MFE1508X02S160-None',(#289),#481);
#27=GEOMETRIC_CURVE_SET('None',(#416,#222,#223,#224,#225));
#28=CONICAL_SURFACE('',#323,7.5,45.);
#29=CONICAL_SURFACE('',#325,7.5,45.);
#30=FACE_BOUND('',#89,.T.);
#31=FACE_BOUND('',#90,.T.);
#32=SURFACE_STYLE_USAGE(.BOTH.,#34);
#33=SURFACE_STYLE_USAGE(.BOTH.,#35);
#34=SURFACE_SIDE_STYLE('',(#36));
#35=SURFACE_SIDE_STYLE('',(#37));
#36=SURFACE_STYLE_FILL_AREA(#38);
#37=SURFACE_STYLE_FILL_AREA(#39);
#38=FILL_AREA_STYLE('',(#40));
#39=FILL_AREA_STYLE('',(#41));
#40=FILL_AREA_STYLE_COLOUR('',#192);
#41=FILL_AREA_STYLE_COLOUR('',#193);
#42=MANIFOLD_SOLID_BREP('CUT',#44);
#43=MANIFOLD_SOLID_BREP('NOCUT',#45);
#44=CLOSED_SHELL('',(#51,#52,#53,#54));
#45=CLOSED_SHELL('',(#55,#56,#57,#58,#59,#60,#61,#62,#63));
#46=PLANE('',#304);
#47=PLANE('',#307);
#48=PLANE('',#312);
#49=PLANE('',#317);
#50=PLANE('',#326);
#51=ADVANCED_FACE('',(#70),#64,.T.);
#52=ADVANCED_FACE('',(#71),#46,.F.);
#53=ADVANCED_FACE('',(#72),#65,.T.);
#54=ADVANCED_FACE('',(#73),#47,.T.);
#55=ADVANCED_FACE('',(#74),#66,.T.);
#56=ADVANCED_FACE('',(#75),#48,.F.);
#57=ADVANCED_FACE('',(#76),#67,.T.);
#58=ADVANCED_FACE('',(#30,#31),#49,.T.);
#59=ADVANCED_FACE('',(#77),#68,.T.);
#60=ADVANCED_FACE('',(#78),#69,.T.);
#61=ADVANCED_FACE('',(#79),#28,.T.);
#62=ADVANCED_FACE('',(#80),#29,.T.);
#63=ADVANCED_FACE('',(#81),#50,.F.);
#64=CYLINDRICAL_SURFACE('',#302,7.5405);
#65=CYLINDRICAL_SURFACE('',#306,7.5405);
#66=CYLINDRICAL_SURFACE('',#310,7.5405);
#67=CYLINDRICAL_SURFACE('',#314,7.5405);
#68=CYLINDRICAL_SURFACE('',#319,8.);
#69=CYLINDRICAL_SURFACE('',#321,8.);
#70=FACE_OUTER_BOUND('',#82,.T.);
#71=FACE_OUTER_BOUND('',#83,.T.);
#72=FACE_OUTER_BOUND('',#84,.T.);
#73=FACE_OUTER_BOUND('',#85,.T.);
#74=FACE_OUTER_BOUND('',#86,.T.);
#75=FACE_OUTER_BOUND('',#87,.T.);
#76=FACE_OUTER_BOUND('',#88,.T.);
#77=FACE_OUTER_BOUND('',#91,.T.);
#78=FACE_OUTER_BOUND('',#92,.T.);
#79=FACE_OUTER_BOUND('',#93,.T.);
#80=FACE_OUTER_BOUND('',#94,.T.);
#81=FACE_OUTER_BOUND('',#95,.T.);
#82=EDGE_LOOP('',(#110,#111,#112,#113));
#83=EDGE_LOOP('',(#114,#115));
#84=EDGE_LOOP('',(#116,#117,#118,#119));
#85=EDGE_LOOP('',(#120,#121));
#86=EDGE_LOOP('',(#122,#123,#124,#125));
#87=EDGE_LOOP('',(#126,#127));
#88=EDGE_LOOP('',(#128,#129,#130,#131));
#89=EDGE_LOOP('',(#132,#133));
#90=EDGE_LOOP('',(#134,#135));
#91=EDGE_LOOP('',(#136,#137,#138,#139));
#92=EDGE_LOOP('',(#140,#141,#142,#143));
#93=EDGE_LOOP('',(#144,#145,#146,#147));
#94=EDGE_LOOP('',(#148,#149,#150,#151));
#95=EDGE_LOOP('',(#152,#153));
#96=CIRCLE('',#300,7.5405);
#97=CIRCLE('',#301,7.5405);
#98=CIRCLE('',#303,7.5405);
#99=CIRCLE('',#305,7.5405);
#100=CIRCLE('',#308,7.5405);
#101=CIRCLE('',#309,7.5405);
#102=CIRCLE('',#311,7.5405);
#103=CIRCLE('',#313,7.5405);
#104=CIRCLE('',#315,8.);
#105=CIRCLE('',#316,8.);
#106=CIRCLE('',#318,8.);
#107=CIRCLE('',#320,8.);
#108=CIRCLE('',#322,7.);
#109=CIRCLE('',#324,7.);
#110=ORIENTED_EDGE('',*,*,#168,.T.);
#111=ORIENTED_EDGE('',*,*,#169,.T.);
#112=ORIENTED_EDGE('',*,*,#170,.F.);
#113=ORIENTED_EDGE('',*,*,#171,.T.);
#114=ORIENTED_EDGE('',*,*,#172,.F.);
#115=ORIENTED_EDGE('',*,*,#171,.F.);
#116=ORIENTED_EDGE('',*,*,#170,.T.);
#117=ORIENTED_EDGE('',*,*,#173,.T.);
#118=ORIENTED_EDGE('',*,*,#168,.F.);
#119=ORIENTED_EDGE('',*,*,#172,.T.);
#120=ORIENTED_EDGE('',*,*,#169,.F.);
#121=ORIENTED_EDGE('',*,*,#173,.F.);
#122=ORIENTED_EDGE('',*,*,#174,.F.);
#123=ORIENTED_EDGE('',*,*,#175,.T.);
#124=ORIENTED_EDGE('',*,*,#176,.T.);
#125=ORIENTED_EDGE('',*,*,#177,.T.);
#126=ORIENTED_EDGE('',*,*,#178,.F.);
#127=ORIENTED_EDGE('',*,*,#177,.F.);
#128=ORIENTED_EDGE('',*,*,#176,.F.);
#129=ORIENTED_EDGE('',*,*,#179,.T.);
#130=ORIENTED_EDGE('',*,*,#174,.T.);
#131=ORIENTED_EDGE('',*,*,#178,.T.);
#132=ORIENTED_EDGE('',*,*,#180,.F.);
#133=ORIENTED_EDGE('',*,*,#181,.F.);
#134=ORIENTED_EDGE('',*,*,#175,.F.);
#135=ORIENTED_EDGE('',*,*,#179,.F.);
#136=ORIENTED_EDGE('',*,*,#182,.T.);
#137=ORIENTED_EDGE('',*,*,#183,.T.);
#138=ORIENTED_EDGE('',*,*,#181,.T.);
#139=ORIENTED_EDGE('',*,*,#184,.F.);
#140=ORIENTED_EDGE('',*,*,#180,.T.);
#141=ORIENTED_EDGE('',*,*,#183,.F.);
#142=ORIENTED_EDGE('',*,*,#185,.T.);
#143=ORIENTED_EDGE('',*,*,#184,.T.);
#144=ORIENTED_EDGE('',*,*,#185,.F.);
#145=ORIENTED_EDGE('',*,*,#186,.T.);
#146=ORIENTED_EDGE('',*,*,#187,.T.);
#147=ORIENTED_EDGE('',*,*,#188,.F.);
#148=ORIENTED_EDGE('',*,*,#189,.T.);
#149=ORIENTED_EDGE('',*,*,#186,.F.);
#150=ORIENTED_EDGE('',*,*,#182,.F.);
#151=ORIENTED_EDGE('',*,*,#188,.T.);
#152=ORIENTED_EDGE('',*,*,#189,.F.);
#153=ORIENTED_EDGE('',*,*,#187,.F.);
#154=VERTEX_POINT('',#432);
#155=VERTEX_POINT('',#433);
#156=VERTEX_POINT('',#435);
#157=VERTEX_POINT('',#437);
#158=VERTEX_POINT('',#446);
#159=VERTEX_POINT('',#447);
#160=VERTEX_POINT('',#449);
#161=VERTEX_POINT('',#451);
#162=VERTEX_POINT('',#459);
#163=VERTEX_POINT('',#460);
#164=VERTEX_POINT('',#464);
#165=VERTEX_POINT('',#465);
#166=VERTEX_POINT('',#472);
#167=VERTEX_POINT('',#474);
#168=EDGE_CURVE('',#154,#155,#230,.T.);
#169=EDGE_CURVE('',#155,#156,#96,.T.);
#170=EDGE_CURVE('',#157,#156,#231,.T.);
#171=EDGE_CURVE('',#157,#154,#97,.T.);
#172=EDGE_CURVE('',#154,#157,#98,.T.);
#173=EDGE_CURVE('',#156,#155,#99,.T.);
#174=EDGE_CURVE('',#158,#159,#232,.T.);
#175=EDGE_CURVE('',#158,#160,#100,.T.);
#176=EDGE_CURVE('',#160,#161,#233,.T.);
#177=EDGE_CURVE('',#161,#159,#101,.T.);
#178=EDGE_CURVE('',#159,#161,#102,.T.);
#179=EDGE_CURVE('',#160,#158,#103,.T.);
#180=EDGE_CURVE('',#162,#163,#104,.T.);
#181=EDGE_CURVE('',#163,#162,#105,.T.);
#182=EDGE_CURVE('',#164,#165,#106,.T.);
#183=EDGE_CURVE('',#165,#163,#234,.T.);
#184=EDGE_CURVE('',#164,#162,#235,.T.);
#185=EDGE_CURVE('',#165,#164,#107,.T.);
#186=EDGE_CURVE('',#165,#166,#236,.T.);
#187=EDGE_CURVE('',#166,#167,#108,.T.);
#188=EDGE_CURVE('',#164,#167,#237,.T.);
#189=EDGE_CURVE('',#167,#166,#109,.T.);
#190=COLOUR_RGB('Strong Stone',0.576470588235294,0.54508278019379,0.392156862745098);
#191=COLOUR_RGB('Medium Umber',0.372533760585946,0.313725490196078,0.270572976272221);
#192=COLOUR_RGB('Light Gray',0.8,0.8,0.8);
#193=COLOUR_RGB('non-cutting part and shank',0.501960784313725,0.501960784313725,
0.501960784313725);
#194=CURVE_STYLE('',#208,POSITIVE_LENGTH_MEASURE(0.18),#288);
#195=CURVE_STYLE('',#209,POSITIVE_LENGTH_MEASURE(0.18),#288);
#196=CURVE_STYLE('',#210,POSITIVE_LENGTH_MEASURE(0.18),#288);
#197=CURVE_STYLE('',#211,POSITIVE_LENGTH_MEASURE(0.18),#288);
#198=CURVE_STYLE('',#212,POSITIVE_LENGTH_MEASURE(0.13),#190);
#199=CURVE_STYLE('',#213,POSITIVE_LENGTH_MEASURE(0.13),#190);
#200=CURVE_STYLE('',#214,POSITIVE_LENGTH_MEASURE(0.13),#191);
#201=CURVE_STYLE('',#215,POSITIVE_LENGTH_MEASURE(0.13),#191);
#202=CURVE_STYLE('',#216,POSITIVE_LENGTH_MEASURE(0.13),#190);
#203=CURVE_STYLE('',#217,POSITIVE_LENGTH_MEASURE(0.13),#190);
#204=CURVE_STYLE('',#218,POSITIVE_LENGTH_MEASURE(0.13),#191);
#205=CURVE_STYLE('',#219,POSITIVE_LENGTH_MEASURE(0.13),#190);
#206=CURVE_STYLE('',#220,POSITIVE_LENGTH_MEASURE(0.13),#190);
#207=CURVE_STYLE('',#221,POSITIVE_LENGTH_MEASURE(0.13),#190);
#208=DRAUGHTING_PRE_DEFINED_CURVE_FONT('continuous');
#209=DRAUGHTING_PRE_DEFINED_CURVE_FONT('continuous');
#210=DRAUGHTING_PRE_DEFINED_CURVE_FONT('continuous');
#211=DRAUGHTING_PRE_DEFINED_CURVE_FONT('continuous');
#212=DRAUGHTING_PRE_DEFINED_CURVE_FONT('continuous');
#213=DRAUGHTING_PRE_DEFINED_CURVE_FONT('continuous');
#214=DRAUGHTING_PRE_DEFINED_CURVE_FONT('continuous');
#215=DRAUGHTING_PRE_DEFINED_CURVE_FONT('continuous');
#216=DRAUGHTING_PRE_DEFINED_CURVE_FONT('continuous');
#217=DRAUGHTING_PRE_DEFINED_CURVE_FONT('continuous');
#218=DRAUGHTING_PRE_DEFINED_CURVE_FONT('continuous');
#219=DRAUGHTING_PRE_DEFINED_CURVE_FONT('continuous');
#220=DRAUGHTING_PRE_DEFINED_CURVE_FONT('continuous');
#221=DRAUGHTING_PRE_DEFINED_CURVE_FONT('continuous');
#222=TRIMMED_CURVE('',#226,(PARAMETER_VALUE(0.)),(PARAMETER_VALUE(1.)),
 .T.,.PARAMETER.);
#223=TRIMMED_CURVE('',#227,(PARAMETER_VALUE(0.)),(PARAMETER_VALUE(1.)),
 .T.,.PARAMETER.);
#224=TRIMMED_CURVE('',#228,(PARAMETER_VALUE(0.)),(PARAMETER_VALUE(1.)),
 .T.,.PARAMETER.);
#225=TRIMMED_CURVE('',#229,(PARAMETER_VALUE(0.)),(PARAMETER_VALUE(1.)),
 .T.,.PARAMETER.);
#226=LINE('',#417,#238);
#227=LINE('',#418,#239);
#228=LINE('',#419,#240);
#229=LINE('',#420,#241);
#230=LINE('',#431,#242);
#231=LINE('',#436,#243);
#232=LINE('',#445,#244);
#233=LINE('',#450,#245);
#234=LINE('',#466,#246);
#235=LINE('',#467,#247);
#236=LINE('',#471,#248);
#237=LINE('',#475,#249);
#238=VECTOR('',#329,7.5405);
#239=VECTOR('',#330,30.2);
#240=VECTOR('',#331,7.5405);
#241=VECTOR('',#332,30.2);
#242=VECTOR('',#353,1.);
#243=VECTOR('',#356,1.);
#244=VECTOR('',#371,1.);
#245=VECTOR('',#374,1.);
#246=VECTOR('',#395,1.);
#247=VECTOR('',#396,1.);
#248=VECTOR('',#403,1.);
#249=VECTOR('',#406,1.);
#250=PRESENTATION_LAYER_ASSIGNMENT('1','Layer 1',(#416,#222,#223,#224,#225,
#290,#291,#294,#295,#296,#297,#298,#299,#42,#43));
#251=PRESENTATION_LAYER_ASSIGNMENT('2','Layer 2',(#292,#293));
#252=STYLED_ITEM('',(#269),#416);
#253=STYLED_ITEM('',(#270),#222);
#254=STYLED_ITEM('',(#271),#223);
#255=STYLED_ITEM('',(#272),#224);
#256=STYLED_ITEM('',(#273),#225);
#257=STYLED_ITEM('',(#274),#290);
#258=STYLED_ITEM('',(#275),#291);
#259=STYLED_ITEM('',(#276),#292);
#260=STYLED_ITEM('',(#277),#293);
#261=STYLED_ITEM('',(#278),#294);
#262=STYLED_ITEM('',(#279),#295);
#263=STYLED_ITEM('',(#280),#296);
#264=STYLED_ITEM('',(#281),#297);
#265=STYLED_ITEM('',(#282),#298);
#266=STYLED_ITEM('',(#283),#299);
#267=STYLED_ITEM('',(#284),#42);
#268=STYLED_ITEM('',(#285),#43);
#269=PRESENTATION_STYLE_ASSIGNMENT((#286));
#270=PRESENTATION_STYLE_ASSIGNMENT((#194));
#271=PRESENTATION_STYLE_ASSIGNMENT((#195));
#272=PRESENTATION_STYLE_ASSIGNMENT((#196));
#273=PRESENTATION_STYLE_ASSIGNMENT((#197));
#274=PRESENTATION_STYLE_ASSIGNMENT((#198));
#275=PRESENTATION_STYLE_ASSIGNMENT((#199));
#276=PRESENTATION_STYLE_ASSIGNMENT((#200));
#277=PRESENTATION_STYLE_ASSIGNMENT((#201));
#278=PRESENTATION_STYLE_ASSIGNMENT((#202));
#279=PRESENTATION_STYLE_ASSIGNMENT((#203));
#280=PRESENTATION_STYLE_ASSIGNMENT((#204));
#281=PRESENTATION_STYLE_ASSIGNMENT((#205));
#282=PRESENTATION_STYLE_ASSIGNMENT((#206));
#283=PRESENTATION_STYLE_ASSIGNMENT((#207));
#284=PRESENTATION_STYLE_ASSIGNMENT((#32));
#285=PRESENTATION_STYLE_ASSIGNMENT((#33));
#286=POINT_STYLE('',#287,POSITIVE_LENGTH_MEASURE(3.),#288);
#287=PRE_DEFINED_POINT_MARKER_SYMBOL('plus');
#288=DRAUGHTING_PRE_DEFINED_COLOUR('blue');
#289=AXIS2_PLACEMENT_3D('',#415,#327,#328);
#290=AXIS2_PLACEMENT_3D('',#421,#333,#334);
#291=AXIS2_PLACEMENT_3D('',#422,#335,#336);
#292=AXIS2_PLACEMENT_3D('CIP',#423,#337,#338);
#293=AXIS2_PLACEMENT_3D('PCS',#424,#339,#340);
#294=AXIS2_PLACEMENT_3D('MCS',#425,#341,#342);
#295=AXIS2_PLACEMENT_3D('',#426,#343,#344);
#296=AXIS2_PLACEMENT_3D('STEP_TEMP_2_1',#427,#345,#346);
#297=AXIS2_PLACEMENT_3D('',#428,#347,#348);
#298=AXIS2_PLACEMENT_3D('',#429,#349,#350);
#299=AXIS2_PLACEMENT_3D('',#430,#351,#352);
#300=AXIS2_PLACEMENT_3D('',#434,#354,#355);
#301=AXIS2_PLACEMENT_3D('',#438,#357,#358);
#302=AXIS2_PLACEMENT_3D('',#439,#359,#360);
#303=AXIS2_PLACEMENT_3D('',#440,#361,#362);
#304=AXIS2_PLACEMENT_3D('',#441,#363,#364);
#305=AXIS2_PLACEMENT_3D('',#442,#365,#366);
#306=AXIS2_PLACEMENT_3D('',#443,#367,#368);
#307=AXIS2_PLACEMENT_3D('',#444,#369,#370);
#308=AXIS2_PLACEMENT_3D('',#448,#372,#373);
#309=AXIS2_PLACEMENT_3D('',#452,#375,#376);
#310=AXIS2_PLACEMENT_3D('',#453,#377,#378);
#311=AXIS2_PLACEMENT_3D('',#454,#379,#380);
#312=AXIS2_PLACEMENT_3D('',#455,#381,#382);
#313=AXIS2_PLACEMENT_3D('',#456,#383,#384);
#314=AXIS2_PLACEMENT_3D('',#457,#385,#386);
#315=AXIS2_PLACEMENT_3D('',#458,#387,#388);
#316=AXIS2_PLACEMENT_3D('',#461,#389,#390);
#317=AXIS2_PLACEMENT_3D('',#462,#391,#392);
#318=AXIS2_PLACEMENT_3D('',#463,#393,#394);
#319=AXIS2_PLACEMENT_3D('',#468,#397,#398);
#320=AXIS2_PLACEMENT_3D('',#469,#399,#400);
#321=AXIS2_PLACEMENT_3D('',#470,#401,#402);
#322=AXIS2_PLACEMENT_3D('',#473,#404,#405);
#323=AXIS2_PLACEMENT_3D('',#476,#407,#408);
#324=AXIS2_PLACEMENT_3D('',#477,#409,#410);
#325=AXIS2_PLACEMENT_3D('',#478,#411,#412);
#326=AXIS2_PLACEMENT_3D('',#479,#413,#414);
#327=DIRECTION('',(0.,0.,1.));
#328=DIRECTION('',(1.,0.,0.));
#329=DIRECTION('',(-1.,0.,0.));
#330=DIRECTION('',(0.,0.,1.));
#331=DIRECTION('',(1.,0.,0.));
#332=DIRECTION('',(0.,0.,-1.));
#333=DIRECTION('',(0.,0.,1.));
#334=DIRECTION('',(1.,0.,0.));
#335=DIRECTION('',(0.,0.,1.));
#336=DIRECTION('',(1.,0.,0.));
#337=DIRECTION('',(0.,0.,1.));
#338=DIRECTION('',(1.,0.,0.));
#339=DIRECTION('',(0.,0.,1.));
#340=DIRECTION('',(1.,0.,0.));
#341=DIRECTION('',(0.,0.,1.));
#342=DIRECTION('',(1.,0.,0.));
#343=DIRECTION('',(0.,0.,1.));
#344=DIRECTION('',(1.,0.,0.));
#345=DIRECTION('',(0.,0.,1.));
#346=DIRECTION('',(1.,0.,0.));
#347=DIRECTION('',(0.,0.,1.));
#348=DIRECTION('',(1.,0.,0.));
#349=DIRECTION('',(0.,0.,1.));
#350=DIRECTION('',(1.,0.,0.));
#351=DIRECTION('',(0.,0.,1.));
#352=DIRECTION('',(1.,0.,0.));
#353=DIRECTION('',(0.,0.,-1.));
#354=DIRECTION('',(0.,0.,1.));
#355=DIRECTION('',(0.,-1.,0.));
#356=DIRECTION('',(0.,0.,-1.));
#357=DIRECTION('',(0.,0.,-1.));
#358=DIRECTION('',(0.,1.,0.));
#359=DIRECTION('',(0.,0.,-1.));
#360=DIRECTION('',(0.,1.,0.));
#361=DIRECTION('',(0.,0.,-1.));
#362=DIRECTION('',(0.,-1.,0.));
#363=DIRECTION('',(0.,0.,-1.));
#364=DIRECTION('',(1.,0.,0.));
#365=DIRECTION('',(0.,0.,1.));
#366=DIRECTION('',(0.,1.,0.));
#367=DIRECTION('',(0.,0.,-1.));
#368=DIRECTION('',(0.,1.,0.));
#369=DIRECTION('',(0.,0.,-1.));
#370=DIRECTION('',(0.,1.,0.));
#371=DIRECTION('',(0.,0.,-1.));
#372=DIRECTION('',(0.,0.,-1.));
#373=DIRECTION('',(0.,1.,0.));
#374=DIRECTION('',(0.,0.,-1.));
#375=DIRECTION('',(0.,0.,1.));
#376=DIRECTION('',(0.,-1.,0.));
#377=DIRECTION('',(0.,0.,-1.));
#378=DIRECTION('',(0.,1.,0.));
#379=DIRECTION('',(0.,0.,1.));
#380=DIRECTION('',(0.,1.,0.));
#381=DIRECTION('',(0.,0.,1.));
#382=DIRECTION('',(-1.,0.,0.));
#383=DIRECTION('',(0.,0.,-1.));
#384=DIRECTION('',(0.,-1.,0.));
#385=DIRECTION('',(0.,0.,-1.));
#386=DIRECTION('',(0.,1.,0.));
#387=DIRECTION('',(0.,0.,1.));
#388=DIRECTION('',(0.,1.,0.));
#389=DIRECTION('',(0.,0.,1.));
#390=DIRECTION('',(0.,-1.,0.));
#391=DIRECTION('',(0.,0.,-1.));
#392=DIRECTION('',(0.,1.,0.));
#393=DIRECTION('',(0.,0.,-1.));
#394=DIRECTION('',(0.,1.,0.));
#395=DIRECTION('',(0.,0.,-1.));
#396=DIRECTION('',(0.,0.,-1.));
#397=DIRECTION('',(0.,0.,-1.));
#398=DIRECTION('',(0.,1.,0.));
#399=DIRECTION('',(0.,0.,-1.));
#400=DIRECTION('',(0.,-1.,0.));
#401=DIRECTION('',(0.,0.,-1.));
#402=DIRECTION('',(0.,1.,0.));
#403=DIRECTION('',(0.,0.707106781186547,0.707106781186547));
#404=DIRECTION('',(0.,0.,-1.));
#405=DIRECTION('',(0.,-1.,0.));
#406=DIRECTION('',(0.,-0.707106781186547,0.707106781186547));
#407=DIRECTION('',(0.,0.,-1.));
#408=DIRECTION('',(0.,1.,4.13234376411349E-17));
#409=DIRECTION('',(0.,0.,-1.));
#410=DIRECTION('',(0.,1.,0.));
#411=DIRECTION('',(0.,0.,-1.));
#412=DIRECTION('',(0.,1.,4.13234376411349E-17));
#413=DIRECTION('',(0.,0.,-1.));
#414=DIRECTION('',(0.,1.,0.));
#415=CARTESIAN_POINT('',(0.,0.,0.));
#416=CARTESIAN_POINT('CRP',(-7.5405,0.,0.));
#417=CARTESIAN_POINT('',(0.,0.,0.));
#418=CARTESIAN_POINT('',(-7.5405,0.,0.));
#419=CARTESIAN_POINT('',(-7.5405,0.,30.2));
#420=CARTESIAN_POINT('',(0.,0.,30.2));
#421=CARTESIAN_POINT('',(0.,0.,0.));
#422=CARTESIAN_POINT('',(0.,0.,0.));
#423=CARTESIAN_POINT('',(0.,0.,0.));
#424=CARTESIAN_POINT('',(0.,0.,111.));
#425=CARTESIAN_POINT('',(0.,0.,67.));
#426=CARTESIAN_POINT('',(0.,0.,0.));
#427=CARTESIAN_POINT('',(0.,0.,0.));
#428=CARTESIAN_POINT('',(0.,0.,0.));
#429=CARTESIAN_POINT('',(0.,0.,0.));
#430=CARTESIAN_POINT('',(0.,0.,0.));
#431=CARTESIAN_POINT('',(0.,-7.5405,30.2));
#432=CARTESIAN_POINT('',(0.,-7.5405,30.2));
#433=CARTESIAN_POINT('',(0.,-7.5405,-1.563194018672E-13));
#434=CARTESIAN_POINT('',(0.,0.,-1.563194018672E-13));
#435=CARTESIAN_POINT('',(0.,7.5405,-1.030286966852E-13));
#436=CARTESIAN_POINT('',(0.,7.5405,30.2));
#437=CARTESIAN_POINT('',(0.,7.5405,30.2));
#438=CARTESIAN_POINT('',(0.,0.,30.2));
#439=CARTESIAN_POINT('',(0.,0.,116.55));
#440=CARTESIAN_POINT('',(0.,0.,30.2));
#441=CARTESIAN_POINT('',(150.,150.,30.2));
#442=CARTESIAN_POINT('',(0.,0.,-1.563194018672E-13));
#443=CARTESIAN_POINT('',(0.,0.,116.55));
#444=CARTESIAN_POINT('',(0.,-2.038445534454E-14,0.));
#445=CARTESIAN_POINT('',(0.,7.5405,65.));
#446=CARTESIAN_POINT('',(0.,7.5405,65.));
#447=CARTESIAN_POINT('',(0.,7.5405,30.2));
#448=CARTESIAN_POINT('',(0.,0.,65.));
#449=CARTESIAN_POINT('',(0.,-7.5405,65.));
#450=CARTESIAN_POINT('',(0.,-7.5405,65.));
#451=CARTESIAN_POINT('',(0.,-7.5405,30.2));
#452=CARTESIAN_POINT('',(0.,0.,30.2));
#453=CARTESIAN_POINT('',(0.,0.,116.55));
#454=CARTESIAN_POINT('',(0.,0.,30.2));
#455=CARTESIAN_POINT('',(-150.,150.,30.2));
#456=CARTESIAN_POINT('',(0.,0.,65.));
#457=CARTESIAN_POINT('',(0.,0.,116.55));
#458=CARTESIAN_POINT('',(0.,0.,65.));
#459=CARTESIAN_POINT('',(0.,8.,65.));
#460=CARTESIAN_POINT('',(0.,-8.,65.));
#461=CARTESIAN_POINT('',(0.,0.,65.));
#462=CARTESIAN_POINT('',(0.,0.,65.));
#463=CARTESIAN_POINT('',(0.,0.,110.));
#464=CARTESIAN_POINT('',(0.,8.,110.));
#465=CARTESIAN_POINT('',(0.,-8.,110.));
#466=CARTESIAN_POINT('',(0.,-8.,110.));
#467=CARTESIAN_POINT('',(0.,8.,110.));
#468=CARTESIAN_POINT('',(0.,0.,116.55));
#469=CARTESIAN_POINT('',(0.,0.,110.));
#470=CARTESIAN_POINT('',(0.,0.,116.55));
#471=CARTESIAN_POINT('',(0.,-7.,111.));
#472=CARTESIAN_POINT('',(0.,-7.,111.));
#473=CARTESIAN_POINT('',(0.,0.,111.));
#474=CARTESIAN_POINT('',(0.,7.,111.));
#475=CARTESIAN_POINT('',(0.,7.,111.));
#476=CARTESIAN_POINT('',(0.,0.,110.5));
#477=CARTESIAN_POINT('',(0.,0.,111.));
#478=CARTESIAN_POINT('',(0.,0.,110.5));
#479=CARTESIAN_POINT('',(0.,0.,111.));
#480=MECHANICAL_DESIGN_GEOMETRIC_PRESENTATION_REPRESENTATION('',(#252,#253,
#254,#255,#256,#257,#258,#259,#260,#261,#262,#263,#264,#265,#266,#267,#268),
#481);
#481=(
GEOMETRIC_REPRESENTATION_CONTEXT(3)
GLOBAL_UNCERTAINTY_ASSIGNED_CONTEXT((#482))
GLOBAL_UNIT_ASSIGNED_CONTEXT((#488,#484,#483))
REPRESENTATION_CONTEXT('MFE1508X02S160','TOP_LEVEL_ASSEMBLY_PART')
);
#482=UNCERTAINTY_MEASURE_WITH_UNIT(LENGTH_MEASURE(2.E-5),#488,
'DISTANCE_ACCURACY_VALUE','Maximum Tolerance applied to model');
#483=(
NAMED_UNIT(*)
SI_UNIT($,.STERADIAN.)
SOLID_ANGLE_UNIT()
);
#484=(
CONVERSION_BASED_UNIT('DEGREE',#486)
NAMED_UNIT(#485)
PLANE_ANGLE_UNIT()
);
#485=DIMENSIONAL_EXPONENTS(0.,0.,0.,0.,0.,0.,0.);
#486=PLANE_ANGLE_MEASURE_WITH_UNIT(PLANE_ANGLE_MEASURE(0.0174532925),#487);
#487=(
NAMED_UNIT(*)
PLANE_ANGLE_UNIT()
SI_UNIT($,.RADIAN.)
);
#488=(
LENGTH_UNIT()
NAMED_UNIT(*)
SI_UNIT(.MILLI.,.METRE.)
);
ENDSEC;
END-ISO-10303-21;
