ISO-10303-21;
HEADER;
/* Generated by software containing ST-Developer
 * from STEP Tools, Inc. (www.steptools.com) 
 */
/* OPTION: using custom schema-name function */

FILE_DESCRIPTION(
/* description */ (''),
/* implementation_level */ '2;1');

FILE_NAME(
/* name */ 'MFE1800X02S180.stp',
/* time_stamp */ '2023-03-08T09:18:28+09:00',
/* author */ (''),
/* organization */ (''),
/* preprocessor_version */ 'ST-DEVELOPER v16',
/* originating_system */ 'SIEMENS PLM Software NX 10.0',
/* authorisation */ '');

FILE_SCHEMA (('AUTOMOTIVE_DESIGN { 1 0 10303 214 3 1 1 1 }'));
ENDSEC;

DATA;
#10=CONSTRUCTIVE_GEOMETRY_REPRESENTATION_RELATIONSHIP(
'supplemental geometry','',#26,#11);
#11=CONSTRUCTIVE_GEOMETRY_REPRESENTATION('supplemental geometry',(#246,
#247,#248,#249,#250,#251,#252,#253,#254,#255),#401);
#12=GEOMETRICALLY_BOUNDED_WIREFRAME_SHAPE_REPRESENTATION(
'MFE1800X02S180-None',(#27),#401);
#13=SHAPE_REPRESENTATION_RELATIONSHIP('None',
'relationship between MFE1800X02S180-None and MFE1800X02S180-None',#26,
#15);
#14=SHAPE_REPRESENTATION_RELATIONSHIP('None',
'relationship between MFE1800X02S180-None and MFE1800X02S180-None',#26,
#12);
#15=ADVANCED_BREP_SHAPE_REPRESENTATION('MFE1800X02S180-None',(#40,#41),
#401);
#16=SHAPE_DEFINITION_REPRESENTATION(#17,#26);
#17=PRODUCT_DEFINITION_SHAPE('','SHAPE FOR MFE1800X02S180_ASM.',#18);
#18=PRODUCT_DEFINITION('part definition','',#20,#19);
#19=PRODUCT_DEFINITION_CONTEXT('part definition',#25,'design');
#20=PRODUCT_DEFINITION_FORMATION_WITH_SPECIFIED_SOURCE(' ',' ',#22,
 .NOT_KNOWN.);
#21=PRODUCT_RELATED_PRODUCT_CATEGORY('part','',(#22));
#22=PRODUCT('MFE1800X02S180_ASM','MFE1800X02S180_ASM','NOT SPECIFIED',(#23));
#23=PRODUCT_CONTEXT('',#25,'mechanical');
#24=APPLICATION_PROTOCOL_DEFINITION('international standard',
'automotive_design',2010,#25);
#25=APPLICATION_CONTEXT(
'core data for automotive mechanical design processes');
#26=SHAPE_REPRESENTATION('MFE1800X02S180-None',(#245),#401);
#27=GEOMETRIC_CURVE_SET('None',(#349,#182,#183,#184,#185));
#28=CONICAL_SURFACE('',#272,8.5,45.);
#29=CONICAL_SURFACE('',#274,8.5,45.);
#30=SURFACE_STYLE_USAGE(.BOTH.,#32);
#31=SURFACE_STYLE_USAGE(.BOTH.,#33);
#32=SURFACE_SIDE_STYLE('',(#34));
#33=SURFACE_SIDE_STYLE('',(#35));
#34=SURFACE_STYLE_FILL_AREA(#36);
#35=SURFACE_STYLE_FILL_AREA(#37);
#36=FILL_AREA_STYLE('',(#38));
#37=FILL_AREA_STYLE('',(#39));
#38=FILL_AREA_STYLE_COLOUR('',#152);
#39=FILL_AREA_STYLE_COLOUR('',#153);
#40=MANIFOLD_SOLID_BREP('CUT',#42);
#41=MANIFOLD_SOLID_BREP('NOCUT',#43);
#42=CLOSED_SHELL('',(#48,#49,#50,#51));
#43=CLOSED_SHELL('',(#52,#53,#54,#55,#56,#57));
#44=PLANE('',#260);
#45=PLANE('',#263);
#46=PLANE('',#268);
#47=PLANE('',#275);
#48=ADVANCED_FACE('',(#62),#58,.T.);
#49=ADVANCED_FACE('',(#63),#44,.F.);
#50=ADVANCED_FACE('',(#64),#59,.T.);
#51=ADVANCED_FACE('',(#65),#45,.T.);
#52=ADVANCED_FACE('',(#66),#60,.T.);
#53=ADVANCED_FACE('',(#67),#46,.F.);
#54=ADVANCED_FACE('',(#68),#61,.T.);
#55=ADVANCED_FACE('',(#69),#28,.T.);
#56=ADVANCED_FACE('',(#70),#29,.T.);
#57=ADVANCED_FACE('',(#71),#47,.F.);
#58=CYLINDRICAL_SURFACE('',#258,9.);
#59=CYLINDRICAL_SURFACE('',#262,9.);
#60=CYLINDRICAL_SURFACE('',#266,9.);
#61=CYLINDRICAL_SURFACE('',#270,9.);
#62=FACE_OUTER_BOUND('',#72,.T.);
#63=FACE_OUTER_BOUND('',#73,.T.);
#64=FACE_OUTER_BOUND('',#74,.T.);
#65=FACE_OUTER_BOUND('',#75,.T.);
#66=FACE_OUTER_BOUND('',#76,.T.);
#67=FACE_OUTER_BOUND('',#77,.T.);
#68=FACE_OUTER_BOUND('',#78,.T.);
#69=FACE_OUTER_BOUND('',#79,.T.);
#70=FACE_OUTER_BOUND('',#80,.T.);
#71=FACE_OUTER_BOUND('',#81,.T.);
#72=EDGE_LOOP('',(#92,#93,#94,#95));
#73=EDGE_LOOP('',(#96,#97));
#74=EDGE_LOOP('',(#98,#99,#100,#101));
#75=EDGE_LOOP('',(#102,#103));
#76=EDGE_LOOP('',(#104,#105,#106,#107));
#77=EDGE_LOOP('',(#108,#109));
#78=EDGE_LOOP('',(#110,#111,#112,#113));
#79=EDGE_LOOP('',(#114,#115,#116,#117));
#80=EDGE_LOOP('',(#118,#119,#120,#121));
#81=EDGE_LOOP('',(#122,#123));
#82=CIRCLE('',#256,9.);
#83=CIRCLE('',#257,9.);
#84=CIRCLE('',#259,9.);
#85=CIRCLE('',#261,9.);
#86=CIRCLE('',#264,9.);
#87=CIRCLE('',#265,9.);
#88=CIRCLE('',#267,9.);
#89=CIRCLE('',#269,9.);
#90=CIRCLE('',#271,8.);
#91=CIRCLE('',#273,8.);
#92=ORIENTED_EDGE('',*,*,#134,.T.);
#93=ORIENTED_EDGE('',*,*,#135,.T.);
#94=ORIENTED_EDGE('',*,*,#136,.F.);
#95=ORIENTED_EDGE('',*,*,#137,.T.);
#96=ORIENTED_EDGE('',*,*,#138,.F.);
#97=ORIENTED_EDGE('',*,*,#137,.F.);
#98=ORIENTED_EDGE('',*,*,#136,.T.);
#99=ORIENTED_EDGE('',*,*,#139,.T.);
#100=ORIENTED_EDGE('',*,*,#134,.F.);
#101=ORIENTED_EDGE('',*,*,#138,.T.);
#102=ORIENTED_EDGE('',*,*,#135,.F.);
#103=ORIENTED_EDGE('',*,*,#139,.F.);
#104=ORIENTED_EDGE('',*,*,#140,.F.);
#105=ORIENTED_EDGE('',*,*,#141,.T.);
#106=ORIENTED_EDGE('',*,*,#142,.T.);
#107=ORIENTED_EDGE('',*,*,#143,.T.);
#108=ORIENTED_EDGE('',*,*,#144,.F.);
#109=ORIENTED_EDGE('',*,*,#143,.F.);
#110=ORIENTED_EDGE('',*,*,#142,.F.);
#111=ORIENTED_EDGE('',*,*,#145,.T.);
#112=ORIENTED_EDGE('',*,*,#140,.T.);
#113=ORIENTED_EDGE('',*,*,#144,.T.);
#114=ORIENTED_EDGE('',*,*,#145,.F.);
#115=ORIENTED_EDGE('',*,*,#146,.T.);
#116=ORIENTED_EDGE('',*,*,#147,.T.);
#117=ORIENTED_EDGE('',*,*,#148,.F.);
#118=ORIENTED_EDGE('',*,*,#149,.T.);
#119=ORIENTED_EDGE('',*,*,#146,.F.);
#120=ORIENTED_EDGE('',*,*,#141,.F.);
#121=ORIENTED_EDGE('',*,*,#148,.T.);
#122=ORIENTED_EDGE('',*,*,#149,.F.);
#123=ORIENTED_EDGE('',*,*,#147,.F.);
#124=VERTEX_POINT('',#365);
#125=VERTEX_POINT('',#366);
#126=VERTEX_POINT('',#368);
#127=VERTEX_POINT('',#370);
#128=VERTEX_POINT('',#379);
#129=VERTEX_POINT('',#380);
#130=VERTEX_POINT('',#382);
#131=VERTEX_POINT('',#384);
#132=VERTEX_POINT('',#392);
#133=VERTEX_POINT('',#394);
#134=EDGE_CURVE('',#124,#125,#190,.T.);
#135=EDGE_CURVE('',#125,#126,#82,.T.);
#136=EDGE_CURVE('',#127,#126,#191,.T.);
#137=EDGE_CURVE('',#127,#124,#83,.T.);
#138=EDGE_CURVE('',#124,#127,#84,.T.);
#139=EDGE_CURVE('',#126,#125,#85,.T.);
#140=EDGE_CURVE('',#128,#129,#192,.T.);
#141=EDGE_CURVE('',#128,#130,#86,.T.);
#142=EDGE_CURVE('',#130,#131,#193,.T.);
#143=EDGE_CURVE('',#131,#129,#87,.T.);
#144=EDGE_CURVE('',#129,#131,#88,.T.);
#145=EDGE_CURVE('',#130,#128,#89,.T.);
#146=EDGE_CURVE('',#130,#132,#194,.T.);
#147=EDGE_CURVE('',#132,#133,#90,.T.);
#148=EDGE_CURVE('',#128,#133,#195,.T.);
#149=EDGE_CURVE('',#133,#132,#91,.T.);
#150=COLOUR_RGB('Strong Stone',0.576470588235294,0.54508278019379,0.392156862745098);
#151=COLOUR_RGB('Medium Umber',0.372533760585946,0.313725490196078,0.270572976272221);
#152=COLOUR_RGB('Light Gray',0.8,0.8,0.8);
#153=COLOUR_RGB('non-cutting part and shank',0.501960784313725,0.501960784313725,
0.501960784313725);
#154=CURVE_STYLE('',#168,POSITIVE_LENGTH_MEASURE(0.18),#244);
#155=CURVE_STYLE('',#169,POSITIVE_LENGTH_MEASURE(0.18),#244);
#156=CURVE_STYLE('',#170,POSITIVE_LENGTH_MEASURE(0.18),#244);
#157=CURVE_STYLE('',#171,POSITIVE_LENGTH_MEASURE(0.18),#244);
#158=CURVE_STYLE('',#172,POSITIVE_LENGTH_MEASURE(0.13),#150);
#159=CURVE_STYLE('',#173,POSITIVE_LENGTH_MEASURE(0.13),#150);
#160=CURVE_STYLE('',#174,POSITIVE_LENGTH_MEASURE(0.13),#151);
#161=CURVE_STYLE('',#175,POSITIVE_LENGTH_MEASURE(0.13),#151);
#162=CURVE_STYLE('',#176,POSITIVE_LENGTH_MEASURE(0.13),#150);
#163=CURVE_STYLE('',#177,POSITIVE_LENGTH_MEASURE(0.13),#150);
#164=CURVE_STYLE('',#178,POSITIVE_LENGTH_MEASURE(0.13),#151);
#165=CURVE_STYLE('',#179,POSITIVE_LENGTH_MEASURE(0.13),#150);
#166=CURVE_STYLE('',#180,POSITIVE_LENGTH_MEASURE(0.13),#150);
#167=CURVE_STYLE('',#181,POSITIVE_LENGTH_MEASURE(0.13),#150);
#168=DRAUGHTING_PRE_DEFINED_CURVE_FONT('continuous');
#169=DRAUGHTING_PRE_DEFINED_CURVE_FONT('continuous');
#170=DRAUGHTING_PRE_DEFINED_CURVE_FONT('continuous');
#171=DRAUGHTING_PRE_DEFINED_CURVE_FONT('continuous');
#172=DRAUGHTING_PRE_DEFINED_CURVE_FONT('continuous');
#173=DRAUGHTING_PRE_DEFINED_CURVE_FONT('continuous');
#174=DRAUGHTING_PRE_DEFINED_CURVE_FONT('continuous');
#175=DRAUGHTING_PRE_DEFINED_CURVE_FONT('continuous');
#176=DRAUGHTING_PRE_DEFINED_CURVE_FONT('continuous');
#177=DRAUGHTING_PRE_DEFINED_CURVE_FONT('continuous');
#178=DRAUGHTING_PRE_DEFINED_CURVE_FONT('continuous');
#179=DRAUGHTING_PRE_DEFINED_CURVE_FONT('continuous');
#180=DRAUGHTING_PRE_DEFINED_CURVE_FONT('continuous');
#181=DRAUGHTING_PRE_DEFINED_CURVE_FONT('continuous');
#182=TRIMMED_CURVE('',#186,(PARAMETER_VALUE(0.)),(PARAMETER_VALUE(1.)),
 .T.,.PARAMETER.);
#183=TRIMMED_CURVE('',#187,(PARAMETER_VALUE(0.)),(PARAMETER_VALUE(1.)),
 .T.,.PARAMETER.);
#184=TRIMMED_CURVE('',#188,(PARAMETER_VALUE(0.)),(PARAMETER_VALUE(1.)),
 .T.,.PARAMETER.);
#185=TRIMMED_CURVE('',#189,(PARAMETER_VALUE(0.)),(PARAMETER_VALUE(1.)),
 .T.,.PARAMETER.);
#186=LINE('',#350,#196);
#187=LINE('',#351,#197);
#188=LINE('',#352,#198);
#189=LINE('',#353,#199);
#190=LINE('',#364,#200);
#191=LINE('',#369,#201);
#192=LINE('',#378,#202);
#193=LINE('',#383,#203);
#194=LINE('',#391,#204);
#195=LINE('',#395,#205);
#196=VECTOR('',#278,9.);
#197=VECTOR('',#279,36.);
#198=VECTOR('',#280,9.);
#199=VECTOR('',#281,36.);
#200=VECTOR('',#302,1.);
#201=VECTOR('',#305,1.);
#202=VECTOR('',#320,1.);
#203=VECTOR('',#323,1.);
#204=VECTOR('',#336,1.);
#205=VECTOR('',#339,1.);
#206=PRESENTATION_LAYER_ASSIGNMENT('1','Layer 1',(#349,#182,#183,#184,#185,
#246,#247,#250,#251,#252,#253,#254,#255,#40,#41));
#207=PRESENTATION_LAYER_ASSIGNMENT('2','Layer 2',(#248,#249));
#208=STYLED_ITEM('',(#225),#349);
#209=STYLED_ITEM('',(#226),#182);
#210=STYLED_ITEM('',(#227),#183);
#211=STYLED_ITEM('',(#228),#184);
#212=STYLED_ITEM('',(#229),#185);
#213=STYLED_ITEM('',(#230),#246);
#214=STYLED_ITEM('',(#231),#247);
#215=STYLED_ITEM('',(#232),#248);
#216=STYLED_ITEM('',(#233),#249);
#217=STYLED_ITEM('',(#234),#250);
#218=STYLED_ITEM('',(#235),#251);
#219=STYLED_ITEM('',(#236),#252);
#220=STYLED_ITEM('',(#237),#253);
#221=STYLED_ITEM('',(#238),#254);
#222=STYLED_ITEM('',(#239),#255);
#223=STYLED_ITEM('',(#240),#40);
#224=STYLED_ITEM('',(#241),#41);
#225=PRESENTATION_STYLE_ASSIGNMENT((#242));
#226=PRESENTATION_STYLE_ASSIGNMENT((#154));
#227=PRESENTATION_STYLE_ASSIGNMENT((#155));
#228=PRESENTATION_STYLE_ASSIGNMENT((#156));
#229=PRESENTATION_STYLE_ASSIGNMENT((#157));
#230=PRESENTATION_STYLE_ASSIGNMENT((#158));
#231=PRESENTATION_STYLE_ASSIGNMENT((#159));
#232=PRESENTATION_STYLE_ASSIGNMENT((#160));
#233=PRESENTATION_STYLE_ASSIGNMENT((#161));
#234=PRESENTATION_STYLE_ASSIGNMENT((#162));
#235=PRESENTATION_STYLE_ASSIGNMENT((#163));
#236=PRESENTATION_STYLE_ASSIGNMENT((#164));
#237=PRESENTATION_STYLE_ASSIGNMENT((#165));
#238=PRESENTATION_STYLE_ASSIGNMENT((#166));
#239=PRESENTATION_STYLE_ASSIGNMENT((#167));
#240=PRESENTATION_STYLE_ASSIGNMENT((#30));
#241=PRESENTATION_STYLE_ASSIGNMENT((#31));
#242=POINT_STYLE('',#243,POSITIVE_LENGTH_MEASURE(3.),#244);
#243=PRE_DEFINED_POINT_MARKER_SYMBOL('plus');
#244=DRAUGHTING_PRE_DEFINED_COLOUR('blue');
#245=AXIS2_PLACEMENT_3D('',#348,#276,#277);
#246=AXIS2_PLACEMENT_3D('',#354,#282,#283);
#247=AXIS2_PLACEMENT_3D('',#355,#284,#285);
#248=AXIS2_PLACEMENT_3D('CIP',#356,#286,#287);
#249=AXIS2_PLACEMENT_3D('PCS',#357,#288,#289);
#250=AXIS2_PLACEMENT_3D('MCS',#358,#290,#291);
#251=AXIS2_PLACEMENT_3D('',#359,#292,#293);
#252=AXIS2_PLACEMENT_3D('STEP_TEMP_3_1',#360,#294,#295);
#253=AXIS2_PLACEMENT_3D('',#361,#296,#297);
#254=AXIS2_PLACEMENT_3D('',#362,#298,#299);
#255=AXIS2_PLACEMENT_3D('',#363,#300,#301);
#256=AXIS2_PLACEMENT_3D('',#367,#303,#304);
#257=AXIS2_PLACEMENT_3D('',#371,#306,#307);
#258=AXIS2_PLACEMENT_3D('',#372,#308,#309);
#259=AXIS2_PLACEMENT_3D('',#373,#310,#311);
#260=AXIS2_PLACEMENT_3D('',#374,#312,#313);
#261=AXIS2_PLACEMENT_3D('',#375,#314,#315);
#262=AXIS2_PLACEMENT_3D('',#376,#316,#317);
#263=AXIS2_PLACEMENT_3D('',#377,#318,#319);
#264=AXIS2_PLACEMENT_3D('',#381,#321,#322);
#265=AXIS2_PLACEMENT_3D('',#385,#324,#325);
#266=AXIS2_PLACEMENT_3D('',#386,#326,#327);
#267=AXIS2_PLACEMENT_3D('',#387,#328,#329);
#268=AXIS2_PLACEMENT_3D('',#388,#330,#331);
#269=AXIS2_PLACEMENT_3D('',#389,#332,#333);
#270=AXIS2_PLACEMENT_3D('',#390,#334,#335);
#271=AXIS2_PLACEMENT_3D('',#393,#337,#338);
#272=AXIS2_PLACEMENT_3D('',#396,#340,#341);
#273=AXIS2_PLACEMENT_3D('',#397,#342,#343);
#274=AXIS2_PLACEMENT_3D('',#398,#344,#345);
#275=AXIS2_PLACEMENT_3D('',#399,#346,#347);
#276=DIRECTION('',(0.,0.,1.));
#277=DIRECTION('',(1.,0.,0.));
#278=DIRECTION('',(-1.,0.,0.));
#279=DIRECTION('',(0.,0.,1.));
#280=DIRECTION('',(1.,0.,0.));
#281=DIRECTION('',(0.,0.,-1.));
#282=DIRECTION('',(0.,0.,1.));
#283=DIRECTION('',(1.,0.,0.));
#284=DIRECTION('',(0.,0.,1.));
#285=DIRECTION('',(1.,0.,0.));
#286=DIRECTION('',(0.,0.,1.));
#287=DIRECTION('',(1.,0.,0.));
#288=DIRECTION('',(0.,0.,1.));
#289=DIRECTION('',(1.,0.,0.));
#290=DIRECTION('',(0.,0.,1.));
#291=DIRECTION('',(1.,0.,0.));
#292=DIRECTION('',(0.,0.,1.));
#293=DIRECTION('',(1.,0.,0.));
#294=DIRECTION('',(0.,0.,1.));
#295=DIRECTION('',(1.,0.,0.));
#296=DIRECTION('',(0.,0.,1.));
#297=DIRECTION('',(1.,0.,0.));
#298=DIRECTION('',(0.,0.,1.));
#299=DIRECTION('',(1.,0.,0.));
#300=DIRECTION('',(0.,0.,1.));
#301=DIRECTION('',(1.,0.,0.));
#302=DIRECTION('',(0.,0.,-1.));
#303=DIRECTION('',(0.,0.,1.));
#304=DIRECTION('',(0.,-1.,0.));
#305=DIRECTION('',(0.,0.,-1.));
#306=DIRECTION('',(0.,0.,-1.));
#307=DIRECTION('',(0.,1.,0.));
#308=DIRECTION('',(0.,0.,-1.));
#309=DIRECTION('',(0.,1.,0.));
#310=DIRECTION('',(0.,0.,-1.));
#311=DIRECTION('',(0.,-1.,0.));
#312=DIRECTION('',(0.,0.,-1.));
#313=DIRECTION('',(1.,0.,0.));
#314=DIRECTION('',(0.,0.,1.));
#315=DIRECTION('',(0.,1.,0.));
#316=DIRECTION('',(0.,0.,-1.));
#317=DIRECTION('',(0.,1.,0.));
#318=DIRECTION('',(0.,0.,-1.));
#319=DIRECTION('',(0.,1.,0.));
#320=DIRECTION('',(0.,0.,-1.));
#321=DIRECTION('',(0.,0.,-1.));
#322=DIRECTION('',(0.,1.,0.));
#323=DIRECTION('',(0.,0.,-1.));
#324=DIRECTION('',(0.,0.,1.));
#325=DIRECTION('',(0.,-1.,0.));
#326=DIRECTION('',(0.,0.,-1.));
#327=DIRECTION('',(0.,1.,0.));
#328=DIRECTION('',(0.,0.,1.));
#329=DIRECTION('',(0.,1.,0.));
#330=DIRECTION('',(0.,0.,1.));
#331=DIRECTION('',(-1.,0.,0.));
#332=DIRECTION('',(0.,0.,-1.));
#333=DIRECTION('',(0.,-1.,0.));
#334=DIRECTION('',(0.,0.,-1.));
#335=DIRECTION('',(0.,1.,0.));
#336=DIRECTION('',(0.,0.707106781186547,0.707106781186547));
#337=DIRECTION('',(0.,0.,-1.));
#338=DIRECTION('',(0.,-1.,0.));
#339=DIRECTION('',(0.,-0.707106781186547,0.707106781186547));
#340=DIRECTION('',(0.,0.,-1.));
#341=DIRECTION('',(0.,1.,4.12824624922592E-17));
#342=DIRECTION('',(0.,0.,-1.));
#343=DIRECTION('',(0.,1.,0.));
#344=DIRECTION('',(0.,0.,-1.));
#345=DIRECTION('',(0.,1.,4.12824624922592E-17));
#346=DIRECTION('',(0.,0.,-1.));
#347=DIRECTION('',(0.,1.,0.));
#348=CARTESIAN_POINT('',(0.,0.,0.));
#349=CARTESIAN_POINT('CRP',(-9.,0.,0.));
#350=CARTESIAN_POINT('',(0.,0.,0.));
#351=CARTESIAN_POINT('',(-9.,0.,0.));
#352=CARTESIAN_POINT('',(-9.,0.,36.));
#353=CARTESIAN_POINT('',(0.,0.,36.));
#354=CARTESIAN_POINT('',(0.,0.,0.));
#355=CARTESIAN_POINT('',(0.,0.,0.));
#356=CARTESIAN_POINT('',(0.,0.,0.));
#357=CARTESIAN_POINT('',(0.,0.,119.));
#358=CARTESIAN_POINT('',(0.,0.,77.));
#359=CARTESIAN_POINT('',(0.,0.,0.));
#360=CARTESIAN_POINT('',(0.,0.,0.));
#361=CARTESIAN_POINT('',(0.,0.,0.));
#362=CARTESIAN_POINT('',(0.,0.,0.));
#363=CARTESIAN_POINT('',(0.,0.,0.));
#364=CARTESIAN_POINT('',(0.,-9.,36.));
#365=CARTESIAN_POINT('',(0.,-9.,36.));
#366=CARTESIAN_POINT('',(0.,-9.,1.563194018672E-13));
#367=CARTESIAN_POINT('',(0.,0.,1.563194018672E-13));
#368=CARTESIAN_POINT('',(0.,9.,1.06581410364E-13));
#369=CARTESIAN_POINT('',(0.,9.,36.));
#370=CARTESIAN_POINT('',(0.,9.,36.));
#371=CARTESIAN_POINT('',(0.,0.,36.));
#372=CARTESIAN_POINT('',(0.,0.,124.95));
#373=CARTESIAN_POINT('',(0.,0.,36.));
#374=CARTESIAN_POINT('',(150.,150.,36.));
#375=CARTESIAN_POINT('',(0.,0.,1.563194018672E-13));
#376=CARTESIAN_POINT('',(0.,0.,124.95));
#377=CARTESIAN_POINT('',(0.,-2.185373764705E-14,0.));
#378=CARTESIAN_POINT('',(0.,9.,118.));
#379=CARTESIAN_POINT('',(0.,9.,118.));
#380=CARTESIAN_POINT('',(0.,9.,36.));
#381=CARTESIAN_POINT('',(0.,0.,118.));
#382=CARTESIAN_POINT('',(0.,-9.,118.));
#383=CARTESIAN_POINT('',(0.,-9.,118.));
#384=CARTESIAN_POINT('',(0.,-9.,36.));
#385=CARTESIAN_POINT('',(0.,0.,36.));
#386=CARTESIAN_POINT('',(0.,0.,124.95));
#387=CARTESIAN_POINT('',(0.,0.,36.));
#388=CARTESIAN_POINT('',(-150.,150.,36.));
#389=CARTESIAN_POINT('',(0.,0.,118.));
#390=CARTESIAN_POINT('',(0.,0.,124.95));
#391=CARTESIAN_POINT('',(0.,-8.,119.));
#392=CARTESIAN_POINT('',(0.,-8.,119.));
#393=CARTESIAN_POINT('',(0.,0.,119.));
#394=CARTESIAN_POINT('',(0.,8.,119.));
#395=CARTESIAN_POINT('',(0.,8.,119.));
#396=CARTESIAN_POINT('',(0.,0.,118.5));
#397=CARTESIAN_POINT('',(0.,0.,119.));
#398=CARTESIAN_POINT('',(0.,0.,118.5));
#399=CARTESIAN_POINT('',(0.,0.,119.));
#400=MECHANICAL_DESIGN_GEOMETRIC_PRESENTATION_REPRESENTATION('',(#208,#209,
#210,#211,#212,#213,#214,#215,#216,#217,#218,#219,#220,#221,#222,#223,#224),
#401);
#401=(
GEOMETRIC_REPRESENTATION_CONTEXT(3)
GLOBAL_UNCERTAINTY_ASSIGNED_CONTEXT((#402))
GLOBAL_UNIT_ASSIGNED_CONTEXT((#408,#404,#403))
REPRESENTATION_CONTEXT('MFE1800X02S180','TOP_LEVEL_ASSEMBLY_PART')
);
#402=UNCERTAINTY_MEASURE_WITH_UNIT(LENGTH_MEASURE(2.E-5),#408,
'DISTANCE_ACCURACY_VALUE','Maximum Tolerance applied to model');
#403=(
NAMED_UNIT(*)
SI_UNIT($,.STERADIAN.)
SOLID_ANGLE_UNIT()
);
#404=(
CONVERSION_BASED_UNIT('DEGREE',#406)
NAMED_UNIT(#405)
PLANE_ANGLE_UNIT()
);
#405=DIMENSIONAL_EXPONENTS(0.,0.,0.,0.,0.,0.,0.);
#406=PLANE_ANGLE_MEASURE_WITH_UNIT(PLANE_ANGLE_MEASURE(0.0174532925),#407);
#407=(
NAMED_UNIT(*)
PLANE_ANGLE_UNIT()
SI_UNIT($,.RADIAN.)
);
#408=(
LENGTH_UNIT()
NAMED_UNIT(*)
SI_UNIT(.MILLI.,.METRE.)
);
ENDSEC;
END-ISO-10303-21;
