ISO-10303-21;
HEADER;
/* Generated by software containing ST-Developer
 * from STEP Tools, Inc. (www.steptools.com) 
 */
/* OPTION: using custom schema-name function */

FILE_DESCRIPTION(
/* description */ (''),
/* implementation_level */ '2;1');

FILE_NAME(
/* name */ 'IMX20CH6V0750A45.stp',
/* time_stamp */ '2023-10-12T14:36:39+09:00',
/* author */ (''),
/* organization */ (''),
/* preprocessor_version */ 'ST-DEVELOPER v16',
/* originating_system */ 'SIEMENS PLM Software NX 10.0',
/* authorisation */ '');

FILE_SCHEMA (('AUTOMOTIVE_DESIGN { 1 0 10303 214 3 1 1 1 }'));
ENDSEC;

DATA;
#10=CONSTRUCTIVE_GEOMETRY_REPRESENTATION_RELATIONSHIP(
'supplemental geometry','',#26,#11);
#11=CONSTRUCTIVE_GEOMETRY_REPRESENTATION('supplemental geometry',(#378,
#379,#380,#381,#382,#383,#384,#385,#386,#387),#641);
#12=GEOMETRICALLY_BOUNDED_WIREFRAME_SHAPE_REPRESENTATION(
'IMX20CH6V0750A45-None',(#27),#641);
#13=SHAPE_REPRESENTATION_RELATIONSHIP('None',
'relationship between IMX20CH6V0750A45-None and IMX20CH6V0750A45-None',
#26,#15);
#14=SHAPE_REPRESENTATION_RELATIONSHIP('None',
'relationship between IMX20CH6V0750A45-None and IMX20CH6V0750A45-None',
#26,#12);
#15=ADVANCED_BREP_SHAPE_REPRESENTATION('IMX20CH6V0750A45-None',(#50,#51),
#641);
#16=SHAPE_DEFINITION_REPRESENTATION(#17,#26);
#17=PRODUCT_DEFINITION_SHAPE('','SHAPE FOR IMX20CH6V0750A45_ASM.',#18);
#18=PRODUCT_DEFINITION('part definition','',#20,#19);
#19=PRODUCT_DEFINITION_CONTEXT('part definition',#25,'design');
#20=PRODUCT_DEFINITION_FORMATION_WITH_SPECIFIED_SOURCE(' ',' ',#22,
 .NOT_KNOWN.);
#21=PRODUCT_RELATED_PRODUCT_CATEGORY('part','',(#22));
#22=PRODUCT('IMX20CH6V0750A45_ASM','IMX20CH6V0750A45_ASM',
'NOT SPECIFIED',(#23));
#23=PRODUCT_CONTEXT('',#25,'mechanical');
#24=APPLICATION_PROTOCOL_DEFINITION('international standard',
'automotive_design',2010,#25);
#25=APPLICATION_CONTEXT(
'core data for automotive mechanical design processes');
#26=SHAPE_REPRESENTATION('IMX20CH6V0750A45-None',(#377),#641);
#27=GEOMETRIC_CURVE_SET('None',(#550,#302,#303,#304,#305));
#28=FACE_BOUND('',#109,.T.);
#29=FACE_BOUND('',#110,.T.);
#30=FACE_BOUND('',#113,.T.);
#31=FACE_BOUND('',#114,.T.);
#32=FACE_BOUND('',#117,.T.);
#33=FACE_BOUND('',#118,.T.);
#34=CYLINDRICAL_SURFACE('',#398,9.525);
#35=CYLINDRICAL_SURFACE('',#402,9.525);
#36=CYLINDRICAL_SURFACE('',#407,9.27);
#37=CYLINDRICAL_SURFACE('',#409,9.27);
#38=CYLINDRICAL_SURFACE('',#421,5.);
#39=CYLINDRICAL_SURFACE('',#423,5.);
#40=SURFACE_STYLE_USAGE(.BOTH.,#42);
#41=SURFACE_STYLE_USAGE(.BOTH.,#43);
#42=SURFACE_SIDE_STYLE('',(#44));
#43=SURFACE_SIDE_STYLE('',(#45));
#44=SURFACE_STYLE_FILL_AREA(#46);
#45=SURFACE_STYLE_FILL_AREA(#47);
#46=FILL_AREA_STYLE('',(#48));
#47=FILL_AREA_STYLE('',(#49));
#48=FILL_AREA_STYLE_COLOUR('',#272);
#49=FILL_AREA_STYLE_COLOUR('',#273);
#50=MANIFOLD_SOLID_BREP('CUT',#52);
#51=MANIFOLD_SOLID_BREP('NOCUT',#53);
#52=CLOSED_SHELL('',(#60,#61,#62,#63));
#53=CLOSED_SHELL('',(#64,#65,#66,#67,#68,#69,#70,#71,#72,#73,#74,#75,#76,
#77,#78));
#54=CONICAL_SURFACE('',#392,5.5245,45.);
#55=CONICAL_SURFACE('',#395,5.5245,45.);
#56=CONICAL_SURFACE('',#414,6.825,1.909152432996);
#57=CONICAL_SURFACE('',#416,6.825,1.909152432996);
#58=CONICAL_SURFACE('',#425,4.625,45.);
#59=CONICAL_SURFACE('',#427,4.625,45.);
#60=ADVANCED_FACE('',(#86),#79,.T.);
#61=ADVANCED_FACE('',(#87),#54,.T.);
#62=ADVANCED_FACE('',(#88),#80,.F.);
#63=ADVANCED_FACE('',(#89),#55,.T.);
#64=ADVANCED_FACE('',(#90),#34,.T.);
#65=ADVANCED_FACE('',(#91),#81,.F.);
#66=ADVANCED_FACE('',(#92),#35,.T.);
#67=ADVANCED_FACE('',(#28,#29),#82,.F.);
#68=ADVANCED_FACE('',(#93),#36,.T.);
#69=ADVANCED_FACE('',(#94),#37,.T.);
#70=ADVANCED_FACE('',(#30,#31),#83,.F.);
#71=ADVANCED_FACE('',(#95),#56,.T.);
#72=ADVANCED_FACE('',(#96),#57,.T.);
#73=ADVANCED_FACE('',(#32,#33),#84,.F.);
#74=ADVANCED_FACE('',(#97),#38,.T.);
#75=ADVANCED_FACE('',(#98),#39,.T.);
#76=ADVANCED_FACE('',(#99),#58,.T.);
#77=ADVANCED_FACE('',(#100),#59,.T.);
#78=ADVANCED_FACE('',(#101),#85,.F.);
#79=PLANE('',#390);
#80=PLANE('',#394);
#81=PLANE('',#400);
#82=PLANE('',#405);
#83=PLANE('',#412);
#84=PLANE('',#419);
#85=PLANE('',#428);
#86=FACE_OUTER_BOUND('',#102,.T.);
#87=FACE_OUTER_BOUND('',#103,.T.);
#88=FACE_OUTER_BOUND('',#104,.T.);
#89=FACE_OUTER_BOUND('',#105,.T.);
#90=FACE_OUTER_BOUND('',#106,.T.);
#91=FACE_OUTER_BOUND('',#107,.T.);
#92=FACE_OUTER_BOUND('',#108,.T.);
#93=FACE_OUTER_BOUND('',#111,.T.);
#94=FACE_OUTER_BOUND('',#112,.T.);
#95=FACE_OUTER_BOUND('',#115,.T.);
#96=FACE_OUTER_BOUND('',#116,.T.);
#97=FACE_OUTER_BOUND('',#119,.T.);
#98=FACE_OUTER_BOUND('',#120,.T.);
#99=FACE_OUTER_BOUND('',#121,.T.);
#100=FACE_OUTER_BOUND('',#122,.T.);
#101=FACE_OUTER_BOUND('',#123,.T.);
#102=EDGE_LOOP('',(#124,#125));
#103=EDGE_LOOP('',(#126,#127,#128,#129));
#104=EDGE_LOOP('',(#130,#131));
#105=EDGE_LOOP('',(#132,#133,#134,#135));
#106=EDGE_LOOP('',(#136,#137,#138,#139));
#107=EDGE_LOOP('',(#140,#141));
#108=EDGE_LOOP('',(#142,#143,#144,#145));
#109=EDGE_LOOP('',(#146,#147));
#110=EDGE_LOOP('',(#148,#149));
#111=EDGE_LOOP('',(#150,#151,#152,#153));
#112=EDGE_LOOP('',(#154,#155,#156,#157));
#113=EDGE_LOOP('',(#158,#159));
#114=EDGE_LOOP('',(#160,#161));
#115=EDGE_LOOP('',(#162,#163,#164,#165));
#116=EDGE_LOOP('',(#166,#167,#168,#169));
#117=EDGE_LOOP('',(#170,#171));
#118=EDGE_LOOP('',(#172,#173));
#119=EDGE_LOOP('',(#174,#175,#176,#177));
#120=EDGE_LOOP('',(#178,#179,#180,#181));
#121=EDGE_LOOP('',(#182,#183,#184,#185));
#122=EDGE_LOOP('',(#186,#187,#188,#189));
#123=EDGE_LOOP('',(#190,#191));
#124=ORIENTED_EDGE('',*,*,#214,.F.);
#125=ORIENTED_EDGE('',*,*,#215,.F.);
#126=ORIENTED_EDGE('',*,*,#216,.F.);
#127=ORIENTED_EDGE('',*,*,#215,.T.);
#128=ORIENTED_EDGE('',*,*,#217,.T.);
#129=ORIENTED_EDGE('',*,*,#218,.T.);
#130=ORIENTED_EDGE('',*,*,#218,.F.);
#131=ORIENTED_EDGE('',*,*,#219,.F.);
#132=ORIENTED_EDGE('',*,*,#217,.F.);
#133=ORIENTED_EDGE('',*,*,#214,.T.);
#134=ORIENTED_EDGE('',*,*,#216,.T.);
#135=ORIENTED_EDGE('',*,*,#219,.T.);
#136=ORIENTED_EDGE('',*,*,#220,.F.);
#137=ORIENTED_EDGE('',*,*,#221,.T.);
#138=ORIENTED_EDGE('',*,*,#222,.T.);
#139=ORIENTED_EDGE('',*,*,#223,.T.);
#140=ORIENTED_EDGE('',*,*,#224,.F.);
#141=ORIENTED_EDGE('',*,*,#223,.F.);
#142=ORIENTED_EDGE('',*,*,#222,.F.);
#143=ORIENTED_EDGE('',*,*,#225,.T.);
#144=ORIENTED_EDGE('',*,*,#220,.T.);
#145=ORIENTED_EDGE('',*,*,#224,.T.);
#146=ORIENTED_EDGE('',*,*,#221,.F.);
#147=ORIENTED_EDGE('',*,*,#225,.F.);
#148=ORIENTED_EDGE('',*,*,#226,.F.);
#149=ORIENTED_EDGE('',*,*,#227,.F.);
#150=ORIENTED_EDGE('',*,*,#228,.T.);
#151=ORIENTED_EDGE('',*,*,#229,.T.);
#152=ORIENTED_EDGE('',*,*,#227,.T.);
#153=ORIENTED_EDGE('',*,*,#230,.F.);
#154=ORIENTED_EDGE('',*,*,#226,.T.);
#155=ORIENTED_EDGE('',*,*,#229,.F.);
#156=ORIENTED_EDGE('',*,*,#231,.T.);
#157=ORIENTED_EDGE('',*,*,#230,.T.);
#158=ORIENTED_EDGE('',*,*,#228,.F.);
#159=ORIENTED_EDGE('',*,*,#231,.F.);
#160=ORIENTED_EDGE('',*,*,#232,.F.);
#161=ORIENTED_EDGE('',*,*,#233,.F.);
#162=ORIENTED_EDGE('',*,*,#234,.T.);
#163=ORIENTED_EDGE('',*,*,#235,.T.);
#164=ORIENTED_EDGE('',*,*,#233,.T.);
#165=ORIENTED_EDGE('',*,*,#236,.F.);
#166=ORIENTED_EDGE('',*,*,#232,.T.);
#167=ORIENTED_EDGE('',*,*,#235,.F.);
#168=ORIENTED_EDGE('',*,*,#237,.T.);
#169=ORIENTED_EDGE('',*,*,#236,.T.);
#170=ORIENTED_EDGE('',*,*,#234,.F.);
#171=ORIENTED_EDGE('',*,*,#237,.F.);
#172=ORIENTED_EDGE('',*,*,#238,.F.);
#173=ORIENTED_EDGE('',*,*,#239,.F.);
#174=ORIENTED_EDGE('',*,*,#240,.T.);
#175=ORIENTED_EDGE('',*,*,#241,.T.);
#176=ORIENTED_EDGE('',*,*,#239,.T.);
#177=ORIENTED_EDGE('',*,*,#242,.F.);
#178=ORIENTED_EDGE('',*,*,#238,.T.);
#179=ORIENTED_EDGE('',*,*,#241,.F.);
#180=ORIENTED_EDGE('',*,*,#243,.T.);
#181=ORIENTED_EDGE('',*,*,#242,.T.);
#182=ORIENTED_EDGE('',*,*,#243,.F.);
#183=ORIENTED_EDGE('',*,*,#244,.T.);
#184=ORIENTED_EDGE('',*,*,#245,.T.);
#185=ORIENTED_EDGE('',*,*,#246,.F.);
#186=ORIENTED_EDGE('',*,*,#247,.T.);
#187=ORIENTED_EDGE('',*,*,#244,.F.);
#188=ORIENTED_EDGE('',*,*,#240,.F.);
#189=ORIENTED_EDGE('',*,*,#246,.T.);
#190=ORIENTED_EDGE('',*,*,#247,.F.);
#191=ORIENTED_EDGE('',*,*,#245,.F.);
#192=VERTEX_POINT('',#566);
#193=VERTEX_POINT('',#567);
#194=VERTEX_POINT('',#571);
#195=VERTEX_POINT('',#573);
#196=VERTEX_POINT('',#580);
#197=VERTEX_POINT('',#581);
#198=VERTEX_POINT('',#583);
#199=VERTEX_POINT('',#585);
#200=VERTEX_POINT('',#593);
#201=VERTEX_POINT('',#594);
#202=VERTEX_POINT('',#598);
#203=VERTEX_POINT('',#599);
#204=VERTEX_POINT('',#606);
#205=VERTEX_POINT('',#607);
#206=VERTEX_POINT('',#611);
#207=VERTEX_POINT('',#612);
#208=VERTEX_POINT('',#619);
#209=VERTEX_POINT('',#620);
#210=VERTEX_POINT('',#624);
#211=VERTEX_POINT('',#625);
#212=VERTEX_POINT('',#632);
#213=VERTEX_POINT('',#634);
#214=EDGE_CURVE('',#192,#193,#248,.T.);
#215=EDGE_CURVE('',#193,#192,#249,.T.);
#216=EDGE_CURVE('',#193,#194,#310,.T.);
#217=EDGE_CURVE('',#192,#195,#311,.T.);
#218=EDGE_CURVE('',#195,#194,#250,.T.);
#219=EDGE_CURVE('',#194,#195,#251,.T.);
#220=EDGE_CURVE('',#196,#197,#312,.T.);
#221=EDGE_CURVE('',#196,#198,#252,.T.);
#222=EDGE_CURVE('',#198,#199,#313,.T.);
#223=EDGE_CURVE('',#199,#197,#253,.T.);
#224=EDGE_CURVE('',#197,#199,#254,.T.);
#225=EDGE_CURVE('',#198,#196,#255,.T.);
#226=EDGE_CURVE('',#200,#201,#256,.T.);
#227=EDGE_CURVE('',#201,#200,#257,.T.);
#228=EDGE_CURVE('',#202,#203,#258,.T.);
#229=EDGE_CURVE('',#203,#201,#314,.T.);
#230=EDGE_CURVE('',#202,#200,#315,.T.);
#231=EDGE_CURVE('',#203,#202,#259,.T.);
#232=EDGE_CURVE('',#204,#205,#260,.T.);
#233=EDGE_CURVE('',#205,#204,#261,.T.);
#234=EDGE_CURVE('',#206,#207,#262,.T.);
#235=EDGE_CURVE('',#207,#205,#316,.T.);
#236=EDGE_CURVE('',#206,#204,#317,.T.);
#237=EDGE_CURVE('',#207,#206,#263,.T.);
#238=EDGE_CURVE('',#208,#209,#264,.T.);
#239=EDGE_CURVE('',#209,#208,#265,.T.);
#240=EDGE_CURVE('',#210,#211,#266,.T.);
#241=EDGE_CURVE('',#211,#209,#318,.T.);
#242=EDGE_CURVE('',#210,#208,#319,.T.);
#243=EDGE_CURVE('',#211,#210,#267,.T.);
#244=EDGE_CURVE('',#211,#212,#320,.T.);
#245=EDGE_CURVE('',#212,#213,#268,.T.);
#246=EDGE_CURVE('',#210,#213,#321,.T.);
#247=EDGE_CURVE('',#213,#212,#269,.T.);
#248=CIRCLE('',#388,1.524);
#249=CIRCLE('',#389,1.524);
#250=CIRCLE('',#391,9.525);
#251=CIRCLE('',#393,9.525);
#252=CIRCLE('',#396,9.525);
#253=CIRCLE('',#397,9.525);
#254=CIRCLE('',#399,9.525);
#255=CIRCLE('',#401,9.525);
#256=CIRCLE('',#403,9.27);
#257=CIRCLE('',#404,9.27);
#258=CIRCLE('',#406,9.27);
#259=CIRCLE('',#408,9.27);
#260=CIRCLE('',#410,7.);
#261=CIRCLE('',#411,7.);
#262=CIRCLE('',#413,6.65);
#263=CIRCLE('',#415,6.65);
#264=CIRCLE('',#417,5.);
#265=CIRCLE('',#418,5.);
#266=CIRCLE('',#420,5.);
#267=CIRCLE('',#422,5.);
#268=CIRCLE('',#424,4.25);
#269=CIRCLE('',#426,4.25);
#270=COLOUR_RGB('Strong Stone',0.576470588235294,0.54508278019379,0.392156862745098);
#271=COLOUR_RGB('Medium Umber',0.372533760585946,0.313725490196078,0.270572976272221);
#272=COLOUR_RGB('Light Gray',0.8,0.8,0.8);
#273=COLOUR_RGB('non-cutting part and shank',0.501960784313725,0.501960784313725,
0.501960784313725);
#274=CURVE_STYLE('',#288,POSITIVE_LENGTH_MEASURE(0.18),#376);
#275=CURVE_STYLE('',#289,POSITIVE_LENGTH_MEASURE(0.18),#376);
#276=CURVE_STYLE('',#290,POSITIVE_LENGTH_MEASURE(0.18),#376);
#277=CURVE_STYLE('',#291,POSITIVE_LENGTH_MEASURE(0.18),#376);
#278=CURVE_STYLE('',#292,POSITIVE_LENGTH_MEASURE(0.13),#270);
#279=CURVE_STYLE('',#293,POSITIVE_LENGTH_MEASURE(0.13),#270);
#280=CURVE_STYLE('',#294,POSITIVE_LENGTH_MEASURE(0.13),#271);
#281=CURVE_STYLE('',#295,POSITIVE_LENGTH_MEASURE(0.13),#271);
#282=CURVE_STYLE('',#296,POSITIVE_LENGTH_MEASURE(0.13),#270);
#283=CURVE_STYLE('',#297,POSITIVE_LENGTH_MEASURE(0.13),#270);
#284=CURVE_STYLE('',#298,POSITIVE_LENGTH_MEASURE(0.13),#271);
#285=CURVE_STYLE('',#299,POSITIVE_LENGTH_MEASURE(0.13),#270);
#286=CURVE_STYLE('',#300,POSITIVE_LENGTH_MEASURE(0.13),#270);
#287=CURVE_STYLE('',#301,POSITIVE_LENGTH_MEASURE(0.13),#270);
#288=DRAUGHTING_PRE_DEFINED_CURVE_FONT('continuous');
#289=DRAUGHTING_PRE_DEFINED_CURVE_FONT('continuous');
#290=DRAUGHTING_PRE_DEFINED_CURVE_FONT('continuous');
#291=DRAUGHTING_PRE_DEFINED_CURVE_FONT('continuous');
#292=DRAUGHTING_PRE_DEFINED_CURVE_FONT('continuous');
#293=DRAUGHTING_PRE_DEFINED_CURVE_FONT('continuous');
#294=DRAUGHTING_PRE_DEFINED_CURVE_FONT('continuous');
#295=DRAUGHTING_PRE_DEFINED_CURVE_FONT('continuous');
#296=DRAUGHTING_PRE_DEFINED_CURVE_FONT('continuous');
#297=DRAUGHTING_PRE_DEFINED_CURVE_FONT('continuous');
#298=DRAUGHTING_PRE_DEFINED_CURVE_FONT('continuous');
#299=DRAUGHTING_PRE_DEFINED_CURVE_FONT('continuous');
#300=DRAUGHTING_PRE_DEFINED_CURVE_FONT('continuous');
#301=DRAUGHTING_PRE_DEFINED_CURVE_FONT('continuous');
#302=TRIMMED_CURVE('',#306,(PARAMETER_VALUE(0.)),(PARAMETER_VALUE(1.)),
 .T.,.PARAMETER.);
#303=TRIMMED_CURVE('',#307,(PARAMETER_VALUE(0.)),(PARAMETER_VALUE(1.)),
 .T.,.PARAMETER.);
#304=TRIMMED_CURVE('',#308,(PARAMETER_VALUE(0.)),(PARAMETER_VALUE(1.)),
 .T.,.PARAMETER.);
#305=TRIMMED_CURVE('',#309,(PARAMETER_VALUE(0.)),(PARAMETER_VALUE(1.)),
 .T.,.PARAMETER.);
#306=LINE('',#551,#322);
#307=LINE('',#552,#323);
#308=LINE('',#553,#324);
#309=LINE('',#554,#325);
#310=LINE('',#570,#326);
#311=LINE('',#572,#327);
#312=LINE('',#579,#328);
#313=LINE('',#584,#329);
#314=LINE('',#600,#330);
#315=LINE('',#601,#331);
#316=LINE('',#613,#332);
#317=LINE('',#614,#333);
#318=LINE('',#626,#334);
#319=LINE('',#627,#335);
#320=LINE('',#631,#336);
#321=LINE('',#635,#337);
#322=VECTOR('',#431,1.524);
#323=VECTOR('',#432,11.3151227125492);
#324=VECTOR('',#433,9.525);
#325=VECTOR('',#434,8.001);
#326=VECTOR('',#461,1.);
#327=VECTOR('',#462,1.);
#328=VECTOR('',#473,1.);
#329=VECTOR('',#476,1.);
#330=VECTOR('',#497,1.);
#331=VECTOR('',#498,1.);
#332=VECTOR('',#513,1.);
#333=VECTOR('',#514,1.);
#334=VECTOR('',#529,1.);
#335=VECTOR('',#530,1.);
#336=VECTOR('',#537,1.);
#337=VECTOR('',#540,1.);
#338=PRESENTATION_LAYER_ASSIGNMENT('1','Layer 1',(#550,#302,#303,#304,#305,
#378,#379,#382,#383,#384,#385,#386,#387,#50,#51));
#339=PRESENTATION_LAYER_ASSIGNMENT('2','Layer 2',(#380,#381));
#340=STYLED_ITEM('',(#357),#550);
#341=STYLED_ITEM('',(#358),#302);
#342=STYLED_ITEM('',(#359),#303);
#343=STYLED_ITEM('',(#360),#304);
#344=STYLED_ITEM('',(#361),#305);
#345=STYLED_ITEM('',(#362),#378);
#346=STYLED_ITEM('',(#363),#379);
#347=STYLED_ITEM('',(#364),#380);
#348=STYLED_ITEM('',(#365),#381);
#349=STYLED_ITEM('',(#366),#382);
#350=STYLED_ITEM('',(#367),#383);
#351=STYLED_ITEM('',(#368),#384);
#352=STYLED_ITEM('',(#369),#385);
#353=STYLED_ITEM('',(#370),#386);
#354=STYLED_ITEM('',(#371),#387);
#355=STYLED_ITEM('',(#372),#50);
#356=STYLED_ITEM('',(#373),#51);
#357=PRESENTATION_STYLE_ASSIGNMENT((#374));
#358=PRESENTATION_STYLE_ASSIGNMENT((#274));
#359=PRESENTATION_STYLE_ASSIGNMENT((#275));
#360=PRESENTATION_STYLE_ASSIGNMENT((#276));
#361=PRESENTATION_STYLE_ASSIGNMENT((#277));
#362=PRESENTATION_STYLE_ASSIGNMENT((#278));
#363=PRESENTATION_STYLE_ASSIGNMENT((#279));
#364=PRESENTATION_STYLE_ASSIGNMENT((#280));
#365=PRESENTATION_STYLE_ASSIGNMENT((#281));
#366=PRESENTATION_STYLE_ASSIGNMENT((#282));
#367=PRESENTATION_STYLE_ASSIGNMENT((#283));
#368=PRESENTATION_STYLE_ASSIGNMENT((#284));
#369=PRESENTATION_STYLE_ASSIGNMENT((#285));
#370=PRESENTATION_STYLE_ASSIGNMENT((#286));
#371=PRESENTATION_STYLE_ASSIGNMENT((#287));
#372=PRESENTATION_STYLE_ASSIGNMENT((#40));
#373=PRESENTATION_STYLE_ASSIGNMENT((#41));
#374=POINT_STYLE('',#375,POSITIVE_LENGTH_MEASURE(3.),#376);
#375=PRE_DEFINED_POINT_MARKER_SYMBOL('plus');
#376=DRAUGHTING_PRE_DEFINED_COLOUR('blue');
#377=AXIS2_PLACEMENT_3D('',#549,#429,#430);
#378=AXIS2_PLACEMENT_3D('',#555,#435,#436);
#379=AXIS2_PLACEMENT_3D('',#556,#437,#438);
#380=AXIS2_PLACEMENT_3D('CIP',#557,#439,#440);
#381=AXIS2_PLACEMENT_3D('PCS',#558,#441,#442);
#382=AXIS2_PLACEMENT_3D('MCS',#559,#443,#444);
#383=AXIS2_PLACEMENT_3D('',#560,#445,#446);
#384=AXIS2_PLACEMENT_3D('STEP_TEMP_IMX_6_1',#561,#447,#448);
#385=AXIS2_PLACEMENT_3D('',#562,#449,#450);
#386=AXIS2_PLACEMENT_3D('',#563,#451,#452);
#387=AXIS2_PLACEMENT_3D('',#564,#453,#454);
#388=AXIS2_PLACEMENT_3D('',#565,#455,#456);
#389=AXIS2_PLACEMENT_3D('',#568,#457,#458);
#390=AXIS2_PLACEMENT_3D('',#569,#459,#460);
#391=AXIS2_PLACEMENT_3D('',#574,#463,#464);
#392=AXIS2_PLACEMENT_3D('',#575,#465,#466);
#393=AXIS2_PLACEMENT_3D('',#576,#467,#468);
#394=AXIS2_PLACEMENT_3D('',#577,#469,#470);
#395=AXIS2_PLACEMENT_3D('',#578,#471,#472);
#396=AXIS2_PLACEMENT_3D('',#582,#474,#475);
#397=AXIS2_PLACEMENT_3D('',#586,#477,#478);
#398=AXIS2_PLACEMENT_3D('',#587,#479,#480);
#399=AXIS2_PLACEMENT_3D('',#588,#481,#482);
#400=AXIS2_PLACEMENT_3D('',#589,#483,#484);
#401=AXIS2_PLACEMENT_3D('',#590,#485,#486);
#402=AXIS2_PLACEMENT_3D('',#591,#487,#488);
#403=AXIS2_PLACEMENT_3D('',#592,#489,#490);
#404=AXIS2_PLACEMENT_3D('',#595,#491,#492);
#405=AXIS2_PLACEMENT_3D('',#596,#493,#494);
#406=AXIS2_PLACEMENT_3D('',#597,#495,#496);
#407=AXIS2_PLACEMENT_3D('',#602,#499,#500);
#408=AXIS2_PLACEMENT_3D('',#603,#501,#502);
#409=AXIS2_PLACEMENT_3D('',#604,#503,#504);
#410=AXIS2_PLACEMENT_3D('',#605,#505,#506);
#411=AXIS2_PLACEMENT_3D('',#608,#507,#508);
#412=AXIS2_PLACEMENT_3D('',#609,#509,#510);
#413=AXIS2_PLACEMENT_3D('',#610,#511,#512);
#414=AXIS2_PLACEMENT_3D('',#615,#515,#516);
#415=AXIS2_PLACEMENT_3D('',#616,#517,#518);
#416=AXIS2_PLACEMENT_3D('',#617,#519,#520);
#417=AXIS2_PLACEMENT_3D('',#618,#521,#522);
#418=AXIS2_PLACEMENT_3D('',#621,#523,#524);
#419=AXIS2_PLACEMENT_3D('',#622,#525,#526);
#420=AXIS2_PLACEMENT_3D('',#623,#527,#528);
#421=AXIS2_PLACEMENT_3D('',#628,#531,#532);
#422=AXIS2_PLACEMENT_3D('',#629,#533,#534);
#423=AXIS2_PLACEMENT_3D('',#630,#535,#536);
#424=AXIS2_PLACEMENT_3D('',#633,#538,#539);
#425=AXIS2_PLACEMENT_3D('',#636,#541,#542);
#426=AXIS2_PLACEMENT_3D('',#637,#543,#544);
#427=AXIS2_PLACEMENT_3D('',#638,#545,#546);
#428=AXIS2_PLACEMENT_3D('',#639,#547,#548);
#429=DIRECTION('',(0.,0.,1.));
#430=DIRECTION('',(1.,0.,0.));
#431=DIRECTION('',(-1.,0.,0.));
#432=DIRECTION('',(-0.707106781186548,0.,0.707106781186548));
#433=DIRECTION('',(1.,0.,0.));
#434=DIRECTION('',(0.,0.,-1.));
#435=DIRECTION('',(0.,0.,1.));
#436=DIRECTION('',(1.,0.,0.));
#437=DIRECTION('',(0.,0.,1.));
#438=DIRECTION('',(1.,0.,0.));
#439=DIRECTION('',(0.,0.,1.));
#440=DIRECTION('',(1.,0.,0.));
#441=DIRECTION('',(0.,0.,1.));
#442=DIRECTION('',(1.,0.,0.));
#443=DIRECTION('',(0.,0.,1.));
#444=DIRECTION('',(1.,0.,0.));
#445=DIRECTION('',(0.,0.,1.));
#446=DIRECTION('',(1.,0.,0.));
#447=DIRECTION('',(0.,0.,1.));
#448=DIRECTION('',(1.,0.,0.));
#449=DIRECTION('',(0.,0.,1.));
#450=DIRECTION('',(1.,0.,0.));
#451=DIRECTION('',(0.,0.,1.));
#452=DIRECTION('',(1.,0.,0.));
#453=DIRECTION('',(0.,0.,1.));
#454=DIRECTION('',(1.,0.,0.));
#455=DIRECTION('',(0.,0.,1.));
#456=DIRECTION('',(0.,-1.,0.));
#457=DIRECTION('',(0.,0.,1.));
#458=DIRECTION('',(0.,1.,0.));
#459=DIRECTION('',(0.,0.,-1.));
#460=DIRECTION('',(0.,1.,0.));
#461=DIRECTION('',(0.,0.707106781186547,0.707106781186547));
#462=DIRECTION('',(0.,-0.707106781186547,0.707106781186547));
#463=DIRECTION('',(0.,0.,-1.));
#464=DIRECTION('',(0.,-1.,0.));
#465=DIRECTION('',(0.,0.,1.));
#466=DIRECTION('',(0.,-1.,7.3320687590421E-17));
#467=DIRECTION('',(0.,0.,-1.));
#468=DIRECTION('',(0.,1.,0.));
#469=DIRECTION('',(0.,0.,-1.));
#470=DIRECTION('',(1.,0.,0.));
#471=DIRECTION('',(0.,0.,1.));
#472=DIRECTION('',(0.,-1.,7.3320687590421E-17));
#473=DIRECTION('',(0.,0.,-1.));
#474=DIRECTION('',(0.,0.,-1.));
#475=DIRECTION('',(0.,1.,0.));
#476=DIRECTION('',(0.,0.,-1.));
#477=DIRECTION('',(0.,0.,1.));
#478=DIRECTION('',(0.,-1.,0.));
#479=DIRECTION('',(0.,0.,-1.));
#480=DIRECTION('',(0.,1.,0.));
#481=DIRECTION('',(0.,0.,1.));
#482=DIRECTION('',(0.,1.,0.));
#483=DIRECTION('',(0.,0.,1.));
#484=DIRECTION('',(-1.,0.,0.));
#485=DIRECTION('',(0.,0.,-1.));
#486=DIRECTION('',(0.,-1.,0.));
#487=DIRECTION('',(0.,0.,-1.));
#488=DIRECTION('',(0.,1.,0.));
#489=DIRECTION('',(0.,0.,1.));
#490=DIRECTION('',(0.,1.,0.));
#491=DIRECTION('',(0.,0.,1.));
#492=DIRECTION('',(0.,-1.,0.));
#493=DIRECTION('',(0.,0.,-1.));
#494=DIRECTION('',(0.,1.,0.));
#495=DIRECTION('',(0.,0.,-1.));
#496=DIRECTION('',(0.,1.,0.));
#497=DIRECTION('',(0.,0.,-1.));
#498=DIRECTION('',(0.,0.,-1.));
#499=DIRECTION('',(0.,0.,-1.));
#500=DIRECTION('',(0.,1.,0.));
#501=DIRECTION('',(0.,0.,-1.));
#502=DIRECTION('',(0.,-1.,0.));
#503=DIRECTION('',(0.,0.,-1.));
#504=DIRECTION('',(0.,1.,0.));
#505=DIRECTION('',(0.,0.,1.));
#506=DIRECTION('',(0.,1.,0.));
#507=DIRECTION('',(0.,0.,1.));
#508=DIRECTION('',(0.,-1.,0.));
#509=DIRECTION('',(0.,0.,-1.));
#510=DIRECTION('',(0.,1.,0.));
#511=DIRECTION('',(0.,0.,-1.));
#512=DIRECTION('',(0.,1.,0.));
#513=DIRECTION('',(0.,-0.0333148302326285,-0.999444906979155));
#514=DIRECTION('',(0.,0.0333148302326285,-0.999444906979155));
#515=DIRECTION('',(0.,0.,-1.));
#516=DIRECTION('',(0.,1.,0.));
#517=DIRECTION('',(0.,0.,-1.));
#518=DIRECTION('',(0.,-1.,0.));
#519=DIRECTION('',(0.,0.,-1.));
#520=DIRECTION('',(0.,1.,0.));
#521=DIRECTION('',(0.,0.,1.));
#522=DIRECTION('',(0.,1.,0.));
#523=DIRECTION('',(0.,0.,1.));
#524=DIRECTION('',(0.,-1.,0.));
#525=DIRECTION('',(0.,0.,-1.));
#526=DIRECTION('',(0.,1.,0.));
#527=DIRECTION('',(0.,0.,-1.));
#528=DIRECTION('',(0.,1.,0.));
#529=DIRECTION('',(0.,0.,-1.));
#530=DIRECTION('',(0.,0.,-1.));
#531=DIRECTION('',(0.,0.,-1.));
#532=DIRECTION('',(0.,1.,0.));
#533=DIRECTION('',(0.,0.,-1.));
#534=DIRECTION('',(0.,-1.,0.));
#535=DIRECTION('',(0.,0.,-1.));
#536=DIRECTION('',(0.,1.,0.));
#537=DIRECTION('',(0.,0.707106781186547,0.707106781186547));
#538=DIRECTION('',(0.,0.,-1.));
#539=DIRECTION('',(0.,-1.,0.));
#540=DIRECTION('',(0.,-0.707106781186547,0.707106781186547));
#541=DIRECTION('',(0.,0.,-1.));
#542=DIRECTION('',(0.,1.,2.7627797054253E-17));
#543=DIRECTION('',(0.,0.,-1.));
#544=DIRECTION('',(0.,1.,0.));
#545=DIRECTION('',(0.,0.,-1.));
#546=DIRECTION('',(0.,1.,2.7627797054253E-17));
#547=DIRECTION('',(0.,0.,-1.));
#548=DIRECTION('',(0.,1.,0.));
#549=CARTESIAN_POINT('',(0.,0.,0.));
#550=CARTESIAN_POINT('CRP',(-1.524,0.,0.));
#551=CARTESIAN_POINT('',(0.,0.,0.));
#552=CARTESIAN_POINT('',(-1.524,0.,0.));
#553=CARTESIAN_POINT('',(-9.525,0.,8.001));
#554=CARTESIAN_POINT('',(0.,0.,8.001));
#555=CARTESIAN_POINT('',(0.,0.,0.));
#556=CARTESIAN_POINT('',(0.,0.,0.));
#557=CARTESIAN_POINT('',(0.,0.,0.));
#558=CARTESIAN_POINT('',(0.,0.,30.));
#559=CARTESIAN_POINT('',(0.,0.,30.));
#560=CARTESIAN_POINT('',(0.,0.,0.));
#561=CARTESIAN_POINT('',(0.,0.,0.));
#562=CARTESIAN_POINT('',(0.,0.,0.));
#563=CARTESIAN_POINT('',(0.,0.,0.));
#564=CARTESIAN_POINT('',(0.,0.,0.));
#565=CARTESIAN_POINT('',(0.,0.,0.));
#566=CARTESIAN_POINT('',(0.,-1.524,0.));
#567=CARTESIAN_POINT('',(0.,1.524,0.));
#568=CARTESIAN_POINT('',(0.,0.,0.));
#569=CARTESIAN_POINT('',(0.,0.,0.));
#570=CARTESIAN_POINT('',(0.,9.525,8.001));
#571=CARTESIAN_POINT('',(0.,9.525,8.001));
#572=CARTESIAN_POINT('',(0.,-9.525,8.001));
#573=CARTESIAN_POINT('',(0.,-9.525,8.001));
#574=CARTESIAN_POINT('',(0.,0.,8.001));
#575=CARTESIAN_POINT('',(0.,0.,4.0005));
#576=CARTESIAN_POINT('',(0.,0.,8.001));
#577=CARTESIAN_POINT('',(150.,150.,8.001));
#578=CARTESIAN_POINT('',(0.,0.,4.0005));
#579=CARTESIAN_POINT('',(0.,9.525,16.5));
#580=CARTESIAN_POINT('',(0.,9.525,16.5));
#581=CARTESIAN_POINT('',(0.,9.525,8.001));
#582=CARTESIAN_POINT('',(0.,0.,16.5));
#583=CARTESIAN_POINT('',(0.,-9.525,16.5));
#584=CARTESIAN_POINT('',(0.,-9.525,16.5));
#585=CARTESIAN_POINT('',(0.,-9.525,8.001));
#586=CARTESIAN_POINT('',(0.,0.,8.001));
#587=CARTESIAN_POINT('',(0.,0.,53.55));
#588=CARTESIAN_POINT('',(0.,0.,8.001));
#589=CARTESIAN_POINT('',(-150.,150.,8.001));
#590=CARTESIAN_POINT('',(0.,0.,16.5));
#591=CARTESIAN_POINT('',(0.,0.,53.55));
#592=CARTESIAN_POINT('',(0.,0.,16.5));
#593=CARTESIAN_POINT('',(0.,9.27,16.5));
#594=CARTESIAN_POINT('',(0.,-9.27,16.5));
#595=CARTESIAN_POINT('',(0.,0.,16.5));
#596=CARTESIAN_POINT('',(0.,0.,16.5));
#597=CARTESIAN_POINT('',(0.,0.,30.));
#598=CARTESIAN_POINT('',(0.,9.27,30.));
#599=CARTESIAN_POINT('',(0.,-9.27,30.));
#600=CARTESIAN_POINT('',(0.,-9.27,30.));
#601=CARTESIAN_POINT('',(0.,9.27,30.));
#602=CARTESIAN_POINT('',(0.,0.,53.55));
#603=CARTESIAN_POINT('',(0.,0.,30.));
#604=CARTESIAN_POINT('',(0.,0.,53.55));
#605=CARTESIAN_POINT('',(0.,0.,30.));
#606=CARTESIAN_POINT('',(0.,7.,30.));
#607=CARTESIAN_POINT('',(0.,-7.,30.));
#608=CARTESIAN_POINT('',(0.,0.,30.));
#609=CARTESIAN_POINT('',(0.,0.,30.));
#610=CARTESIAN_POINT('',(0.,0.,40.5));
#611=CARTESIAN_POINT('',(0.,6.65,40.5));
#612=CARTESIAN_POINT('',(0.,-6.65,40.5));
#613=CARTESIAN_POINT('',(0.,-6.65,40.5));
#614=CARTESIAN_POINT('',(0.,6.65,40.5));
#615=CARTESIAN_POINT('',(0.,0.,35.25));
#616=CARTESIAN_POINT('',(0.,0.,40.5));
#617=CARTESIAN_POINT('',(0.,0.,35.25));
#618=CARTESIAN_POINT('',(0.,0.,40.5));
#619=CARTESIAN_POINT('',(0.,5.,40.5));
#620=CARTESIAN_POINT('',(0.,-5.,40.5));
#621=CARTESIAN_POINT('',(0.,0.,40.5));
#622=CARTESIAN_POINT('',(0.,0.,40.5));
#623=CARTESIAN_POINT('',(0.,0.,50.25));
#624=CARTESIAN_POINT('',(0.,5.,50.25));
#625=CARTESIAN_POINT('',(0.,-5.,50.25));
#626=CARTESIAN_POINT('',(0.,-5.,50.25));
#627=CARTESIAN_POINT('',(0.,5.,50.25));
#628=CARTESIAN_POINT('',(0.,0.,53.55));
#629=CARTESIAN_POINT('',(0.,0.,50.25));
#630=CARTESIAN_POINT('',(0.,0.,53.55));
#631=CARTESIAN_POINT('',(0.,-4.25,51.));
#632=CARTESIAN_POINT('',(0.,-4.25,51.));
#633=CARTESIAN_POINT('',(0.,0.,51.));
#634=CARTESIAN_POINT('',(0.,4.25,51.));
#635=CARTESIAN_POINT('',(0.,4.25,51.));
#636=CARTESIAN_POINT('',(0.,0.,50.625));
#637=CARTESIAN_POINT('',(0.,0.,51.));
#638=CARTESIAN_POINT('',(0.,0.,50.625));
#639=CARTESIAN_POINT('',(0.,0.,51.));
#640=MECHANICAL_DESIGN_GEOMETRIC_PRESENTATION_REPRESENTATION('',(#340,#341,
#342,#343,#344,#345,#346,#347,#348,#349,#350,#351,#352,#353,#354,#355,#356),
#641);
#641=(
GEOMETRIC_REPRESENTATION_CONTEXT(3)
GLOBAL_UNCERTAINTY_ASSIGNED_CONTEXT((#642))
GLOBAL_UNIT_ASSIGNED_CONTEXT((#648,#644,#643))
REPRESENTATION_CONTEXT('IMX20CH6V0750A45','TOP_LEVEL_ASSEMBLY_PART')
);
#642=UNCERTAINTY_MEASURE_WITH_UNIT(LENGTH_MEASURE(2.E-5),#648,
'DISTANCE_ACCURACY_VALUE','Maximum Tolerance applied to model');
#643=(
NAMED_UNIT(*)
SI_UNIT($,.STERADIAN.)
SOLID_ANGLE_UNIT()
);
#644=(
CONVERSION_BASED_UNIT('DEGREE',#646)
NAMED_UNIT(#645)
PLANE_ANGLE_UNIT()
);
#645=DIMENSIONAL_EXPONENTS(0.,0.,0.,0.,0.,0.,0.);
#646=PLANE_ANGLE_MEASURE_WITH_UNIT(PLANE_ANGLE_MEASURE(0.0174532925),#647);
#647=(
NAMED_UNIT(*)
PLANE_ANGLE_UNIT()
SI_UNIT($,.RADIAN.)
);
#648=(
LENGTH_UNIT()
NAMED_UNIT(*)
SI_UNIT(.MILLI.,.METRE.)
);
ENDSEC;
END-ISO-10303-21;
