ISO-10303-21;
HEADER;
/* Generated by software containing ST-Developer
 * from STEP Tools, Inc. (www.steptools.com) 
 */
/* OPTION: using custom schema-name function */

FILE_DESCRIPTION(
/* description */ (''),
/* implementation_level */ '2;1');

FILE_NAME(
/* name */ 'TAWMN0049_ID0_7500.stp',
/* time_stamp */ '2025-06-11T17:03:17+09:00',
/* author */ (''),
/* organization */ (''),
/* preprocessor_version */ 'ST-DEVELOPER v18.101',
/* originating_system */ 'SIEMENS PLM Software NX 2011',
/* authorisation */ '');

FILE_SCHEMA (('AUTOMOTIVE_DESIGN { 1 0 10303 214 3 1 1 1 }'));
ENDSEC;

DATA;
#10=CONSTRUCTIVE_GEOMETRY_REPRESENTATION_RELATIONSHIP(
'supplemental geometry','',#26,#11);
#11=CONSTRUCTIVE_GEOMETRY_REPRESENTATION('supplemental geometry',(#358,
#359,#360,#361,#362,#363,#364),#606);
#12=GEOMETRICALLY_BOUNDED_WIREFRAME_SHAPE_REPRESENTATION(
'TAWMN0049_ID0_7500-None',(#27),#606);
#13=SHAPE_REPRESENTATION_RELATIONSHIP('None',
'relationship between TAWMN0049_ID0_7500-None and TAWMN0049_ID0_7500-N
one',#26,#15);
#14=SHAPE_REPRESENTATION_RELATIONSHIP('None',
'relationship between TAWMN0049_ID0_7500-None and TAWMN0049_ID0_7500-N
one',#26,#12);
#15=ADVANCED_BREP_SHAPE_REPRESENTATION('TAWMN0049_ID0_7500-None',(#42,#43),
#606);
#16=SHAPE_DEFINITION_REPRESENTATION(#17,#26);
#17=PRODUCT_DEFINITION_SHAPE('','SHAPE FOR TAWMN0049_ID0_7500_ASM.',#18);
#18=PRODUCT_DEFINITION('part definition','',#20,#19);
#19=PRODUCT_DEFINITION_CONTEXT('part definition',#25,'design');
#20=PRODUCT_DEFINITION_FORMATION_WITH_SPECIFIED_SOURCE(' ',' ',#22,
 .NOT_KNOWN.);
#21=PRODUCT_RELATED_PRODUCT_CATEGORY('part','',(#22));
#22=PRODUCT('TAWMN0049_ID0_7500_ASM','TAWMN0049_ID0_7500_ASM',
'NOT SPECIFIED',(#23));
#23=PRODUCT_CONTEXT('',#25,'mechanical');
#24=APPLICATION_PROTOCOL_DEFINITION('international standard',
'automotive_design',2010,#25);
#25=APPLICATION_CONTEXT(
'core data for automotive mechanical design processes');
#26=SHAPE_REPRESENTATION('TAWMN0049_ID0_7500-None',(#357),#606);
#27=GEOMETRIC_CURVE_SET('None',(#521,#285,#286,#287,#288));
#28=TOROIDAL_SURFACE('',#390,12.8056336641,0.4);
#29=TOROIDAL_SURFACE('',#392,12.8056336641,0.4);
#30=TOROIDAL_SURFACE('',#402,9.4,0.4);
#31=TOROIDAL_SURFACE('',#404,9.4,0.4);
#32=SURFACE_STYLE_USAGE(.BOTH.,#34);
#33=SURFACE_STYLE_USAGE(.BOTH.,#35);
#34=SURFACE_SIDE_STYLE('',(#36));
#35=SURFACE_SIDE_STYLE('',(#37));
#36=SURFACE_STYLE_FILL_AREA(#38);
#37=SURFACE_STYLE_FILL_AREA(#39);
#38=FILL_AREA_STYLE('',(#40));
#39=FILL_AREA_STYLE('',(#41));
#40=FILL_AREA_STYLE_COLOUR('',#355);
#41=FILL_AREA_STYLE_COLOUR('',#356);
#42=MANIFOLD_SOLID_BREP('CUT',#44);
#43=MANIFOLD_SOLID_BREP('NOCUT',#45);
#44=CLOSED_SHELL('',(#55,#56,#57,#58,#59));
#45=CLOSED_SHELL('',(#60,#61,#62,#63,#64,#65,#66,#67,#68,#69,#70,#71,#72,
#73));
#46=PLANE('',#373);
#47=PLANE('',#379);
#48=PLANE('',#397);
#49=CYLINDRICAL_SURFACE('',#370,9.525);
#50=CYLINDRICAL_SURFACE('',#372,9.525);
#51=CYLINDRICAL_SURFACE('',#376,12.7);
#52=CYLINDRICAL_SURFACE('',#384,12.7);
#53=CYLINDRICAL_SURFACE('',#399,9.);
#54=CYLINDRICAL_SURFACE('',#405,9.);
#55=ADVANCED_FACE('',(#80),#74,.T.);
#56=ADVANCED_FACE('',(#81),#75,.T.);
#57=ADVANCED_FACE('',(#82),#49,.T.);
#58=ADVANCED_FACE('',(#83),#50,.T.);
#59=ADVANCED_FACE('',(#84),#46,.T.);
#60=ADVANCED_FACE('',(#85),#51,.T.);
#61=ADVANCED_FACE('',(#86),#47,.T.);
#62=ADVANCED_FACE('',(#87),#76,.T.);
#63=ADVANCED_FACE('',(#88),#77,.T.);
#64=ADVANCED_FACE('',(#89),#52,.T.);
#65=ADVANCED_FACE('',(#90),#78,.T.);
#66=ADVANCED_FACE('',(#91),#28,.F.);
#67=ADVANCED_FACE('',(#92),#29,.F.);
#68=ADVANCED_FACE('',(#93),#79,.T.);
#69=ADVANCED_FACE('',(#94),#48,.F.);
#70=ADVANCED_FACE('',(#95),#53,.T.);
#71=ADVANCED_FACE('',(#96),#30,.F.);
#72=ADVANCED_FACE('',(#97),#31,.F.);
#73=ADVANCED_FACE('',(#98),#54,.T.);
#74=CONICAL_SURFACE('',#366,4.857750000003,70.0000971436908);
#75=CONICAL_SURFACE('',#368,4.857750000003,70.0000971436908);
#76=CONICAL_SURFACE('',#380,12.12264973081,30.0000416330103);
#77=CONICAL_SURFACE('',#382,12.12264973081,30.0000416330103);
#78=CONICAL_SURFACE('',#387,10.77171602918,7.00000971436908);
#79=CONICAL_SURFACE('',#394,10.77171602918,7.00000971436908);
#80=FACE_OUTER_BOUND('',#99,.T.);
#81=FACE_OUTER_BOUND('',#100,.T.);
#82=FACE_OUTER_BOUND('',#101,.T.);
#83=FACE_OUTER_BOUND('',#102,.T.);
#84=FACE_OUTER_BOUND('',#103,.T.);
#85=FACE_OUTER_BOUND('',#104,.T.);
#86=FACE_OUTER_BOUND('',#105,.T.);
#87=FACE_OUTER_BOUND('',#106,.T.);
#88=FACE_OUTER_BOUND('',#107,.T.);
#89=FACE_OUTER_BOUND('',#108,.T.);
#90=FACE_OUTER_BOUND('',#109,.T.);
#91=FACE_OUTER_BOUND('',#110,.T.);
#92=FACE_OUTER_BOUND('',#111,.T.);
#93=FACE_OUTER_BOUND('',#112,.T.);
#94=FACE_OUTER_BOUND('',#113,.T.);
#95=FACE_OUTER_BOUND('',#114,.T.);
#96=FACE_OUTER_BOUND('',#115,.T.);
#97=FACE_OUTER_BOUND('',#116,.T.);
#98=FACE_OUTER_BOUND('',#117,.T.);
#99=EDGE_LOOP('',(#118,#119,#120));
#100=EDGE_LOOP('',(#121,#122,#123));
#101=EDGE_LOOP('',(#124,#125,#126,#127));
#102=EDGE_LOOP('',(#128,#129,#130,#131));
#103=EDGE_LOOP('',(#132,#133));
#104=EDGE_LOOP('',(#134,#135,#136,#137));
#105=EDGE_LOOP('',(#138,#139));
#106=EDGE_LOOP('',(#140,#141,#142,#143));
#107=EDGE_LOOP('',(#144,#145,#146,#147));
#108=EDGE_LOOP('',(#148,#149,#150,#151));
#109=EDGE_LOOP('',(#152,#153,#154,#155));
#110=EDGE_LOOP('',(#156,#157,#158,#159));
#111=EDGE_LOOP('',(#160,#161,#162,#163));
#112=EDGE_LOOP('',(#164,#165,#166,#167));
#113=EDGE_LOOP('',(#168,#169));
#114=EDGE_LOOP('',(#170,#171,#172,#173));
#115=EDGE_LOOP('',(#174,#175,#176,#177));
#116=EDGE_LOOP('',(#178,#179,#180,#181));
#117=EDGE_LOOP('',(#182,#183,#184,#185));
#118=ORIENTED_EDGE('',*,*,#205,.T.);
#119=ORIENTED_EDGE('',*,*,#206,.F.);
#120=ORIENTED_EDGE('',*,*,#207,.T.);
#121=ORIENTED_EDGE('',*,*,#207,.F.);
#122=ORIENTED_EDGE('',*,*,#206,.T.);
#123=ORIENTED_EDGE('',*,*,#208,.T.);
#124=ORIENTED_EDGE('',*,*,#208,.F.);
#125=ORIENTED_EDGE('',*,*,#209,.F.);
#126=ORIENTED_EDGE('',*,*,#210,.F.);
#127=ORIENTED_EDGE('',*,*,#211,.T.);
#128=ORIENTED_EDGE('',*,*,#205,.F.);
#129=ORIENTED_EDGE('',*,*,#211,.F.);
#130=ORIENTED_EDGE('',*,*,#212,.F.);
#131=ORIENTED_EDGE('',*,*,#209,.T.);
#132=ORIENTED_EDGE('',*,*,#210,.T.);
#133=ORIENTED_EDGE('',*,*,#212,.T.);
#134=ORIENTED_EDGE('',*,*,#213,.T.);
#135=ORIENTED_EDGE('',*,*,#214,.F.);
#136=ORIENTED_EDGE('',*,*,#215,.F.);
#137=ORIENTED_EDGE('',*,*,#216,.F.);
#138=ORIENTED_EDGE('',*,*,#217,.T.);
#139=ORIENTED_EDGE('',*,*,#218,.T.);
#140=ORIENTED_EDGE('',*,*,#216,.T.);
#141=ORIENTED_EDGE('',*,*,#219,.T.);
#142=ORIENTED_EDGE('',*,*,#218,.F.);
#143=ORIENTED_EDGE('',*,*,#220,.F.);
#144=ORIENTED_EDGE('',*,*,#217,.F.);
#145=ORIENTED_EDGE('',*,*,#219,.F.);
#146=ORIENTED_EDGE('',*,*,#221,.T.);
#147=ORIENTED_EDGE('',*,*,#220,.T.);
#148=ORIENTED_EDGE('',*,*,#215,.T.);
#149=ORIENTED_EDGE('',*,*,#222,.F.);
#150=ORIENTED_EDGE('',*,*,#213,.F.);
#151=ORIENTED_EDGE('',*,*,#221,.F.);
#152=ORIENTED_EDGE('',*,*,#223,.F.);
#153=ORIENTED_EDGE('',*,*,#224,.F.);
#154=ORIENTED_EDGE('',*,*,#225,.T.);
#155=ORIENTED_EDGE('',*,*,#226,.F.);
#156=ORIENTED_EDGE('',*,*,#227,.T.);
#157=ORIENTED_EDGE('',*,*,#222,.T.);
#158=ORIENTED_EDGE('',*,*,#228,.F.);
#159=ORIENTED_EDGE('',*,*,#226,.T.);
#160=ORIENTED_EDGE('',*,*,#228,.T.);
#161=ORIENTED_EDGE('',*,*,#214,.T.);
#162=ORIENTED_EDGE('',*,*,#227,.F.);
#163=ORIENTED_EDGE('',*,*,#229,.T.);
#164=ORIENTED_EDGE('',*,*,#225,.F.);
#165=ORIENTED_EDGE('',*,*,#230,.F.);
#166=ORIENTED_EDGE('',*,*,#223,.T.);
#167=ORIENTED_EDGE('',*,*,#229,.F.);
#168=ORIENTED_EDGE('',*,*,#231,.T.);
#169=ORIENTED_EDGE('',*,*,#232,.T.);
#170=ORIENTED_EDGE('',*,*,#233,.T.);
#171=ORIENTED_EDGE('',*,*,#231,.F.);
#172=ORIENTED_EDGE('',*,*,#234,.F.);
#173=ORIENTED_EDGE('',*,*,#235,.F.);
#174=ORIENTED_EDGE('',*,*,#236,.F.);
#175=ORIENTED_EDGE('',*,*,#230,.T.);
#176=ORIENTED_EDGE('',*,*,#237,.T.);
#177=ORIENTED_EDGE('',*,*,#235,.T.);
#178=ORIENTED_EDGE('',*,*,#237,.F.);
#179=ORIENTED_EDGE('',*,*,#224,.T.);
#180=ORIENTED_EDGE('',*,*,#236,.T.);
#181=ORIENTED_EDGE('',*,*,#238,.T.);
#182=ORIENTED_EDGE('',*,*,#234,.T.);
#183=ORIENTED_EDGE('',*,*,#232,.F.);
#184=ORIENTED_EDGE('',*,*,#233,.F.);
#185=ORIENTED_EDGE('',*,*,#238,.F.);
#186=VERTEX_POINT('',#534);
#187=VERTEX_POINT('',#535);
#188=VERTEX_POINT('',#537);
#189=VERTEX_POINT('',#543);
#190=VERTEX_POINT('',#545);
#191=VERTEX_POINT('',#552);
#192=VERTEX_POINT('',#553);
#193=VERTEX_POINT('',#555);
#194=VERTEX_POINT('',#557);
#195=VERTEX_POINT('',#561);
#196=VERTEX_POINT('',#562);
#197=VERTEX_POINT('',#573);
#198=VERTEX_POINT('',#574);
#199=VERTEX_POINT('',#576);
#200=VERTEX_POINT('',#578);
#201=VERTEX_POINT('',#589);
#202=VERTEX_POINT('',#590);
#203=VERTEX_POINT('',#594);
#204=VERTEX_POINT('',#596);
#205=EDGE_CURVE('',#186,#187,#239,.T.);
#206=EDGE_CURVE('',#188,#187,#293,.T.);
#207=EDGE_CURVE('',#188,#186,#294,.T.);
#208=EDGE_CURVE('',#187,#186,#240,.T.);
#209=EDGE_CURVE('',#189,#187,#295,.T.);
#210=EDGE_CURVE('',#190,#189,#241,.T.);
#211=EDGE_CURVE('',#190,#186,#296,.T.);
#212=EDGE_CURVE('',#189,#190,#242,.T.);
#213=EDGE_CURVE('',#191,#192,#297,.T.);
#214=EDGE_CURVE('',#193,#192,#243,.T.);
#215=EDGE_CURVE('',#194,#193,#298,.T.);
#216=EDGE_CURVE('',#191,#194,#244,.T.);
#217=EDGE_CURVE('',#195,#196,#245,.T.);
#218=EDGE_CURVE('',#196,#195,#246,.T.);
#219=EDGE_CURVE('',#194,#195,#299,.T.);
#220=EDGE_CURVE('',#191,#196,#300,.T.);
#221=EDGE_CURVE('',#194,#191,#247,.T.);
#222=EDGE_CURVE('',#192,#193,#248,.T.);
#223=EDGE_CURVE('',#197,#198,#301,.T.);
#224=EDGE_CURVE('',#199,#197,#249,.T.);
#225=EDGE_CURVE('',#199,#200,#302,.T.);
#226=EDGE_CURVE('',#198,#200,#250,.T.);
#227=EDGE_CURVE('',#200,#192,#251,.T.);
#228=EDGE_CURVE('',#198,#193,#252,.T.);
#229=EDGE_CURVE('',#200,#198,#253,.T.);
#230=EDGE_CURVE('',#197,#199,#254,.T.);
#231=EDGE_CURVE('',#201,#202,#255,.T.);
#232=EDGE_CURVE('',#202,#201,#256,.T.);
#233=EDGE_CURVE('',#203,#202,#303,.T.);
#234=EDGE_CURVE('',#204,#201,#304,.T.);
#235=EDGE_CURVE('',#203,#204,#257,.T.);
#236=EDGE_CURVE('',#197,#204,#258,.T.);
#237=EDGE_CURVE('',#199,#203,#259,.T.);
#238=EDGE_CURVE('',#204,#203,#260,.T.);
#239=CIRCLE('',#365,9.525000000007);
#240=CIRCLE('',#367,9.525000000007);
#241=CIRCLE('',#369,9.525);
#242=CIRCLE('',#371,9.525);
#243=CIRCLE('',#374,12.7);
#244=CIRCLE('',#375,12.7);
#245=CIRCLE('',#377,11.54529946162);
#246=CIRCLE('',#378,11.54529946162);
#247=CIRCLE('',#381,12.7);
#248=CIRCLE('',#383,12.7);
#249=CIRCLE('',#385,9.134816854917);
#250=CIRCLE('',#386,12.40861520344);
#251=CIRCLE('',#388,0.4);
#252=CIRCLE('',#389,0.4);
#253=CIRCLE('',#391,12.40861520344);
#254=CIRCLE('',#393,9.134816854906);
#255=CIRCLE('',#395,9.);
#256=CIRCLE('',#396,9.);
#257=CIRCLE('',#398,9.);
#258=CIRCLE('',#400,0.4);
#259=CIRCLE('',#401,0.4);
#260=CIRCLE('',#403,9.);
#261=CURVE_STYLE('',#274,POSITIVE_LENGTH_MEASURE(0.13),#272);
#262=CURVE_STYLE('',#275,POSITIVE_LENGTH_MEASURE(0.13),#272);
#263=CURVE_STYLE('',#276,POSITIVE_LENGTH_MEASURE(0.13),#272);
#264=CURVE_STYLE('',#277,POSITIVE_LENGTH_MEASURE(0.13),#272);
#265=CURVE_STYLE('',#278,POSITIVE_LENGTH_MEASURE(0.13),#354);
#266=CURVE_STYLE('',#279,POSITIVE_LENGTH_MEASURE(0.13),#354);
#267=CURVE_STYLE('',#280,POSITIVE_LENGTH_MEASURE(0.13),#273);
#268=CURVE_STYLE('',#281,POSITIVE_LENGTH_MEASURE(0.13),#273);
#269=CURVE_STYLE('',#282,POSITIVE_LENGTH_MEASURE(0.13),#273);
#270=CURVE_STYLE('',#283,POSITIVE_LENGTH_MEASURE(0.13),#354);
#271=CURVE_STYLE('',#284,POSITIVE_LENGTH_MEASURE(0.13),#354);
#272=DRAUGHTING_PRE_DEFINED_COLOUR('blue');
#273=DRAUGHTING_PRE_DEFINED_COLOUR('yellow');
#274=DRAUGHTING_PRE_DEFINED_CURVE_FONT('continuous');
#275=DRAUGHTING_PRE_DEFINED_CURVE_FONT('continuous');
#276=DRAUGHTING_PRE_DEFINED_CURVE_FONT('continuous');
#277=DRAUGHTING_PRE_DEFINED_CURVE_FONT('continuous');
#278=DRAUGHTING_PRE_DEFINED_CURVE_FONT('continuous');
#279=DRAUGHTING_PRE_DEFINED_CURVE_FONT('continuous');
#280=DRAUGHTING_PRE_DEFINED_CURVE_FONT('continuous');
#281=DRAUGHTING_PRE_DEFINED_CURVE_FONT('continuous');
#282=DRAUGHTING_PRE_DEFINED_CURVE_FONT('continuous');
#283=DRAUGHTING_PRE_DEFINED_CURVE_FONT('continuous');
#284=DRAUGHTING_PRE_DEFINED_CURVE_FONT('continuous');
#285=TRIMMED_CURVE('',#289,(PARAMETER_VALUE(0.)),(PARAMETER_VALUE(1.)),
 .T.,.PARAMETER.);
#286=TRIMMED_CURVE('',#290,(PARAMETER_VALUE(0.)),(PARAMETER_VALUE(1.)),
 .T.,.PARAMETER.);
#287=TRIMMED_CURVE('',#291,(PARAMETER_VALUE(0.)),(PARAMETER_VALUE(1.)),
 .T.,.PARAMETER.);
#288=TRIMMED_CURVE('',#292,(PARAMETER_VALUE(0.)),(PARAMETER_VALUE(1.)),
 .T.,.PARAMETER.);
#289=LINE('',#522,#305);
#290=LINE('',#523,#306);
#291=LINE('',#524,#307);
#292=LINE('',#525,#308);
#293=LINE('',#536,#309);
#294=LINE('',#538,#310);
#295=LINE('',#542,#311);
#296=LINE('',#546,#312);
#297=LINE('',#551,#313);
#298=LINE('',#556,#314);
#299=LINE('',#565,#315);
#300=LINE('',#566,#316);
#301=LINE('',#572,#317);
#302=LINE('',#577,#318);
#303=LINE('',#593,#319);
#304=LINE('',#595,#320);
#305=VECTOR('',#408,9.525);
#306=VECTOR('',#409,12.66161648139);
#307=VECTOR('',#410,10.13629328283);
#308=VECTOR('',#411,9.19479999999999);
#309=VECTOR('',#428,1.);
#310=VECTOR('',#429,1.);
#311=VECTOR('',#436,1.);
#312=VECTOR('',#439,1.);
#313=VECTOR('',#448,1.);
#314=VECTOR('',#451,1.);
#315=VECTOR('',#462,1.);
#316=VECTOR('',#463,1.);
#317=VECTOR('',#474,1.);
#318=VECTOR('',#477,1.);
#319=VECTOR('',#502,1.);
#320=VECTOR('',#503,1.);
#321=PRESENTATION_LAYER_ASSIGNMENT('1','Layer 1',(#521,#358,#359,#360,#361,
#363,#364,#42,#43));
#322=PRESENTATION_LAYER_ASSIGNMENT('2','Layer 2',(#285,#286,#287,#288,#362));
#323=STYLED_ITEM('',(#337),#521);
#324=STYLED_ITEM('',(#338),#285);
#325=STYLED_ITEM('',(#339),#286);
#326=STYLED_ITEM('',(#340),#287);
#327=STYLED_ITEM('',(#341),#288);
#328=STYLED_ITEM('',(#342),#358);
#329=STYLED_ITEM('',(#343),#359);
#330=STYLED_ITEM('',(#344),#360);
#331=STYLED_ITEM('',(#345),#361);
#332=STYLED_ITEM('',(#346),#362);
#333=STYLED_ITEM('',(#347),#363);
#334=STYLED_ITEM('',(#348),#364);
#335=STYLED_ITEM('',(#349),#42);
#336=STYLED_ITEM('',(#350),#43);
#337=PRESENTATION_STYLE_ASSIGNMENT((#351));
#338=PRESENTATION_STYLE_ASSIGNMENT((#261));
#339=PRESENTATION_STYLE_ASSIGNMENT((#262));
#340=PRESENTATION_STYLE_ASSIGNMENT((#263));
#341=PRESENTATION_STYLE_ASSIGNMENT((#264));
#342=PRESENTATION_STYLE_ASSIGNMENT((#265));
#343=PRESENTATION_STYLE_ASSIGNMENT((#266));
#344=PRESENTATION_STYLE_ASSIGNMENT((#267));
#345=PRESENTATION_STYLE_ASSIGNMENT((#268));
#346=PRESENTATION_STYLE_ASSIGNMENT((#269));
#347=PRESENTATION_STYLE_ASSIGNMENT((#270));
#348=PRESENTATION_STYLE_ASSIGNMENT((#271));
#349=PRESENTATION_STYLE_ASSIGNMENT((#32));
#350=PRESENTATION_STYLE_ASSIGNMENT((#33));
#351=POINT_STYLE('',#352,POSITIVE_LENGTH_MEASURE(3.),#353);
#352=PRE_DEFINED_POINT_MARKER_SYMBOL('plus');
#353=COLOUR_RGB('Medium Royal',0.301960784313725,0.427450980392157,0.701960784313725);
#354=COLOUR_RGB('Medium Maroon',0.6,0.4,0.4);
#355=COLOUR_RGB('light gray',0.8,0.8,0.8);
#356=COLOUR_RGB('medium gray',0.490196078431373,0.490196078431373,0.490196078431373);
#357=AXIS2_PLACEMENT_3D('',#520,#406,#407);
#358=AXIS2_PLACEMENT_3D('',#526,#412,#413);
#359=AXIS2_PLACEMENT_3D('',#527,#414,#415);
#360=AXIS2_PLACEMENT_3D('MCS',#528,#416,#417);
#361=AXIS2_PLACEMENT_3D('CIP',#529,#418,#419);
#362=AXIS2_PLACEMENT_3D('PCS',#530,#420,#421);
#363=AXIS2_PLACEMENT_3D('',#531,#422,#423);
#364=AXIS2_PLACEMENT_3D('',#532,#424,#425);
#365=AXIS2_PLACEMENT_3D('',#533,#426,#427);
#366=AXIS2_PLACEMENT_3D('',#539,#430,#431);
#367=AXIS2_PLACEMENT_3D('',#540,#432,#433);
#368=AXIS2_PLACEMENT_3D('',#541,#434,#435);
#369=AXIS2_PLACEMENT_3D('',#544,#437,#438);
#370=AXIS2_PLACEMENT_3D('',#547,#440,#441);
#371=AXIS2_PLACEMENT_3D('',#548,#442,#443);
#372=AXIS2_PLACEMENT_3D('',#549,#444,#445);
#373=AXIS2_PLACEMENT_3D('',#550,#446,#447);
#374=AXIS2_PLACEMENT_3D('',#554,#449,#450);
#375=AXIS2_PLACEMENT_3D('',#558,#452,#453);
#376=AXIS2_PLACEMENT_3D('',#559,#454,#455);
#377=AXIS2_PLACEMENT_3D('',#560,#456,#457);
#378=AXIS2_PLACEMENT_3D('',#563,#458,#459);
#379=AXIS2_PLACEMENT_3D('',#564,#460,#461);
#380=AXIS2_PLACEMENT_3D('',#567,#464,#465);
#381=AXIS2_PLACEMENT_3D('',#568,#466,#467);
#382=AXIS2_PLACEMENT_3D('',#569,#468,#469);
#383=AXIS2_PLACEMENT_3D('',#570,#470,#471);
#384=AXIS2_PLACEMENT_3D('',#571,#472,#473);
#385=AXIS2_PLACEMENT_3D('',#575,#475,#476);
#386=AXIS2_PLACEMENT_3D('',#579,#478,#479);
#387=AXIS2_PLACEMENT_3D('',#580,#480,#481);
#388=AXIS2_PLACEMENT_3D('',#581,#482,#483);
#389=AXIS2_PLACEMENT_3D('',#582,#484,#485);
#390=AXIS2_PLACEMENT_3D('',#583,#486,#487);
#391=AXIS2_PLACEMENT_3D('',#584,#488,#489);
#392=AXIS2_PLACEMENT_3D('',#585,#490,#491);
#393=AXIS2_PLACEMENT_3D('',#586,#492,#493);
#394=AXIS2_PLACEMENT_3D('',#587,#494,#495);
#395=AXIS2_PLACEMENT_3D('',#588,#496,#497);
#396=AXIS2_PLACEMENT_3D('',#591,#498,#499);
#397=AXIS2_PLACEMENT_3D('',#592,#500,#501);
#398=AXIS2_PLACEMENT_3D('',#597,#504,#505);
#399=AXIS2_PLACEMENT_3D('',#598,#506,#507);
#400=AXIS2_PLACEMENT_3D('',#599,#508,#509);
#401=AXIS2_PLACEMENT_3D('',#600,#510,#511);
#402=AXIS2_PLACEMENT_3D('',#601,#512,#513);
#403=AXIS2_PLACEMENT_3D('',#602,#514,#515);
#404=AXIS2_PLACEMENT_3D('',#603,#516,#517);
#405=AXIS2_PLACEMENT_3D('',#604,#518,#519);
#406=DIRECTION('',(0.,0.,1.));
#407=DIRECTION('',(1.,0.,0.));
#408=DIRECTION('',(1.,0.,0.));
#409=DIRECTION('',(0.,0.,-1.));
#410=DIRECTION('',(-0.939692620785897,0.,0.3420201433257));
#411=DIRECTION('',(0.,0.,1.));
#412=DIRECTION('',(0.,0.,1.));
#413=DIRECTION('',(1.,0.,0.));
#414=DIRECTION('',(0.,0.,1.));
#415=DIRECTION('',(1.,0.,0.));
#416=DIRECTION('',(0.,0.,1.));
#417=DIRECTION('',(1.,0.,0.));
#418=DIRECTION('',(0.,0.,1.));
#419=DIRECTION('',(1.,0.,0.));
#420=DIRECTION('',(0.,0.,1.));
#421=DIRECTION('',(1.,0.,0.));
#422=DIRECTION('',(0.,0.,1.));
#423=DIRECTION('',(1.,0.,0.));
#424=DIRECTION('',(0.,0.,1.));
#425=DIRECTION('',(1.,0.,0.));
#426=DIRECTION('',(0.,0.,-1.));
#427=DIRECTION('',(1.,0.,0.));
#428=DIRECTION('',(-0.939692620785573,0.,0.34202014332659));
#429=DIRECTION('',(0.939692620785573,0.,0.34202014332659));
#430=DIRECTION('',(0.,0.,1.));
#431=DIRECTION('',(1.,0.,1.00843203112485E-17));
#432=DIRECTION('',(0.,0.,-1.));
#433=DIRECTION('',(-1.,0.,0.));
#434=DIRECTION('',(0.,0.,1.));
#435=DIRECTION('',(1.,0.,1.00843203112485E-17));
#436=DIRECTION('',(-3.678365404592E-13,0.,-1.));
#437=DIRECTION('',(0.,0.,1.));
#438=DIRECTION('',(1.,0.,0.));
#439=DIRECTION('',(3.678365404592E-13,0.,-1.));
#440=DIRECTION('',(0.,0.,-1.));
#441=DIRECTION('',(-1.,0.,0.));
#442=DIRECTION('',(0.,0.,1.));
#443=DIRECTION('',(-1.,0.,0.));
#444=DIRECTION('',(0.,0.,-1.));
#445=DIRECTION('',(-1.,0.,0.));
#446=DIRECTION('',(0.,0.,1.));
#447=DIRECTION('',(-1.,0.,0.));
#448=DIRECTION('',(0.,0.,-1.));
#449=DIRECTION('',(0.,0.,-1.));
#450=DIRECTION('',(-1.,0.,0.));
#451=DIRECTION('',(0.,0.,-1.));
#452=DIRECTION('',(0.,0.,1.));
#453=DIRECTION('',(1.,0.,0.));
#454=DIRECTION('',(0.,0.,1.));
#455=DIRECTION('',(-1.,0.,0.));
#456=DIRECTION('',(0.,0.,1.));
#457=DIRECTION('',(-1.,0.,0.));
#458=DIRECTION('',(0.,0.,1.));
#459=DIRECTION('',(1.,0.,0.));
#460=DIRECTION('',(0.,0.,1.));
#461=DIRECTION('',(-1.,0.,0.));
#462=DIRECTION('',(0.500000000000092,0.,0.866025403784386));
#463=DIRECTION('',(-0.500000000000092,0.,0.866025403784386));
#464=DIRECTION('',(0.,0.,-1.));
#465=DIRECTION('',(1.,0.,-7.65136697511846E-17));
#466=DIRECTION('',(0.,0.,1.));
#467=DIRECTION('',(-1.,0.,0.));
#468=DIRECTION('',(0.,0.,-1.));
#469=DIRECTION('',(1.,0.,-7.65136697511846E-17));
#470=DIRECTION('',(0.,0.,-1.));
#471=DIRECTION('',(1.,0.,0.));
#472=DIRECTION('',(0.,0.,1.));
#473=DIRECTION('',(-1.,0.,0.));
#474=DIRECTION('',(-0.121869343405202,0.,0.992546151641315));
#475=DIRECTION('',(0.,0.,-1.));
#476=DIRECTION('',(1.,0.,0.));
#477=DIRECTION('',(0.121869343405202,0.,0.992546151641315));
#478=DIRECTION('',(0.,0.,1.));
#479=DIRECTION('',(-1.,0.,0.));
#480=DIRECTION('',(0.,0.,1.));
#481=DIRECTION('',(-1.,0.,-1.03909529700671E-16));
#482=DIRECTION('',(0.,1.,0.));
#483=DIRECTION('',(-0.264084160249991,0.,0.964499640386173));
#484=DIRECTION('',(0.,-1.,0.));
#485=DIRECTION('',(0.264084160249991,0.,0.964499640386173));
#486=DIRECTION('',(0.,0.,1.));
#487=DIRECTION('',(0.999999999880276,1.54740817136096E-5,0.));
#488=DIRECTION('',(0.,0.,1.));
#489=DIRECTION('',(1.,0.,0.));
#490=DIRECTION('',(0.,0.,1.));
#491=DIRECTION('',(-0.99999999987706,-1.56805845176294E-5,0.));
#492=DIRECTION('',(0.,0.,-1.));
#493=DIRECTION('',(-1.,0.,0.));
#494=DIRECTION('',(0.,0.,1.));
#495=DIRECTION('',(-1.,0.,1.55864294551007E-16));
#496=DIRECTION('',(0.,0.,-1.));
#497=DIRECTION('',(-1.,0.,0.));
#498=DIRECTION('',(0.,0.,-1.));
#499=DIRECTION('',(1.,0.,0.));
#500=DIRECTION('',(0.,0.,1.));
#501=DIRECTION('',(0.,-1.,0.));
#502=DIRECTION('',(0.,0.,-1.));
#503=DIRECTION('',(0.,0.,-1.));
#504=DIRECTION('',(0.,0.,1.));
#505=DIRECTION('',(1.,0.,0.));
#506=DIRECTION('',(0.,0.,1.));
#507=DIRECTION('',(-1.,0.,0.));
#508=DIRECTION('',(0.,1.,0.));
#509=DIRECTION('',(0.66295786270799,0.,0.748656711900483));
#510=DIRECTION('',(0.,-1.,0.));
#511=DIRECTION('',(-0.66295786273578,0.,0.748656711875885));
#512=DIRECTION('',(0.,0.,1.));
#513=DIRECTION('',(-0.999999999774662,-2.12291556524992E-5,0.));
#514=DIRECTION('',(0.,0.,1.));
#515=DIRECTION('',(-1.,0.,0.));
#516=DIRECTION('',(0.,0.,1.));
#517=DIRECTION('',(0.999999999780716,2.09420195021103E-5,0.));
#518=DIRECTION('',(0.,0.,1.));
#519=DIRECTION('',(-1.,0.,0.));
#520=CARTESIAN_POINT('',(0.,0.,0.));
#521=CARTESIAN_POINT('',(-9.525,0.,-162.5747589315));
#522=CARTESIAN_POINT('',(-9.525,0.,-153.3799589315));
#523=CARTESIAN_POINT('',(0.,0.,-153.3799589315));
#524=CARTESIAN_POINT('',(0.,0.,-166.0415754129));
#525=CARTESIAN_POINT('',(-9.525,0.,-162.5747589315));
#526=CARTESIAN_POINT('',(0.,0.,-28.55));
#527=CARTESIAN_POINT('',(0.,0.,-28.55));
#528=CARTESIAN_POINT('',(0.,0.,-28.55));
#529=CARTESIAN_POINT('',(0.,0.,-166.041575413));
#530=CARTESIAN_POINT('',(0.,0.,0.));
#531=CARTESIAN_POINT('',(0.,0.,-28.55));
#532=CARTESIAN_POINT('',(0.,0.,-28.55));
#533=CARTESIAN_POINT('',(0.,0.,-162.5747589315));
#534=CARTESIAN_POINT('',(9.525000000003,0.,-162.5747589315));
#535=CARTESIAN_POINT('',(-9.525000000007,0.,-162.5747589315));
#536=CARTESIAN_POINT('',(0.,0.,-166.0415754129));
#537=CARTESIAN_POINT('',(0.,0.,-166.0415754129));
#538=CARTESIAN_POINT('',(0.,0.,-166.0415754129));
#539=CARTESIAN_POINT('',(0.,0.,-164.2734990074));
#540=CARTESIAN_POINT('',(0.,0.,-162.5747589315));
#541=CARTESIAN_POINT('',(0.,0.,-164.2734990074));
#542=CARTESIAN_POINT('',(-9.525,0.,-153.3799589315));
#543=CARTESIAN_POINT('',(-9.525,0.,-153.3799589315));
#544=CARTESIAN_POINT('',(0.,0.,-153.3799589315));
#545=CARTESIAN_POINT('',(9.525,0.,-153.3799589315));
#546=CARTESIAN_POINT('',(9.525,0.,-153.3799589315));
#547=CARTESIAN_POINT('',(0.,0.,-21.675421229356));
#548=CARTESIAN_POINT('',(0.,0.,-153.3799589315));
#549=CARTESIAN_POINT('',(0.,0.,-21.675421229356));
#550=CARTESIAN_POINT('',(0.,0.,-153.3799589315));
#551=CARTESIAN_POINT('',(12.7,-3.047141932027E-14,-28.5500000012305));
#552=CARTESIAN_POINT('',(12.7,-1.84751003302E-14,26.65));
#553=CARTESIAN_POINT('',(12.7,-1.283516736511E-14,-28.5500000012355));
#554=CARTESIAN_POINT('',(0.,0.,-28.5500000012355));
#555=CARTESIAN_POINT('',(-12.7,4.0769827427E-14,-28.5500000012255));
#556=CARTESIAN_POINT('',(-12.7,2.201152664889E-14,-28.5500000012305));
#557=CARTESIAN_POINT('',(-12.7,0.,26.65));
#558=CARTESIAN_POINT('',(0.,0.,26.65));
#559=CARTESIAN_POINT('',(0.,0.,-209.91));
#560=CARTESIAN_POINT('',(0.,0.,28.65));
#561=CARTESIAN_POINT('',(-11.54529946162,0.,28.65));
#562=CARTESIAN_POINT('',(11.54529946162,0.,28.65));
#563=CARTESIAN_POINT('',(0.,0.,28.65));
#564=CARTESIAN_POINT('',(0.,0.,28.65));
#565=CARTESIAN_POINT('',(-11.54529946162,0.,28.65));
#566=CARTESIAN_POINT('',(11.54529946162,0.,28.65));
#567=CARTESIAN_POINT('',(0.,0.,27.65));
#568=CARTESIAN_POINT('',(0.,0.,26.65));
#569=CARTESIAN_POINT('',(0.,0.,27.65));
#570=CARTESIAN_POINT('',(0.,0.,-28.5500000012255));
#571=CARTESIAN_POINT('',(0.,0.,-209.91));
#572=CARTESIAN_POINT('',(-9.134816854914,1.349207564275E-14,-55.55000000577));
#573=CARTESIAN_POINT('',(-9.134816854917,2.752052308674E-14,-55.55000000573));
#574=CARTESIAN_POINT('',(-12.40861520344,0.,-28.8870521200216));
#575=CARTESIAN_POINT('',(0.,0.,-55.55000000573));
#576=CARTESIAN_POINT('',(9.134816854906,-1.328871321988E-14,-55.55000000581));
#577=CARTESIAN_POINT('',(9.134816854914,-1.552041946329E-14,-55.55000000577));
#578=CARTESIAN_POINT('',(12.40861520344,-2.35617455732E-14,-28.8870521200216));
#579=CARTESIAN_POINT('',(0.,0.,-28.8870521200216));
#580=CARTESIAN_POINT('',(0.,0.,-42.21852606288));
#581=CARTESIAN_POINT('',(12.8056336641,-4.296479079631E-14,-28.93579985739));
#582=CARTESIAN_POINT('',(-12.8056336641,4.110893483261E-14,-28.93579985738));
#583=CARTESIAN_POINT('',(0.,0.,-28.93579985738));
#584=CARTESIAN_POINT('',(0.,0.,-28.8870521200316));
#585=CARTESIAN_POINT('',(0.,0.,-28.93579985739));
#586=CARTESIAN_POINT('',(0.,0.,-55.55000000581));
#587=CARTESIAN_POINT('',(0.,0.,-42.21852606292));
#588=CARTESIAN_POINT('',(0.,0.,-153.39));
#589=CARTESIAN_POINT('',(-9.,0.,-153.39));
#590=CARTESIAN_POINT('',(9.,0.,-153.39));
#591=CARTESIAN_POINT('',(0.,0.,-153.39));
#592=CARTESIAN_POINT('',(0.,0.,-153.39));
#593=CARTESIAN_POINT('',(9.,0.,-153.39));
#594=CARTESIAN_POINT('',(9.,0.,-55.84946269049));
#595=CARTESIAN_POINT('',(-9.,0.,-153.39));
#596=CARTESIAN_POINT('',(-9.,0.,-55.84946269049));
#597=CARTESIAN_POINT('',(0.,0.,-55.84946269056));
#598=CARTESIAN_POINT('',(0.,0.,-209.91));
#599=CARTESIAN_POINT('',(-9.4,2.831944206048E-14,-55.84946269049));
#600=CARTESIAN_POINT('',(9.4,-1.95876843391E-14,-55.84946269056));
#601=CARTESIAN_POINT('',(0.,0.,-55.84946269056));
#602=CARTESIAN_POINT('',(0.,0.,-55.84946269049));
#603=CARTESIAN_POINT('',(0.,0.,-55.84946269049));
#604=CARTESIAN_POINT('',(0.,0.,-209.91));
#605=MECHANICAL_DESIGN_GEOMETRIC_PRESENTATION_REPRESENTATION('',(#323,#324,
#325,#326,#327,#328,#329,#330,#331,#332,#333,#334,#335,#336),#606);
#606=(
GEOMETRIC_REPRESENTATION_CONTEXT(3)
GLOBAL_UNCERTAINTY_ASSIGNED_CONTEXT((#607))
GLOBAL_UNIT_ASSIGNED_CONTEXT((#613,#609,#608))
REPRESENTATION_CONTEXT('TAWMN0049_ID0_7500','TOP_LEVEL_ASSEMBLY_PART')
);
#607=UNCERTAINTY_MEASURE_WITH_UNIT(LENGTH_MEASURE(0.001),#613,
'DISTANCE_ACCURACY_VALUE','Maximum Tolerance applied to model');
#608=(
NAMED_UNIT(*)
SI_UNIT($,.STERADIAN.)
SOLID_ANGLE_UNIT()
);
#609=(
CONVERSION_BASED_UNIT('DEGREE',#611)
NAMED_UNIT(#610)
PLANE_ANGLE_UNIT()
);
#610=DIMENSIONAL_EXPONENTS(0.,0.,0.,0.,0.,0.,0.);
#611=PLANE_ANGLE_MEASURE_WITH_UNIT(PLANE_ANGLE_MEASURE(0.0174532925),#612);
#612=(
NAMED_UNIT(*)
PLANE_ANGLE_UNIT()
SI_UNIT($,.RADIAN.)
);
#613=(
LENGTH_UNIT()
NAMED_UNIT(*)
SI_UNIT(.MILLI.,.METRE.)
);
ENDSEC;
END-ISO-10303-21;
