ISO-10303-21;
HEADER;
/* Generated by software containing ST-Developer
 * from STEP Tools, Inc. (www.steptools.com) 
 */
/* OPTION: using custom schema-name function */

FILE_DESCRIPTION(
/* description */ (''),
/* implementation_level */ '2;1');

FILE_NAME(
/* name */ 'DLE0300S030P060.stp',
/* time_stamp */ '2023-03-14T11:41:55+09:00',
/* author */ (''),
/* organization */ (''),
/* preprocessor_version */ 'ST-DEVELOPER v16',
/* originating_system */ 'SIEMENS PLM Software NX 10.0',
/* authorisation */ '');

FILE_SCHEMA (('AUTOMOTIVE_DESIGN { 1 0 10303 214 3 1 1 1 }'));
ENDSEC;

DATA;
#10=CONSTRUCTIVE_GEOMETRY_REPRESENTATION_RELATIONSHIP(
'supplemental geometry','',#26,#11);
#11=CONSTRUCTIVE_GEOMETRY_REPRESENTATION('supplemental geometry',(#261,
#262,#263,#264,#265,#266,#267,#268,#269,#270),#425);
#12=GEOMETRICALLY_BOUNDED_WIREFRAME_SHAPE_REPRESENTATION(
'DLE0300S030P060-None',(#27),#425);
#13=SHAPE_REPRESENTATION_RELATIONSHIP('None',
'relationship between DLE0300S030P060-None and DLE0300S030P060-None',#26,
#15);
#14=SHAPE_REPRESENTATION_RELATIONSHIP('None',
'relationship between DLE0300S030P060-None and DLE0300S030P060-None',#26,
#12);
#15=ADVANCED_BREP_SHAPE_REPRESENTATION('DLE0300S030P060-None',(#40,#41),
#425);
#16=SHAPE_DEFINITION_REPRESENTATION(#17,#26);
#17=PRODUCT_DEFINITION_SHAPE('','SHAPE FOR DLE0300S030P060_ASM.',#18);
#18=PRODUCT_DEFINITION('part definition','',#20,#19);
#19=PRODUCT_DEFINITION_CONTEXT('part definition',#25,'design');
#20=PRODUCT_DEFINITION_FORMATION_WITH_SPECIFIED_SOURCE(' ',' ',#22,
 .NOT_KNOWN.);
#21=PRODUCT_RELATED_PRODUCT_CATEGORY('part','',(#22));
#22=PRODUCT('DLE0300S030P060_ASM','DLE0300S030P060_ASM','NOT SPECIFIED',
(#23));
#23=PRODUCT_CONTEXT('',#25,'mechanical');
#24=APPLICATION_PROTOCOL_DEFINITION('international standard',
'automotive_design',2010,#25);
#25=APPLICATION_CONTEXT(
'core data for automotive mechanical design processes');
#26=SHAPE_REPRESENTATION('DLE0300S030P060-None',(#260),#425);
#27=GEOMETRIC_CURVE_SET('None',(#369,#193,#194,#195,#196));
#28=CYLINDRICAL_SURFACE('',#282,1.5);
#29=CYLINDRICAL_SURFACE('',#286,1.5);
#30=SURFACE_STYLE_USAGE(.BOTH.,#32);
#31=SURFACE_STYLE_USAGE(.BOTH.,#33);
#32=SURFACE_SIDE_STYLE('',(#34));
#33=SURFACE_SIDE_STYLE('',(#35));
#34=SURFACE_STYLE_FILL_AREA(#36);
#35=SURFACE_STYLE_FILL_AREA(#37);
#36=FILL_AREA_STYLE('',(#38));
#37=FILL_AREA_STYLE('',(#39));
#38=FILL_AREA_STYLE_COLOUR('',#163);
#39=FILL_AREA_STYLE_COLOUR('',#164);
#40=MANIFOLD_SOLID_BREP('CUT',#42);
#41=MANIFOLD_SOLID_BREP('NOCUT',#43);
#42=CLOSED_SHELL('',(#47,#48,#49,#50,#51));
#43=CLOSED_SHELL('',(#52,#53,#54,#55,#56,#57));
#44=PLANE('',#278);
#45=PLANE('',#284);
#46=PLANE('',#291);
#47=ADVANCED_FACE('',(#64),#58,.T.);
#48=ADVANCED_FACE('',(#65),#59,.T.);
#49=ADVANCED_FACE('',(#66),#60,.T.);
#50=ADVANCED_FACE('',(#67),#44,.F.);
#51=ADVANCED_FACE('',(#68),#61,.T.);
#52=ADVANCED_FACE('',(#69),#28,.T.);
#53=ADVANCED_FACE('',(#70),#45,.F.);
#54=ADVANCED_FACE('',(#71),#29,.T.);
#55=ADVANCED_FACE('',(#72),#62,.T.);
#56=ADVANCED_FACE('',(#73),#63,.T.);
#57=ADVANCED_FACE('',(#74),#46,.F.);
#58=CONICAL_SURFACE('',#272,0.19125,68.00879996155);
#59=CONICAL_SURFACE('',#274,0.19125,68.00879996155);
#60=CONICAL_SURFACE('',#276,0.9374999999998,30.);
#61=CONICAL_SURFACE('',#279,0.9374999999998,30.);
#62=CONICAL_SURFACE('',#288,1.35,45.);
#63=CONICAL_SURFACE('',#290,1.35,45.);
#64=FACE_OUTER_BOUND('',#75,.T.);
#65=FACE_OUTER_BOUND('',#76,.T.);
#66=FACE_OUTER_BOUND('',#77,.T.);
#67=FACE_OUTER_BOUND('',#78,.T.);
#68=FACE_OUTER_BOUND('',#79,.T.);
#69=FACE_OUTER_BOUND('',#80,.T.);
#70=FACE_OUTER_BOUND('',#81,.T.);
#71=FACE_OUTER_BOUND('',#82,.T.);
#72=FACE_OUTER_BOUND('',#83,.T.);
#73=FACE_OUTER_BOUND('',#84,.T.);
#74=FACE_OUTER_BOUND('',#85,.T.);
#75=EDGE_LOOP('',(#86,#87,#88));
#76=EDGE_LOOP('',(#89,#90,#91));
#77=EDGE_LOOP('',(#92,#93,#94,#95));
#78=EDGE_LOOP('',(#96,#97));
#79=EDGE_LOOP('',(#98,#99,#100,#101));
#80=EDGE_LOOP('',(#102,#103,#104,#105));
#81=EDGE_LOOP('',(#106,#107));
#82=EDGE_LOOP('',(#108,#109,#110,#111));
#83=EDGE_LOOP('',(#112,#113,#114,#115));
#84=EDGE_LOOP('',(#116,#117,#118,#119));
#85=EDGE_LOOP('',(#120,#121));
#86=ORIENTED_EDGE('',*,*,#133,.F.);
#87=ORIENTED_EDGE('',*,*,#134,.T.);
#88=ORIENTED_EDGE('',*,*,#135,.F.);
#89=ORIENTED_EDGE('',*,*,#134,.F.);
#90=ORIENTED_EDGE('',*,*,#136,.T.);
#91=ORIENTED_EDGE('',*,*,#135,.T.);
#92=ORIENTED_EDGE('',*,*,#137,.F.);
#93=ORIENTED_EDGE('',*,*,#136,.F.);
#94=ORIENTED_EDGE('',*,*,#138,.T.);
#95=ORIENTED_EDGE('',*,*,#139,.T.);
#96=ORIENTED_EDGE('',*,*,#139,.F.);
#97=ORIENTED_EDGE('',*,*,#140,.F.);
#98=ORIENTED_EDGE('',*,*,#138,.F.);
#99=ORIENTED_EDGE('',*,*,#133,.T.);
#100=ORIENTED_EDGE('',*,*,#137,.T.);
#101=ORIENTED_EDGE('',*,*,#140,.T.);
#102=ORIENTED_EDGE('',*,*,#141,.F.);
#103=ORIENTED_EDGE('',*,*,#142,.T.);
#104=ORIENTED_EDGE('',*,*,#143,.T.);
#105=ORIENTED_EDGE('',*,*,#144,.T.);
#106=ORIENTED_EDGE('',*,*,#145,.F.);
#107=ORIENTED_EDGE('',*,*,#144,.F.);
#108=ORIENTED_EDGE('',*,*,#143,.F.);
#109=ORIENTED_EDGE('',*,*,#146,.T.);
#110=ORIENTED_EDGE('',*,*,#141,.T.);
#111=ORIENTED_EDGE('',*,*,#145,.T.);
#112=ORIENTED_EDGE('',*,*,#146,.F.);
#113=ORIENTED_EDGE('',*,*,#147,.T.);
#114=ORIENTED_EDGE('',*,*,#148,.T.);
#115=ORIENTED_EDGE('',*,*,#149,.F.);
#116=ORIENTED_EDGE('',*,*,#150,.T.);
#117=ORIENTED_EDGE('',*,*,#147,.F.);
#118=ORIENTED_EDGE('',*,*,#142,.F.);
#119=ORIENTED_EDGE('',*,*,#149,.T.);
#120=ORIENTED_EDGE('',*,*,#150,.F.);
#121=ORIENTED_EDGE('',*,*,#148,.F.);
#122=VERTEX_POINT('',#385);
#123=VERTEX_POINT('',#386);
#124=VERTEX_POINT('',#388);
#125=VERTEX_POINT('',#394);
#126=VERTEX_POINT('',#396);
#127=VERTEX_POINT('',#403);
#128=VERTEX_POINT('',#404);
#129=VERTEX_POINT('',#406);
#130=VERTEX_POINT('',#408);
#131=VERTEX_POINT('',#416);
#132=VERTEX_POINT('',#418);
#133=EDGE_CURVE('',#122,#123,#151,.T.);
#134=EDGE_CURVE('',#122,#124,#201,.T.);
#135=EDGE_CURVE('',#123,#124,#202,.T.);
#136=EDGE_CURVE('',#122,#123,#152,.T.);
#137=EDGE_CURVE('',#123,#125,#203,.T.);
#138=EDGE_CURVE('',#122,#126,#204,.T.);
#139=EDGE_CURVE('',#126,#125,#153,.T.);
#140=EDGE_CURVE('',#125,#126,#154,.T.);
#141=EDGE_CURVE('',#127,#128,#205,.T.);
#142=EDGE_CURVE('',#127,#129,#155,.T.);
#143=EDGE_CURVE('',#129,#130,#206,.T.);
#144=EDGE_CURVE('',#130,#128,#156,.T.);
#145=EDGE_CURVE('',#128,#130,#157,.T.);
#146=EDGE_CURVE('',#129,#127,#158,.T.);
#147=EDGE_CURVE('',#129,#131,#207,.T.);
#148=EDGE_CURVE('',#131,#132,#159,.T.);
#149=EDGE_CURVE('',#127,#132,#208,.T.);
#150=EDGE_CURVE('',#132,#131,#160,.T.);
#151=CIRCLE('',#271,0.375);
#152=CIRCLE('',#273,0.3749999999998);
#153=CIRCLE('',#275,1.5);
#154=CIRCLE('',#277,1.5);
#155=CIRCLE('',#280,1.5);
#156=CIRCLE('',#281,1.5);
#157=CIRCLE('',#283,1.5);
#158=CIRCLE('',#285,1.5);
#159=CIRCLE('',#287,1.2);
#160=CIRCLE('',#289,1.2);
#161=COLOUR_RGB('Strong Stone',0.576470588235294,0.54508278019379,0.392156862745098);
#162=COLOUR_RGB('Medium Umber',0.372533760585946,0.313725490196078,0.270572976272221);
#163=COLOUR_RGB('Light Gray',0.8,0.8,0.8);
#164=COLOUR_RGB('non-cutting part and shank',0.501960784313725,0.501960784313725,
0.501960784313725);
#165=CURVE_STYLE('',#179,POSITIVE_LENGTH_MEASURE(0.18),#259);
#166=CURVE_STYLE('',#180,POSITIVE_LENGTH_MEASURE(0.18),#259);
#167=CURVE_STYLE('',#181,POSITIVE_LENGTH_MEASURE(0.18),#259);
#168=CURVE_STYLE('',#182,POSITIVE_LENGTH_MEASURE(0.18),#259);
#169=CURVE_STYLE('',#183,POSITIVE_LENGTH_MEASURE(0.13),#161);
#170=CURVE_STYLE('',#184,POSITIVE_LENGTH_MEASURE(0.13),#161);
#171=CURVE_STYLE('',#185,POSITIVE_LENGTH_MEASURE(0.13),#162);
#172=CURVE_STYLE('',#186,POSITIVE_LENGTH_MEASURE(0.13),#162);
#173=CURVE_STYLE('',#187,POSITIVE_LENGTH_MEASURE(0.13),#161);
#174=CURVE_STYLE('',#188,POSITIVE_LENGTH_MEASURE(0.13),#161);
#175=CURVE_STYLE('',#189,POSITIVE_LENGTH_MEASURE(0.13),#162);
#176=CURVE_STYLE('',#190,POSITIVE_LENGTH_MEASURE(0.13),#161);
#177=CURVE_STYLE('',#191,POSITIVE_LENGTH_MEASURE(0.13),#161);
#178=CURVE_STYLE('',#192,POSITIVE_LENGTH_MEASURE(0.13),#161);
#179=DRAUGHTING_PRE_DEFINED_CURVE_FONT('continuous');
#180=DRAUGHTING_PRE_DEFINED_CURVE_FONT('continuous');
#181=DRAUGHTING_PRE_DEFINED_CURVE_FONT('continuous');
#182=DRAUGHTING_PRE_DEFINED_CURVE_FONT('continuous');
#183=DRAUGHTING_PRE_DEFINED_CURVE_FONT('continuous');
#184=DRAUGHTING_PRE_DEFINED_CURVE_FONT('continuous');
#185=DRAUGHTING_PRE_DEFINED_CURVE_FONT('continuous');
#186=DRAUGHTING_PRE_DEFINED_CURVE_FONT('continuous');
#187=DRAUGHTING_PRE_DEFINED_CURVE_FONT('continuous');
#188=DRAUGHTING_PRE_DEFINED_CURVE_FONT('continuous');
#189=DRAUGHTING_PRE_DEFINED_CURVE_FONT('continuous');
#190=DRAUGHTING_PRE_DEFINED_CURVE_FONT('continuous');
#191=DRAUGHTING_PRE_DEFINED_CURVE_FONT('continuous');
#192=DRAUGHTING_PRE_DEFINED_CURVE_FONT('continuous');
#193=TRIMMED_CURVE('',#197,(PARAMETER_VALUE(0.)),(PARAMETER_VALUE(1.)),
 .T.,.PARAMETER.);
#194=TRIMMED_CURVE('',#198,(PARAMETER_VALUE(0.)),(PARAMETER_VALUE(1.)),
 .T.,.PARAMETER.);
#195=TRIMMED_CURVE('',#199,(PARAMETER_VALUE(0.)),(PARAMETER_VALUE(1.)),
 .T.,.PARAMETER.);
#196=TRIMMED_CURVE('',#200,(PARAMETER_VALUE(0.)),(PARAMETER_VALUE(1.)),
 .T.,.PARAMETER.);
#197=LINE('',#370,#209);
#198=LINE('',#371,#210);
#199=LINE('',#372,#211);
#200=LINE('',#373,#212);
#201=LINE('',#387,#213);
#202=LINE('',#389,#214);
#203=LINE('',#393,#215);
#204=LINE('',#395,#216);
#205=LINE('',#402,#217);
#206=LINE('',#407,#218);
#207=LINE('',#415,#219);
#208=LINE('',#419,#220);
#209=VECTOR('',#294,0.404425437178499);
#210=VECTOR('',#295,2.13452994616193);
#211=VECTOR('',#296,1.442264973081);
#212=VECTOR('',#297,2.);
#213=VECTOR('',#320,1.);
#214=VECTOR('',#321,1.);
#215=VECTOR('',#328,1.);
#216=VECTOR('',#329,1.);
#217=VECTOR('',#340,1.);
#218=VECTOR('',#343,1.);
#219=VECTOR('',#356,1.);
#220=VECTOR('',#359,1.);
#221=PRESENTATION_LAYER_ASSIGNMENT('1','Layer 1',(#369,#193,#194,#195,#196,
#261,#262,#265,#266,#267,#268,#269,#270,#40,#41));
#222=PRESENTATION_LAYER_ASSIGNMENT('2','Layer 2',(#263,#264));
#223=STYLED_ITEM('',(#240),#369);
#224=STYLED_ITEM('',(#241),#193);
#225=STYLED_ITEM('',(#242),#194);
#226=STYLED_ITEM('',(#243),#195);
#227=STYLED_ITEM('',(#244),#196);
#228=STYLED_ITEM('',(#245),#261);
#229=STYLED_ITEM('',(#246),#262);
#230=STYLED_ITEM('',(#247),#263);
#231=STYLED_ITEM('',(#248),#264);
#232=STYLED_ITEM('',(#249),#265);
#233=STYLED_ITEM('',(#250),#266);
#234=STYLED_ITEM('',(#251),#267);
#235=STYLED_ITEM('',(#252),#268);
#236=STYLED_ITEM('',(#253),#269);
#237=STYLED_ITEM('',(#254),#270);
#238=STYLED_ITEM('',(#255),#40);
#239=STYLED_ITEM('',(#256),#41);
#240=PRESENTATION_STYLE_ASSIGNMENT((#257));
#241=PRESENTATION_STYLE_ASSIGNMENT((#165));
#242=PRESENTATION_STYLE_ASSIGNMENT((#166));
#243=PRESENTATION_STYLE_ASSIGNMENT((#167));
#244=PRESENTATION_STYLE_ASSIGNMENT((#168));
#245=PRESENTATION_STYLE_ASSIGNMENT((#169));
#246=PRESENTATION_STYLE_ASSIGNMENT((#170));
#247=PRESENTATION_STYLE_ASSIGNMENT((#171));
#248=PRESENTATION_STYLE_ASSIGNMENT((#172));
#249=PRESENTATION_STYLE_ASSIGNMENT((#173));
#250=PRESENTATION_STYLE_ASSIGNMENT((#174));
#251=PRESENTATION_STYLE_ASSIGNMENT((#175));
#252=PRESENTATION_STYLE_ASSIGNMENT((#176));
#253=PRESENTATION_STYLE_ASSIGNMENT((#177));
#254=PRESENTATION_STYLE_ASSIGNMENT((#178));
#255=PRESENTATION_STYLE_ASSIGNMENT((#30));
#256=PRESENTATION_STYLE_ASSIGNMENT((#31));
#257=POINT_STYLE('',#258,POSITIVE_LENGTH_MEASURE(3.),#259);
#258=PRE_DEFINED_POINT_MARKER_SYMBOL('plus');
#259=DRAUGHTING_PRE_DEFINED_COLOUR('blue');
#260=AXIS2_PLACEMENT_3D('',#368,#292,#293);
#261=AXIS2_PLACEMENT_3D('',#374,#298,#299);
#262=AXIS2_PLACEMENT_3D('',#375,#300,#301);
#263=AXIS2_PLACEMENT_3D('CIP',#376,#302,#303);
#264=AXIS2_PLACEMENT_3D('PCS',#377,#304,#305);
#265=AXIS2_PLACEMENT_3D('MCS',#378,#306,#307);
#266=AXIS2_PLACEMENT_3D('',#379,#308,#309);
#267=AXIS2_PLACEMENT_3D('STEP_TEMP_4_1',#380,#310,#311);
#268=AXIS2_PLACEMENT_3D('',#381,#312,#313);
#269=AXIS2_PLACEMENT_3D('',#382,#314,#315);
#270=AXIS2_PLACEMENT_3D('',#383,#316,#317);
#271=AXIS2_PLACEMENT_3D('',#384,#318,#319);
#272=AXIS2_PLACEMENT_3D('',#390,#322,#323);
#273=AXIS2_PLACEMENT_3D('',#391,#324,#325);
#274=AXIS2_PLACEMENT_3D('',#392,#326,#327);
#275=AXIS2_PLACEMENT_3D('',#397,#330,#331);
#276=AXIS2_PLACEMENT_3D('',#398,#332,#333);
#277=AXIS2_PLACEMENT_3D('',#399,#334,#335);
#278=AXIS2_PLACEMENT_3D('',#400,#336,#337);
#279=AXIS2_PLACEMENT_3D('',#401,#338,#339);
#280=AXIS2_PLACEMENT_3D('',#405,#341,#342);
#281=AXIS2_PLACEMENT_3D('',#409,#344,#345);
#282=AXIS2_PLACEMENT_3D('',#410,#346,#347);
#283=AXIS2_PLACEMENT_3D('',#411,#348,#349);
#284=AXIS2_PLACEMENT_3D('',#412,#350,#351);
#285=AXIS2_PLACEMENT_3D('',#413,#352,#353);
#286=AXIS2_PLACEMENT_3D('',#414,#354,#355);
#287=AXIS2_PLACEMENT_3D('',#417,#357,#358);
#288=AXIS2_PLACEMENT_3D('',#420,#360,#361);
#289=AXIS2_PLACEMENT_3D('',#421,#362,#363);
#290=AXIS2_PLACEMENT_3D('',#422,#364,#365);
#291=AXIS2_PLACEMENT_3D('',#423,#366,#367);
#292=DIRECTION('',(0.,0.,1.));
#293=DIRECTION('',(1.,0.,0.));
#294=DIRECTION('',(-0.927241378821702,0.,0.374464184403301));
#295=DIRECTION('',(-0.500000000000017,0.,0.866025403784429));
#296=DIRECTION('',(1.,0.,0.));
#297=DIRECTION('',(0.,0.,-1.));
#298=DIRECTION('',(0.,0.,1.));
#299=DIRECTION('',(1.,0.,0.));
#300=DIRECTION('',(0.,0.,1.));
#301=DIRECTION('',(1.,0.,0.));
#302=DIRECTION('',(0.,0.,1.));
#303=DIRECTION('',(1.,0.,0.));
#304=DIRECTION('',(0.,0.,1.));
#305=DIRECTION('',(1.,0.,0.));
#306=DIRECTION('',(0.,0.,1.));
#307=DIRECTION('',(1.,0.,0.));
#308=DIRECTION('',(0.,0.,1.));
#309=DIRECTION('',(1.,0.,0.));
#310=DIRECTION('',(0.,0.,1.));
#311=DIRECTION('',(1.,0.,0.));
#312=DIRECTION('',(0.,0.,1.));
#313=DIRECTION('',(1.,0.,0.));
#314=DIRECTION('',(0.,0.,1.));
#315=DIRECTION('',(1.,0.,0.));
#316=DIRECTION('',(0.,0.,1.));
#317=DIRECTION('',(1.,0.,0.));
#318=DIRECTION('',(0.,0.,1.));
#319=DIRECTION('',(0.,-1.,0.));
#320=DIRECTION('',(0.,0.927241378821618,-0.374464184403507));
#321=DIRECTION('',(0.,-0.927241378821618,-0.374464184403507));
#322=DIRECTION('',(0.,0.,1.));
#323=DIRECTION('',(0.,-1.,3.22562857500899E-17));
#324=DIRECTION('',(0.,0.,-1.));
#325=DIRECTION('',(0.,-1.,0.));
#326=DIRECTION('',(0.,0.,1.));
#327=DIRECTION('',(0.,-1.,3.22562857500899E-17));
#328=DIRECTION('',(0.,0.499999999999973,0.866025403784454));
#329=DIRECTION('',(0.,-0.499999999999973,0.866025403784454));
#330=DIRECTION('',(0.,0.,-1.));
#331=DIRECTION('',(0.,-1.,0.));
#332=DIRECTION('',(0.,0.,1.));
#333=DIRECTION('',(0.,-1.,-6.14950430429448E-17));
#334=DIRECTION('',(0.,0.,-1.));
#335=DIRECTION('',(0.,1.,0.));
#336=DIRECTION('',(0.,0.,-1.));
#337=DIRECTION('',(1.,0.,0.));
#338=DIRECTION('',(0.,0.,1.));
#339=DIRECTION('',(0.,-1.,-6.14950430429448E-17));
#340=DIRECTION('',(0.,0.,-1.));
#341=DIRECTION('',(0.,0.,-1.));
#342=DIRECTION('',(0.,1.,0.));
#343=DIRECTION('',(0.,0.,-1.));
#344=DIRECTION('',(0.,0.,1.));
#345=DIRECTION('',(0.,-1.,0.));
#346=DIRECTION('',(0.,0.,-1.));
#347=DIRECTION('',(0.,1.,0.));
#348=DIRECTION('',(0.,0.,1.));
#349=DIRECTION('',(0.,1.,0.));
#350=DIRECTION('',(0.,0.,1.));
#351=DIRECTION('',(-1.,0.,0.));
#352=DIRECTION('',(0.,0.,-1.));
#353=DIRECTION('',(0.,-1.,0.));
#354=DIRECTION('',(0.,0.,-1.));
#355=DIRECTION('',(0.,1.,0.));
#356=DIRECTION('',(0.,0.707106781186498,0.707106781186598));
#357=DIRECTION('',(0.,0.,-1.));
#358=DIRECTION('',(0.,-1.,0.));
#359=DIRECTION('',(0.,-0.707106781186498,0.707106781186598));
#360=DIRECTION('',(0.,0.,-1.));
#361=DIRECTION('',(0.,1.,5.54363122097746E-17));
#362=DIRECTION('',(0.,0.,-1.));
#363=DIRECTION('',(0.,1.,0.));
#364=DIRECTION('',(0.,0.,-1.));
#365=DIRECTION('',(0.,1.,5.54363122097746E-17));
#366=DIRECTION('',(0.,0.,-1.));
#367=DIRECTION('',(0.,1.,0.));
#368=CARTESIAN_POINT('',(0.,0.,0.));
#369=CARTESIAN_POINT('CRP',(-1.5,0.,2.1));
#370=CARTESIAN_POINT('',(0.,0.,0.));
#371=CARTESIAN_POINT('',(-0.375,0.,0.151442841485));
#372=CARTESIAN_POINT('',(-1.442264973081,0.,2.));
#373=CARTESIAN_POINT('',(0.,0.,2.));
#374=CARTESIAN_POINT('',(0.,0.,0.));
#375=CARTESIAN_POINT('',(0.,0.,0.));
#376=CARTESIAN_POINT('',(0.,0.,0.));
#377=CARTESIAN_POINT('',(0.,0.,45.));
#378=CARTESIAN_POINT('',(0.,0.,11.));
#379=CARTESIAN_POINT('',(0.,0.,0.));
#380=CARTESIAN_POINT('',(0.,0.,0.));
#381=CARTESIAN_POINT('',(0.,0.,0.));
#382=CARTESIAN_POINT('',(0.,0.,0.));
#383=CARTESIAN_POINT('',(0.,0.,0.));
#384=CARTESIAN_POINT('',(0.,0.,0.151442841485));
#385=CARTESIAN_POINT('',(0.,-0.3749999999999,0.1514428414851));
#386=CARTESIAN_POINT('',(0.,0.3749999999999,0.1514428414851));
#387=CARTESIAN_POINT('',(0.,-0.3749999999999,0.1514428414851));
#388=CARTESIAN_POINT('',(0.,0.,0.));
#389=CARTESIAN_POINT('',(0.,0.3749999999999,0.1514428414851));
#390=CARTESIAN_POINT('',(0.,0.,0.07723584915734));
#391=CARTESIAN_POINT('',(0.,0.,0.1514428414851));
#392=CARTESIAN_POINT('',(0.,0.,0.07723584915734));
#393=CARTESIAN_POINT('',(0.,1.5,2.1));
#394=CARTESIAN_POINT('',(0.,1.5,2.1));
#395=CARTESIAN_POINT('',(0.,-1.5,2.1));
#396=CARTESIAN_POINT('',(0.,-1.5,2.1));
#397=CARTESIAN_POINT('',(0.,0.,2.1));
#398=CARTESIAN_POINT('',(0.,0.,1.125721420743));
#399=CARTESIAN_POINT('',(0.,0.,2.1));
#400=CARTESIAN_POINT('',(150.,150.,2.1));
#401=CARTESIAN_POINT('',(0.,0.,1.125721420743));
#402=CARTESIAN_POINT('',(0.,1.5,44.7));
#403=CARTESIAN_POINT('',(0.,1.5,44.7));
#404=CARTESIAN_POINT('',(0.,1.5,2.1));
#405=CARTESIAN_POINT('',(0.,0.,44.7));
#406=CARTESIAN_POINT('',(0.,-1.5,44.7));
#407=CARTESIAN_POINT('',(0.,-1.5,44.7));
#408=CARTESIAN_POINT('',(0.,-1.5,2.1));
#409=CARTESIAN_POINT('',(0.,0.,2.1));
#410=CARTESIAN_POINT('',(0.,0.,47.25));
#411=CARTESIAN_POINT('',(0.,0.,2.1));
#412=CARTESIAN_POINT('',(-150.,150.,2.1));
#413=CARTESIAN_POINT('',(0.,0.,44.7));
#414=CARTESIAN_POINT('',(0.,0.,47.25));
#415=CARTESIAN_POINT('',(0.,-1.2,45.));
#416=CARTESIAN_POINT('',(0.,-1.2,45.));
#417=CARTESIAN_POINT('',(0.,0.,45.));
#418=CARTESIAN_POINT('',(0.,1.2,45.));
#419=CARTESIAN_POINT('',(0.,1.2,45.));
#420=CARTESIAN_POINT('',(0.,0.,44.85));
#421=CARTESIAN_POINT('',(0.,0.,45.));
#422=CARTESIAN_POINT('',(0.,0.,44.85));
#423=CARTESIAN_POINT('',(0.,0.,45.));
#424=MECHANICAL_DESIGN_GEOMETRIC_PRESENTATION_REPRESENTATION('',(#223,#224,
#225,#226,#227,#228,#229,#230,#231,#232,#233,#234,#235,#236,#237,#238,#239),
#425);
#425=(
GEOMETRIC_REPRESENTATION_CONTEXT(3)
GLOBAL_UNCERTAINTY_ASSIGNED_CONTEXT((#426))
GLOBAL_UNIT_ASSIGNED_CONTEXT((#432,#428,#427))
REPRESENTATION_CONTEXT('DLE0300S030P060','TOP_LEVEL_ASSEMBLY_PART')
);
#426=UNCERTAINTY_MEASURE_WITH_UNIT(LENGTH_MEASURE(2.E-5),#432,
'DISTANCE_ACCURACY_VALUE','Maximum Tolerance applied to model');
#427=(
NAMED_UNIT(*)
SI_UNIT($,.STERADIAN.)
SOLID_ANGLE_UNIT()
);
#428=(
CONVERSION_BASED_UNIT('DEGREE',#430)
NAMED_UNIT(#429)
PLANE_ANGLE_UNIT()
);
#429=DIMENSIONAL_EXPONENTS(0.,0.,0.,0.,0.,0.,0.);
#430=PLANE_ANGLE_MEASURE_WITH_UNIT(PLANE_ANGLE_MEASURE(0.0174532925),#431);
#431=(
NAMED_UNIT(*)
PLANE_ANGLE_UNIT()
SI_UNIT($,.RADIAN.)
);
#432=(
LENGTH_UNIT()
NAMED_UNIT(*)
SI_UNIT(.MILLI.,.METRE.)
);
ENDSEC;
END-ISO-10303-21;
