ISO-10303-21;
HEADER;
/* Generated by software containing ST-Developer
 * from STEP Tools, Inc. (www.steptools.com) 
 */
/* OPTION: using custom schema-name function */

FILE_DESCRIPTION(
/* description */ (''),
/* implementation_level */ '2;1');

FILE_NAME(
/* name */ 'DLE0250S030P090.stp',
/* time_stamp */ '2023-03-14T11:41:55+09:00',
/* author */ (''),
/* organization */ (''),
/* preprocessor_version */ 'ST-DEVELOPER v16',
/* originating_system */ 'SIEMENS PLM Software NX 10.0',
/* authorisation */ '');

FILE_SCHEMA (('AUTOMOTIVE_DESIGN { 1 0 10303 214 3 1 1 1 }'));
ENDSEC;

DATA;
#10=CONSTRUCTIVE_GEOMETRY_REPRESENTATION_RELATIONSHIP(
'supplemental geometry','',#26,#11);
#11=CONSTRUCTIVE_GEOMETRY_REPRESENTATION('supplemental geometry',(#317,
#318,#319,#320,#321,#322,#323,#324,#325,#326),#525);
#12=GEOMETRICALLY_BOUNDED_WIREFRAME_SHAPE_REPRESENTATION(
'DLE0250S030P090-None',(#27),#525);
#13=SHAPE_REPRESENTATION_RELATIONSHIP('None',
'relationship between DLE0250S030P090-None and DLE0250S030P090-None',#26,
#15);
#14=SHAPE_REPRESENTATION_RELATIONSHIP('None',
'relationship between DLE0250S030P090-None and DLE0250S030P090-None',#26,
#12);
#15=ADVANCED_BREP_SHAPE_REPRESENTATION('DLE0250S030P090-None',(#42,#43),
#525);
#16=SHAPE_DEFINITION_REPRESENTATION(#17,#26);
#17=PRODUCT_DEFINITION_SHAPE('','SHAPE FOR DLE0250S030P090_ASM.',#18);
#18=PRODUCT_DEFINITION('part definition','',#20,#19);
#19=PRODUCT_DEFINITION_CONTEXT('part definition',#25,'design');
#20=PRODUCT_DEFINITION_FORMATION_WITH_SPECIFIED_SOURCE(' ',' ',#22,
 .NOT_KNOWN.);
#21=PRODUCT_RELATED_PRODUCT_CATEGORY('part','',(#22));
#22=PRODUCT('DLE0250S030P090_ASM','DLE0250S030P090_ASM','NOT SPECIFIED',
(#23));
#23=PRODUCT_CONTEXT('',#25,'mechanical');
#24=APPLICATION_PROTOCOL_DEFINITION('international standard',
'automotive_design',2010,#25);
#25=APPLICATION_CONTEXT(
'core data for automotive mechanical design processes');
#26=SHAPE_REPRESENTATION('DLE0250S030P090-None',(#316),#525);
#27=GEOMETRIC_CURVE_SET('None',(#453,#241,#242,#243,#244));
#28=CYLINDRICAL_SURFACE('',#338,1.25);
#29=CYLINDRICAL_SURFACE('',#342,1.25);
#30=CYLINDRICAL_SURFACE('',#348,1.5);
#31=CYLINDRICAL_SURFACE('',#350,1.5);
#32=SURFACE_STYLE_USAGE(.BOTH.,#34);
#33=SURFACE_STYLE_USAGE(.BOTH.,#35);
#34=SURFACE_SIDE_STYLE('',(#36));
#35=SURFACE_SIDE_STYLE('',(#37));
#36=SURFACE_STYLE_FILL_AREA(#38);
#37=SURFACE_STYLE_FILL_AREA(#39);
#38=FILL_AREA_STYLE('',(#40));
#39=FILL_AREA_STYLE('',(#41));
#40=FILL_AREA_STYLE_COLOUR('',#211);
#41=FILL_AREA_STYLE_COLOUR('',#212);
#42=MANIFOLD_SOLID_BREP('CUT',#44);
#43=MANIFOLD_SOLID_BREP('NOCUT',#45);
#44=CLOSED_SHELL('',(#49,#50,#51,#52,#53));
#45=CLOSED_SHELL('',(#54,#55,#56,#57,#58,#59,#60,#61,#62,#63));
#46=PLANE('',#334);
#47=PLANE('',#340);
#48=PLANE('',#355);
#49=ADVANCED_FACE('',(#72),#64,.T.);
#50=ADVANCED_FACE('',(#73),#65,.T.);
#51=ADVANCED_FACE('',(#74),#66,.T.);
#52=ADVANCED_FACE('',(#75),#46,.F.);
#53=ADVANCED_FACE('',(#76),#67,.T.);
#54=ADVANCED_FACE('',(#77),#28,.T.);
#55=ADVANCED_FACE('',(#78),#47,.F.);
#56=ADVANCED_FACE('',(#79),#29,.T.);
#57=ADVANCED_FACE('',(#80),#68,.T.);
#58=ADVANCED_FACE('',(#81),#69,.T.);
#59=ADVANCED_FACE('',(#82),#30,.T.);
#60=ADVANCED_FACE('',(#83),#31,.T.);
#61=ADVANCED_FACE('',(#84),#70,.T.);
#62=ADVANCED_FACE('',(#85),#71,.T.);
#63=ADVANCED_FACE('',(#86),#48,.F.);
#64=CONICAL_SURFACE('',#328,0.159375,78.69006752598);
#65=CONICAL_SURFACE('',#330,0.159375,78.69006752598);
#66=CONICAL_SURFACE('',#332,0.78125,45.);
#67=CONICAL_SURFACE('',#335,0.78125,45.);
#68=CONICAL_SURFACE('',#344,1.375,15.);
#69=CONICAL_SURFACE('',#346,1.375,15.);
#70=CONICAL_SURFACE('',#352,1.35,45.);
#71=CONICAL_SURFACE('',#354,1.35,45.);
#72=FACE_OUTER_BOUND('',#87,.T.);
#73=FACE_OUTER_BOUND('',#88,.T.);
#74=FACE_OUTER_BOUND('',#89,.T.);
#75=FACE_OUTER_BOUND('',#90,.T.);
#76=FACE_OUTER_BOUND('',#91,.T.);
#77=FACE_OUTER_BOUND('',#92,.T.);
#78=FACE_OUTER_BOUND('',#93,.T.);
#79=FACE_OUTER_BOUND('',#94,.T.);
#80=FACE_OUTER_BOUND('',#95,.T.);
#81=FACE_OUTER_BOUND('',#96,.T.);
#82=FACE_OUTER_BOUND('',#97,.T.);
#83=FACE_OUTER_BOUND('',#98,.T.);
#84=FACE_OUTER_BOUND('',#99,.T.);
#85=FACE_OUTER_BOUND('',#100,.T.);
#86=FACE_OUTER_BOUND('',#101,.T.);
#87=EDGE_LOOP('',(#102,#103,#104));
#88=EDGE_LOOP('',(#105,#106,#107));
#89=EDGE_LOOP('',(#108,#109,#110,#111));
#90=EDGE_LOOP('',(#112,#113));
#91=EDGE_LOOP('',(#114,#115,#116,#117));
#92=EDGE_LOOP('',(#118,#119,#120,#121));
#93=EDGE_LOOP('',(#122,#123));
#94=EDGE_LOOP('',(#124,#125,#126,#127));
#95=EDGE_LOOP('',(#128,#129,#130,#131));
#96=EDGE_LOOP('',(#132,#133,#134,#135));
#97=EDGE_LOOP('',(#136,#137,#138,#139));
#98=EDGE_LOOP('',(#140,#141,#142,#143));
#99=EDGE_LOOP('',(#144,#145,#146,#147));
#100=EDGE_LOOP('',(#148,#149,#150,#151));
#101=EDGE_LOOP('',(#152,#153));
#102=ORIENTED_EDGE('',*,*,#169,.F.);
#103=ORIENTED_EDGE('',*,*,#170,.T.);
#104=ORIENTED_EDGE('',*,*,#171,.F.);
#105=ORIENTED_EDGE('',*,*,#170,.F.);
#106=ORIENTED_EDGE('',*,*,#172,.T.);
#107=ORIENTED_EDGE('',*,*,#171,.T.);
#108=ORIENTED_EDGE('',*,*,#173,.F.);
#109=ORIENTED_EDGE('',*,*,#172,.F.);
#110=ORIENTED_EDGE('',*,*,#174,.T.);
#111=ORIENTED_EDGE('',*,*,#175,.T.);
#112=ORIENTED_EDGE('',*,*,#175,.F.);
#113=ORIENTED_EDGE('',*,*,#176,.F.);
#114=ORIENTED_EDGE('',*,*,#174,.F.);
#115=ORIENTED_EDGE('',*,*,#169,.T.);
#116=ORIENTED_EDGE('',*,*,#173,.T.);
#117=ORIENTED_EDGE('',*,*,#176,.T.);
#118=ORIENTED_EDGE('',*,*,#177,.F.);
#119=ORIENTED_EDGE('',*,*,#178,.T.);
#120=ORIENTED_EDGE('',*,*,#179,.T.);
#121=ORIENTED_EDGE('',*,*,#180,.T.);
#122=ORIENTED_EDGE('',*,*,#181,.F.);
#123=ORIENTED_EDGE('',*,*,#180,.F.);
#124=ORIENTED_EDGE('',*,*,#179,.F.);
#125=ORIENTED_EDGE('',*,*,#182,.T.);
#126=ORIENTED_EDGE('',*,*,#177,.T.);
#127=ORIENTED_EDGE('',*,*,#181,.T.);
#128=ORIENTED_EDGE('',*,*,#182,.F.);
#129=ORIENTED_EDGE('',*,*,#183,.T.);
#130=ORIENTED_EDGE('',*,*,#184,.F.);
#131=ORIENTED_EDGE('',*,*,#185,.F.);
#132=ORIENTED_EDGE('',*,*,#186,.F.);
#133=ORIENTED_EDGE('',*,*,#183,.F.);
#134=ORIENTED_EDGE('',*,*,#178,.F.);
#135=ORIENTED_EDGE('',*,*,#185,.T.);
#136=ORIENTED_EDGE('',*,*,#187,.T.);
#137=ORIENTED_EDGE('',*,*,#188,.T.);
#138=ORIENTED_EDGE('',*,*,#186,.T.);
#139=ORIENTED_EDGE('',*,*,#189,.F.);
#140=ORIENTED_EDGE('',*,*,#184,.T.);
#141=ORIENTED_EDGE('',*,*,#188,.F.);
#142=ORIENTED_EDGE('',*,*,#190,.T.);
#143=ORIENTED_EDGE('',*,*,#189,.T.);
#144=ORIENTED_EDGE('',*,*,#190,.F.);
#145=ORIENTED_EDGE('',*,*,#191,.T.);
#146=ORIENTED_EDGE('',*,*,#192,.T.);
#147=ORIENTED_EDGE('',*,*,#193,.F.);
#148=ORIENTED_EDGE('',*,*,#194,.T.);
#149=ORIENTED_EDGE('',*,*,#191,.F.);
#150=ORIENTED_EDGE('',*,*,#187,.F.);
#151=ORIENTED_EDGE('',*,*,#193,.T.);
#152=ORIENTED_EDGE('',*,*,#194,.F.);
#153=ORIENTED_EDGE('',*,*,#192,.F.);
#154=VERTEX_POINT('',#469);
#155=VERTEX_POINT('',#470);
#156=VERTEX_POINT('',#472);
#157=VERTEX_POINT('',#478);
#158=VERTEX_POINT('',#480);
#159=VERTEX_POINT('',#487);
#160=VERTEX_POINT('',#488);
#161=VERTEX_POINT('',#490);
#162=VERTEX_POINT('',#492);
#163=VERTEX_POINT('',#500);
#164=VERTEX_POINT('',#502);
#165=VERTEX_POINT('',#508);
#166=VERTEX_POINT('',#509);
#167=VERTEX_POINT('',#516);
#168=VERTEX_POINT('',#518);
#169=EDGE_CURVE('',#154,#155,#195,.T.);
#170=EDGE_CURVE('',#154,#156,#249,.T.);
#171=EDGE_CURVE('',#155,#156,#250,.T.);
#172=EDGE_CURVE('',#154,#155,#196,.T.);
#173=EDGE_CURVE('',#155,#157,#251,.T.);
#174=EDGE_CURVE('',#154,#158,#252,.T.);
#175=EDGE_CURVE('',#158,#157,#197,.T.);
#176=EDGE_CURVE('',#157,#158,#198,.T.);
#177=EDGE_CURVE('',#159,#160,#253,.T.);
#178=EDGE_CURVE('',#159,#161,#199,.T.);
#179=EDGE_CURVE('',#161,#162,#254,.T.);
#180=EDGE_CURVE('',#162,#160,#200,.T.);
#181=EDGE_CURVE('',#160,#162,#201,.T.);
#182=EDGE_CURVE('',#161,#159,#202,.T.);
#183=EDGE_CURVE('',#161,#163,#255,.T.);
#184=EDGE_CURVE('',#164,#163,#203,.T.);
#185=EDGE_CURVE('',#159,#164,#256,.T.);
#186=EDGE_CURVE('',#163,#164,#204,.T.);
#187=EDGE_CURVE('',#165,#166,#205,.T.);
#188=EDGE_CURVE('',#166,#163,#257,.T.);
#189=EDGE_CURVE('',#165,#164,#258,.T.);
#190=EDGE_CURVE('',#166,#165,#206,.T.);
#191=EDGE_CURVE('',#166,#167,#259,.T.);
#192=EDGE_CURVE('',#167,#168,#207,.T.);
#193=EDGE_CURVE('',#165,#168,#260,.T.);
#194=EDGE_CURVE('',#168,#167,#208,.T.);
#195=CIRCLE('',#327,0.3125);
#196=CIRCLE('',#329,0.3125);
#197=CIRCLE('',#331,1.25);
#198=CIRCLE('',#333,1.25);
#199=CIRCLE('',#336,1.25);
#200=CIRCLE('',#337,1.25);
#201=CIRCLE('',#339,1.25);
#202=CIRCLE('',#341,1.25);
#203=CIRCLE('',#343,1.5);
#204=CIRCLE('',#345,1.5);
#205=CIRCLE('',#347,1.5);
#206=CIRCLE('',#349,1.5);
#207=CIRCLE('',#351,1.2);
#208=CIRCLE('',#353,1.2);
#209=COLOUR_RGB('Strong Stone',0.576470588235294,0.54508278019379,0.392156862745098);
#210=COLOUR_RGB('Medium Umber',0.372533760585946,0.313725490196078,0.270572976272221);
#211=COLOUR_RGB('Light Gray',0.8,0.8,0.8);
#212=COLOUR_RGB('non-cutting part and shank',0.501960784313725,0.501960784313725,
0.501960784313725);
#213=CURVE_STYLE('',#227,POSITIVE_LENGTH_MEASURE(0.18),#315);
#214=CURVE_STYLE('',#228,POSITIVE_LENGTH_MEASURE(0.18),#315);
#215=CURVE_STYLE('',#229,POSITIVE_LENGTH_MEASURE(0.18),#315);
#216=CURVE_STYLE('',#230,POSITIVE_LENGTH_MEASURE(0.18),#315);
#217=CURVE_STYLE('',#231,POSITIVE_LENGTH_MEASURE(0.13),#209);
#218=CURVE_STYLE('',#232,POSITIVE_LENGTH_MEASURE(0.13),#209);
#219=CURVE_STYLE('',#233,POSITIVE_LENGTH_MEASURE(0.13),#210);
#220=CURVE_STYLE('',#234,POSITIVE_LENGTH_MEASURE(0.13),#210);
#221=CURVE_STYLE('',#235,POSITIVE_LENGTH_MEASURE(0.13),#209);
#222=CURVE_STYLE('',#236,POSITIVE_LENGTH_MEASURE(0.13),#209);
#223=CURVE_STYLE('',#237,POSITIVE_LENGTH_MEASURE(0.13),#210);
#224=CURVE_STYLE('',#238,POSITIVE_LENGTH_MEASURE(0.13),#209);
#225=CURVE_STYLE('',#239,POSITIVE_LENGTH_MEASURE(0.13),#209);
#226=CURVE_STYLE('',#240,POSITIVE_LENGTH_MEASURE(0.13),#209);
#227=DRAUGHTING_PRE_DEFINED_CURVE_FONT('continuous');
#228=DRAUGHTING_PRE_DEFINED_CURVE_FONT('continuous');
#229=DRAUGHTING_PRE_DEFINED_CURVE_FONT('continuous');
#230=DRAUGHTING_PRE_DEFINED_CURVE_FONT('continuous');
#231=DRAUGHTING_PRE_DEFINED_CURVE_FONT('continuous');
#232=DRAUGHTING_PRE_DEFINED_CURVE_FONT('continuous');
#233=DRAUGHTING_PRE_DEFINED_CURVE_FONT('continuous');
#234=DRAUGHTING_PRE_DEFINED_CURVE_FONT('continuous');
#235=DRAUGHTING_PRE_DEFINED_CURVE_FONT('continuous');
#236=DRAUGHTING_PRE_DEFINED_CURVE_FONT('continuous');
#237=DRAUGHTING_PRE_DEFINED_CURVE_FONT('continuous');
#238=DRAUGHTING_PRE_DEFINED_CURVE_FONT('continuous');
#239=DRAUGHTING_PRE_DEFINED_CURVE_FONT('continuous');
#240=DRAUGHTING_PRE_DEFINED_CURVE_FONT('continuous');
#241=TRIMMED_CURVE('',#245,(PARAMETER_VALUE(0.)),(PARAMETER_VALUE(1.)),
 .T.,.PARAMETER.);
#242=TRIMMED_CURVE('',#246,(PARAMETER_VALUE(0.)),(PARAMETER_VALUE(1.)),
 .T.,.PARAMETER.);
#243=TRIMMED_CURVE('',#247,(PARAMETER_VALUE(0.)),(PARAMETER_VALUE(1.)),
 .T.,.PARAMETER.);
#244=TRIMMED_CURVE('',#248,(PARAMETER_VALUE(0.)),(PARAMETER_VALUE(1.)),
 .T.,.PARAMETER.);
#245=LINE('',#454,#261);
#246=LINE('',#455,#262);
#247=LINE('',#456,#263);
#248=LINE('',#457,#264);
#249=LINE('',#471,#265);
#250=LINE('',#473,#266);
#251=LINE('',#477,#267);
#252=LINE('',#479,#268);
#253=LINE('',#486,#269);
#254=LINE('',#491,#270);
#255=LINE('',#499,#271);
#256=LINE('',#503,#272);
#257=LINE('',#510,#273);
#258=LINE('',#511,#274);
#259=LINE('',#515,#275);
#260=LINE('',#519,#276);
#261=VECTOR('',#358,0.318688719599595);
#262=VECTOR('',#359,1.32582521472491);
#263=VECTOR('',#360,1.25);
#264=VECTOR('',#361,1.);
#265=VECTOR('',#384,1.);
#266=VECTOR('',#385,1.);
#267=VECTOR('',#392,1.);
#268=VECTOR('',#393,1.);
#269=VECTOR('',#404,1.);
#270=VECTOR('',#407,1.);
#271=VECTOR('',#420,1.);
#272=VECTOR('',#423,1.);
#273=VECTOR('',#432,1.);
#274=VECTOR('',#433,1.);
#275=VECTOR('',#440,1.);
#276=VECTOR('',#443,1.);
#277=PRESENTATION_LAYER_ASSIGNMENT('1','Layer 1',(#453,#241,#242,#243,#244,
#317,#318,#321,#322,#323,#324,#325,#326,#42,#43));
#278=PRESENTATION_LAYER_ASSIGNMENT('2','Layer 2',(#319,#320));
#279=STYLED_ITEM('',(#296),#453);
#280=STYLED_ITEM('',(#297),#241);
#281=STYLED_ITEM('',(#298),#242);
#282=STYLED_ITEM('',(#299),#243);
#283=STYLED_ITEM('',(#300),#244);
#284=STYLED_ITEM('',(#301),#317);
#285=STYLED_ITEM('',(#302),#318);
#286=STYLED_ITEM('',(#303),#319);
#287=STYLED_ITEM('',(#304),#320);
#288=STYLED_ITEM('',(#305),#321);
#289=STYLED_ITEM('',(#306),#322);
#290=STYLED_ITEM('',(#307),#323);
#291=STYLED_ITEM('',(#308),#324);
#292=STYLED_ITEM('',(#309),#325);
#293=STYLED_ITEM('',(#310),#326);
#294=STYLED_ITEM('',(#311),#42);
#295=STYLED_ITEM('',(#312),#43);
#296=PRESENTATION_STYLE_ASSIGNMENT((#313));
#297=PRESENTATION_STYLE_ASSIGNMENT((#213));
#298=PRESENTATION_STYLE_ASSIGNMENT((#214));
#299=PRESENTATION_STYLE_ASSIGNMENT((#215));
#300=PRESENTATION_STYLE_ASSIGNMENT((#216));
#301=PRESENTATION_STYLE_ASSIGNMENT((#217));
#302=PRESENTATION_STYLE_ASSIGNMENT((#218));
#303=PRESENTATION_STYLE_ASSIGNMENT((#219));
#304=PRESENTATION_STYLE_ASSIGNMENT((#220));
#305=PRESENTATION_STYLE_ASSIGNMENT((#221));
#306=PRESENTATION_STYLE_ASSIGNMENT((#222));
#307=PRESENTATION_STYLE_ASSIGNMENT((#223));
#308=PRESENTATION_STYLE_ASSIGNMENT((#224));
#309=PRESENTATION_STYLE_ASSIGNMENT((#225));
#310=PRESENTATION_STYLE_ASSIGNMENT((#226));
#311=PRESENTATION_STYLE_ASSIGNMENT((#32));
#312=PRESENTATION_STYLE_ASSIGNMENT((#33));
#313=POINT_STYLE('',#314,POSITIVE_LENGTH_MEASURE(3.),#315);
#314=PRE_DEFINED_POINT_MARKER_SYMBOL('plus');
#315=DRAUGHTING_PRE_DEFINED_COLOUR('blue');
#316=AXIS2_PLACEMENT_3D('',#452,#356,#357);
#317=AXIS2_PLACEMENT_3D('',#458,#362,#363);
#318=AXIS2_PLACEMENT_3D('',#459,#364,#365);
#319=AXIS2_PLACEMENT_3D('CIP',#460,#366,#367);
#320=AXIS2_PLACEMENT_3D('PCS',#461,#368,#369);
#321=AXIS2_PLACEMENT_3D('MCS',#462,#370,#371);
#322=AXIS2_PLACEMENT_3D('',#463,#372,#373);
#323=AXIS2_PLACEMENT_3D('STEP_TEMP_8_1',#464,#374,#375);
#324=AXIS2_PLACEMENT_3D('',#465,#376,#377);
#325=AXIS2_PLACEMENT_3D('',#466,#378,#379);
#326=AXIS2_PLACEMENT_3D('',#467,#380,#381);
#327=AXIS2_PLACEMENT_3D('',#468,#382,#383);
#328=AXIS2_PLACEMENT_3D('',#474,#386,#387);
#329=AXIS2_PLACEMENT_3D('',#475,#388,#389);
#330=AXIS2_PLACEMENT_3D('',#476,#390,#391);
#331=AXIS2_PLACEMENT_3D('',#481,#394,#395);
#332=AXIS2_PLACEMENT_3D('',#482,#396,#397);
#333=AXIS2_PLACEMENT_3D('',#483,#398,#399);
#334=AXIS2_PLACEMENT_3D('',#484,#400,#401);
#335=AXIS2_PLACEMENT_3D('',#485,#402,#403);
#336=AXIS2_PLACEMENT_3D('',#489,#405,#406);
#337=AXIS2_PLACEMENT_3D('',#493,#408,#409);
#338=AXIS2_PLACEMENT_3D('',#494,#410,#411);
#339=AXIS2_PLACEMENT_3D('',#495,#412,#413);
#340=AXIS2_PLACEMENT_3D('',#496,#414,#415);
#341=AXIS2_PLACEMENT_3D('',#497,#416,#417);
#342=AXIS2_PLACEMENT_3D('',#498,#418,#419);
#343=AXIS2_PLACEMENT_3D('',#501,#421,#422);
#344=AXIS2_PLACEMENT_3D('',#504,#424,#425);
#345=AXIS2_PLACEMENT_3D('',#505,#426,#427);
#346=AXIS2_PLACEMENT_3D('',#506,#428,#429);
#347=AXIS2_PLACEMENT_3D('',#507,#430,#431);
#348=AXIS2_PLACEMENT_3D('',#512,#434,#435);
#349=AXIS2_PLACEMENT_3D('',#513,#436,#437);
#350=AXIS2_PLACEMENT_3D('',#514,#438,#439);
#351=AXIS2_PLACEMENT_3D('',#517,#441,#442);
#352=AXIS2_PLACEMENT_3D('',#520,#444,#445);
#353=AXIS2_PLACEMENT_3D('',#521,#446,#447);
#354=AXIS2_PLACEMENT_3D('',#522,#448,#449);
#355=AXIS2_PLACEMENT_3D('',#523,#450,#451);
#356=DIRECTION('',(0.,0.,1.));
#357=DIRECTION('',(1.,0.,0.));
#358=DIRECTION('',(-0.980580675690916,0.,0.196116135138203));
#359=DIRECTION('',(-0.707106781186548,0.,0.707106781186548));
#360=DIRECTION('',(1.,0.,0.));
#361=DIRECTION('',(0.,0.,-1.));
#362=DIRECTION('',(0.,0.,1.));
#363=DIRECTION('',(1.,0.,0.));
#364=DIRECTION('',(0.,0.,1.));
#365=DIRECTION('',(1.,0.,0.));
#366=DIRECTION('',(0.,0.,1.));
#367=DIRECTION('',(1.,0.,0.));
#368=DIRECTION('',(0.,0.,1.));
#369=DIRECTION('',(1.,0.,0.));
#370=DIRECTION('',(0.,0.,1.));
#371=DIRECTION('',(1.,0.,0.));
#372=DIRECTION('',(0.,0.,1.));
#373=DIRECTION('',(1.,0.,0.));
#374=DIRECTION('',(0.,0.,1.));
#375=DIRECTION('',(1.,0.,0.));
#376=DIRECTION('',(0.,0.,1.));
#377=DIRECTION('',(1.,0.,0.));
#378=DIRECTION('',(0.,0.,1.));
#379=DIRECTION('',(1.,0.,0.));
#380=DIRECTION('',(0.,0.,1.));
#381=DIRECTION('',(1.,0.,0.));
#382=DIRECTION('',(0.,0.,1.));
#383=DIRECTION('',(0.,-1.,0.));
#384=DIRECTION('',(0.,0.980580675690916,-0.196116135138203));
#385=DIRECTION('',(0.,-0.980580675690916,-0.196116135138203));
#386=DIRECTION('',(0.,0.,1.));
#387=DIRECTION('',(0.,-1.,-2.12971175801389E-17));
#388=DIRECTION('',(0.,0.,-1.));
#389=DIRECTION('',(0.,-1.,0.));
#390=DIRECTION('',(0.,0.,1.));
#391=DIRECTION('',(0.,-1.,-2.12971175801389E-17));
#392=DIRECTION('',(0.,0.707106781186547,0.707106781186547));
#393=DIRECTION('',(0.,-0.707106781186547,0.707106781186547));
#394=DIRECTION('',(0.,0.,-1.));
#395=DIRECTION('',(0.,-1.,0.));
#396=DIRECTION('',(0.,0.,1.));
#397=DIRECTION('',(0.,-1.,9.40352835065023E-17));
#398=DIRECTION('',(0.,0.,-1.));
#399=DIRECTION('',(0.,1.,0.));
#400=DIRECTION('',(0.,0.,-1.));
#401=DIRECTION('',(1.,0.,0.));
#402=DIRECTION('',(0.,0.,1.));
#403=DIRECTION('',(0.,-1.,9.40352835065023E-17));
#404=DIRECTION('',(0.,0.,-1.));
#405=DIRECTION('',(0.,0.,-1.));
#406=DIRECTION('',(0.,1.,0.));
#407=DIRECTION('',(0.,0.,-1.));
#408=DIRECTION('',(0.,0.,1.));
#409=DIRECTION('',(0.,-1.,0.));
#410=DIRECTION('',(0.,0.,-1.));
#411=DIRECTION('',(0.,1.,0.));
#412=DIRECTION('',(0.,0.,1.));
#413=DIRECTION('',(0.,1.,0.));
#414=DIRECTION('',(0.,0.,1.));
#415=DIRECTION('',(-1.,0.,0.));
#416=DIRECTION('',(0.,0.,-1.));
#417=DIRECTION('',(0.,-1.,0.));
#418=DIRECTION('',(0.,0.,-1.));
#419=DIRECTION('',(0.,1.,0.));
#420=DIRECTION('',(0.,-0.258819045102587,0.965925826289051));
#421=DIRECTION('',(0.,0.,1.));
#422=DIRECTION('',(0.,1.,0.));
#423=DIRECTION('',(0.,0.258819045102587,0.965925826289051));
#424=DIRECTION('',(0.,0.,1.));
#425=DIRECTION('',(0.,-1.,3.76799879834769E-16));
#426=DIRECTION('',(0.,0.,1.));
#427=DIRECTION('',(0.,-1.,0.));
#428=DIRECTION('',(0.,0.,1.));
#429=DIRECTION('',(0.,-1.,3.76799879834769E-16));
#430=DIRECTION('',(0.,0.,-1.));
#431=DIRECTION('',(0.,1.,0.));
#432=DIRECTION('',(0.,0.,-1.));
#433=DIRECTION('',(0.,0.,-1.));
#434=DIRECTION('',(0.,0.,-1.));
#435=DIRECTION('',(0.,1.,0.));
#436=DIRECTION('',(0.,0.,-1.));
#437=DIRECTION('',(0.,-1.,0.));
#438=DIRECTION('',(0.,0.,-1.));
#439=DIRECTION('',(0.,1.,0.));
#440=DIRECTION('',(0.,0.707106781186498,0.707106781186598));
#441=DIRECTION('',(0.,0.,-1.));
#442=DIRECTION('',(0.,-1.,0.));
#443=DIRECTION('',(0.,-0.707106781186498,0.707106781186598));
#444=DIRECTION('',(0.,0.,-1.));
#445=DIRECTION('',(0.,1.,5.54363122097746E-17));
#446=DIRECTION('',(0.,0.,-1.));
#447=DIRECTION('',(0.,1.,0.));
#448=DIRECTION('',(0.,0.,-1.));
#449=DIRECTION('',(0.,1.,5.54363122097746E-17));
#450=DIRECTION('',(0.,0.,-1.));
#451=DIRECTION('',(0.,1.,0.));
#452=CARTESIAN_POINT('',(0.,0.,0.));
#453=CARTESIAN_POINT('CRP',(-1.25,0.,1.));
#454=CARTESIAN_POINT('',(0.,0.,0.));
#455=CARTESIAN_POINT('',(-0.3125,0.,0.0625));
#456=CARTESIAN_POINT('',(-1.25,0.,1.));
#457=CARTESIAN_POINT('',(0.,0.,1.));
#458=CARTESIAN_POINT('',(0.,0.,0.));
#459=CARTESIAN_POINT('',(0.,0.,0.));
#460=CARTESIAN_POINT('',(0.,0.,0.));
#461=CARTESIAN_POINT('',(0.,0.,45.));
#462=CARTESIAN_POINT('',(0.,0.,9.9));
#463=CARTESIAN_POINT('',(0.,0.,0.));
#464=CARTESIAN_POINT('',(0.,0.,0.));
#465=CARTESIAN_POINT('',(0.,0.,0.));
#466=CARTESIAN_POINT('',(0.,0.,0.));
#467=CARTESIAN_POINT('',(0.,0.,0.));
#468=CARTESIAN_POINT('',(0.,0.,0.06250000000001));
#469=CARTESIAN_POINT('',(0.,-0.3125,0.0625));
#470=CARTESIAN_POINT('',(0.,0.3125,0.0625));
#471=CARTESIAN_POINT('',(0.,-0.3125,0.0625));
#472=CARTESIAN_POINT('',(0.,0.,1.060262988517E-14));
#473=CARTESIAN_POINT('',(0.,0.3125,0.0625));
#474=CARTESIAN_POINT('',(0.,0.,0.03187500000001));
#475=CARTESIAN_POINT('',(0.,0.,0.0625));
#476=CARTESIAN_POINT('',(0.,0.,0.03187500000001));
#477=CARTESIAN_POINT('',(0.,1.25,1.));
#478=CARTESIAN_POINT('',(0.,1.25,1.));
#479=CARTESIAN_POINT('',(0.,-1.25,1.));
#480=CARTESIAN_POINT('',(0.,-1.25,1.));
#481=CARTESIAN_POINT('',(0.,0.,1.));
#482=CARTESIAN_POINT('',(0.,0.,0.53125));
#483=CARTESIAN_POINT('',(0.,0.,1.));
#484=CARTESIAN_POINT('',(150.,150.,1.));
#485=CARTESIAN_POINT('',(0.,0.,0.53125));
#486=CARTESIAN_POINT('',(0.,1.25,6.966987298108));
#487=CARTESIAN_POINT('',(0.,1.25,6.966987298108));
#488=CARTESIAN_POINT('',(0.,1.25,1.));
#489=CARTESIAN_POINT('',(0.,0.,6.966987298108));
#490=CARTESIAN_POINT('',(0.,-1.25,6.966987298108));
#491=CARTESIAN_POINT('',(0.,-1.25,6.966987298108));
#492=CARTESIAN_POINT('',(0.,-1.25,1.));
#493=CARTESIAN_POINT('',(0.,0.,1.));
#494=CARTESIAN_POINT('',(0.,0.,47.25));
#495=CARTESIAN_POINT('',(0.,0.,1.));
#496=CARTESIAN_POINT('',(-150.,150.,1.));
#497=CARTESIAN_POINT('',(0.,0.,6.966987298108));
#498=CARTESIAN_POINT('',(0.,0.,47.25));
#499=CARTESIAN_POINT('',(0.,-1.5,7.9));
#500=CARTESIAN_POINT('',(0.,-1.5,7.9));
#501=CARTESIAN_POINT('',(0.,0.,7.9));
#502=CARTESIAN_POINT('',(0.,1.5,7.9));
#503=CARTESIAN_POINT('',(0.,1.5,7.9));
#504=CARTESIAN_POINT('',(0.,0.,7.433493649054));
#505=CARTESIAN_POINT('',(0.,0.,7.9));
#506=CARTESIAN_POINT('',(0.,0.,7.433493649054));
#507=CARTESIAN_POINT('',(0.,0.,44.7));
#508=CARTESIAN_POINT('',(0.,1.5,44.7));
#509=CARTESIAN_POINT('',(0.,-1.5,44.7));
#510=CARTESIAN_POINT('',(0.,-1.5,44.7));
#511=CARTESIAN_POINT('',(0.,1.5,44.7));
#512=CARTESIAN_POINT('',(0.,0.,47.25));
#513=CARTESIAN_POINT('',(0.,0.,44.7));
#514=CARTESIAN_POINT('',(0.,0.,47.25));
#515=CARTESIAN_POINT('',(0.,-1.2,45.));
#516=CARTESIAN_POINT('',(0.,-1.2,45.));
#517=CARTESIAN_POINT('',(0.,0.,45.));
#518=CARTESIAN_POINT('',(0.,1.2,45.));
#519=CARTESIAN_POINT('',(0.,1.2,45.));
#520=CARTESIAN_POINT('',(0.,0.,44.85));
#521=CARTESIAN_POINT('',(0.,0.,45.));
#522=CARTESIAN_POINT('',(0.,0.,44.85));
#523=CARTESIAN_POINT('',(0.,0.,45.));
#524=MECHANICAL_DESIGN_GEOMETRIC_PRESENTATION_REPRESENTATION('',(#279,#280,
#281,#282,#283,#284,#285,#286,#287,#288,#289,#290,#291,#292,#293,#294,#295),
#525);
#525=(
GEOMETRIC_REPRESENTATION_CONTEXT(3)
GLOBAL_UNCERTAINTY_ASSIGNED_CONTEXT((#526))
GLOBAL_UNIT_ASSIGNED_CONTEXT((#532,#528,#527))
REPRESENTATION_CONTEXT('DLE0250S030P090','TOP_LEVEL_ASSEMBLY_PART')
);
#526=UNCERTAINTY_MEASURE_WITH_UNIT(LENGTH_MEASURE(2.E-5),#532,
'DISTANCE_ACCURACY_VALUE','Maximum Tolerance applied to model');
#527=(
NAMED_UNIT(*)
SI_UNIT($,.STERADIAN.)
SOLID_ANGLE_UNIT()
);
#528=(
CONVERSION_BASED_UNIT('DEGREE',#530)
NAMED_UNIT(#529)
PLANE_ANGLE_UNIT()
);
#529=DIMENSIONAL_EXPONENTS(0.,0.,0.,0.,0.,0.,0.);
#530=PLANE_ANGLE_MEASURE_WITH_UNIT(PLANE_ANGLE_MEASURE(0.0174532925),#531);
#531=(
NAMED_UNIT(*)
PLANE_ANGLE_UNIT()
SI_UNIT($,.RADIAN.)
);
#532=(
LENGTH_UNIT()
NAMED_UNIT(*)
SI_UNIT(.MILLI.,.METRE.)
);
ENDSEC;
END-ISO-10303-21;
