ISO-10303-21;
HEADER;
/* Generated by software containing ST-Developer
 * from STEP Tools, Inc. (www.steptools.com) 
 */
/* OPTION: using custom schema-name function */

FILE_DESCRIPTION(
/* description */ (''),
/* implementation_level */ '2;1');

FILE_NAME(
/* name */ 'DLE0150S030P090.stp',
/* time_stamp */ '2023-03-14T11:41:56+09:00',
/* author */ (''),
/* organization */ (''),
/* preprocessor_version */ 'ST-DEVELOPER v16',
/* originating_system */ 'SIEMENS PLM Software NX 10.0',
/* authorisation */ '');

FILE_SCHEMA (('AUTOMOTIVE_DESIGN { 1 0 10303 214 3 1 1 1 }'));
ENDSEC;

DATA;
#10=CONSTRUCTIVE_GEOMETRY_REPRESENTATION_RELATIONSHIP(
'supplemental geometry','',#26,#11);
#11=CONSTRUCTIVE_GEOMETRY_REPRESENTATION('supplemental geometry',(#345,
#346,#347,#348,#349,#350,#351,#352,#353,#354),#575);
#12=GEOMETRICALLY_BOUNDED_WIREFRAME_SHAPE_REPRESENTATION(
'DLE0150S030P090-None',(#27),#575);
#13=SHAPE_REPRESENTATION_RELATIONSHIP('None',
'relationship between DLE0150S030P090-None and DLE0150S030P090-None',#26,
#15);
#14=SHAPE_REPRESENTATION_RELATIONSHIP('None',
'relationship between DLE0150S030P090-None and DLE0150S030P090-None',#26,
#12);
#15=ADVANCED_BREP_SHAPE_REPRESENTATION('DLE0150S030P090-None',(#42,#43),
#575);
#16=SHAPE_DEFINITION_REPRESENTATION(#17,#26);
#17=PRODUCT_DEFINITION_SHAPE('','SHAPE FOR DLE0150S030P090_ASM.',#18);
#18=PRODUCT_DEFINITION('part definition','',#20,#19);
#19=PRODUCT_DEFINITION_CONTEXT('part definition',#25,'design');
#20=PRODUCT_DEFINITION_FORMATION_WITH_SPECIFIED_SOURCE(' ',' ',#22,
 .NOT_KNOWN.);
#21=PRODUCT_RELATED_PRODUCT_CATEGORY('part','',(#22));
#22=PRODUCT('DLE0150S030P090_ASM','DLE0150S030P090_ASM','NOT SPECIFIED',
(#23));
#23=PRODUCT_CONTEXT('',#25,'mechanical');
#24=APPLICATION_PROTOCOL_DEFINITION('international standard',
'automotive_design',2010,#25);
#25=APPLICATION_CONTEXT(
'core data for automotive mechanical design processes');
#26=SHAPE_REPRESENTATION('DLE0150S030P090-None',(#344),#575);
#27=GEOMETRIC_CURVE_SET('None',(#495,#265,#266,#267,#268));
#28=CYLINDRICAL_SURFACE('',#366,0.75);
#29=CYLINDRICAL_SURFACE('',#369,0.75);
#30=CYLINDRICAL_SURFACE('',#375,1.5);
#31=CYLINDRICAL_SURFACE('',#377,1.5);
#32=SURFACE_STYLE_USAGE(.BOTH.,#34);
#33=SURFACE_STYLE_USAGE(.BOTH.,#35);
#34=SURFACE_SIDE_STYLE('',(#36));
#35=SURFACE_SIDE_STYLE('',(#37));
#36=SURFACE_STYLE_FILL_AREA(#38);
#37=SURFACE_STYLE_FILL_AREA(#39);
#38=FILL_AREA_STYLE('',(#40));
#39=FILL_AREA_STYLE('',(#41));
#40=FILL_AREA_STYLE_COLOUR('',#235);
#41=FILL_AREA_STYLE_COLOUR('',#236);
#42=MANIFOLD_SOLID_BREP('CUT',#44);
#43=MANIFOLD_SOLID_BREP('NOCUT',#45);
#44=CLOSED_SHELL('',(#49,#50,#51,#52,#53));
#45=CLOSED_SHELL('',(#54,#55,#56,#57,#58,#59,#60,#61,#62,#63,#64,#65));
#46=PLANE('',#362);
#47=PLANE('',#382);
#48=PLANE('',#386);
#49=ADVANCED_FACE('',(#76),#66,.T.);
#50=ADVANCED_FACE('',(#77),#67,.T.);
#51=ADVANCED_FACE('',(#78),#68,.T.);
#52=ADVANCED_FACE('',(#79),#46,.F.);
#53=ADVANCED_FACE('',(#80),#69,.T.);
#54=ADVANCED_FACE('',(#81),#28,.T.);
#55=ADVANCED_FACE('',(#82),#29,.T.);
#56=ADVANCED_FACE('',(#83),#70,.T.);
#57=ADVANCED_FACE('',(#84),#71,.T.);
#58=ADVANCED_FACE('',(#85),#30,.T.);
#59=ADVANCED_FACE('',(#86),#31,.T.);
#60=ADVANCED_FACE('',(#87),#72,.T.);
#61=ADVANCED_FACE('',(#88),#73,.T.);
#62=ADVANCED_FACE('',(#89),#47,.F.);
#63=ADVANCED_FACE('',(#90),#74,.T.);
#64=ADVANCED_FACE('',(#91),#48,.F.);
#65=ADVANCED_FACE('',(#92),#75,.T.);
#66=CONICAL_SURFACE('',#356,0.095625,78.69006752598);
#67=CONICAL_SURFACE('',#358,0.095625,78.69006752598);
#68=CONICAL_SURFACE('',#360,0.44375,45.);
#69=CONICAL_SURFACE('',#363,0.44375,45.);
#70=CONICAL_SURFACE('',#371,1.125,15.);
#71=CONICAL_SURFACE('',#373,1.125,15.);
#72=CONICAL_SURFACE('',#379,1.35,45.);
#73=CONICAL_SURFACE('',#381,1.35,45.);
#74=CONICAL_SURFACE('',#384,0.725,45.);
#75=CONICAL_SURFACE('',#387,0.725,45.);
#76=FACE_OUTER_BOUND('',#93,.T.);
#77=FACE_OUTER_BOUND('',#94,.T.);
#78=FACE_OUTER_BOUND('',#95,.T.);
#79=FACE_OUTER_BOUND('',#96,.T.);
#80=FACE_OUTER_BOUND('',#97,.T.);
#81=FACE_OUTER_BOUND('',#98,.T.);
#82=FACE_OUTER_BOUND('',#99,.T.);
#83=FACE_OUTER_BOUND('',#100,.T.);
#84=FACE_OUTER_BOUND('',#101,.T.);
#85=FACE_OUTER_BOUND('',#102,.T.);
#86=FACE_OUTER_BOUND('',#103,.T.);
#87=FACE_OUTER_BOUND('',#104,.T.);
#88=FACE_OUTER_BOUND('',#105,.T.);
#89=FACE_OUTER_BOUND('',#106,.T.);
#90=FACE_OUTER_BOUND('',#107,.T.);
#91=FACE_OUTER_BOUND('',#108,.T.);
#92=FACE_OUTER_BOUND('',#109,.T.);
#93=EDGE_LOOP('',(#110,#111,#112));
#94=EDGE_LOOP('',(#113,#114,#115));
#95=EDGE_LOOP('',(#116,#117,#118,#119));
#96=EDGE_LOOP('',(#120,#121));
#97=EDGE_LOOP('',(#122,#123,#124,#125));
#98=EDGE_LOOP('',(#126,#127,#128,#129));
#99=EDGE_LOOP('',(#130,#131,#132,#133));
#100=EDGE_LOOP('',(#134,#135,#136,#137));
#101=EDGE_LOOP('',(#138,#139,#140,#141));
#102=EDGE_LOOP('',(#142,#143,#144,#145));
#103=EDGE_LOOP('',(#146,#147,#148,#149));
#104=EDGE_LOOP('',(#150,#151,#152,#153));
#105=EDGE_LOOP('',(#154,#155,#156,#157));
#106=EDGE_LOOP('',(#158,#159));
#107=EDGE_LOOP('',(#160,#161,#162,#163));
#108=EDGE_LOOP('',(#164,#165));
#109=EDGE_LOOP('',(#166,#167,#168,#169));
#110=ORIENTED_EDGE('',*,*,#187,.F.);
#111=ORIENTED_EDGE('',*,*,#188,.T.);
#112=ORIENTED_EDGE('',*,*,#189,.F.);
#113=ORIENTED_EDGE('',*,*,#188,.F.);
#114=ORIENTED_EDGE('',*,*,#190,.T.);
#115=ORIENTED_EDGE('',*,*,#189,.T.);
#116=ORIENTED_EDGE('',*,*,#191,.F.);
#117=ORIENTED_EDGE('',*,*,#190,.F.);
#118=ORIENTED_EDGE('',*,*,#192,.T.);
#119=ORIENTED_EDGE('',*,*,#193,.T.);
#120=ORIENTED_EDGE('',*,*,#193,.F.);
#121=ORIENTED_EDGE('',*,*,#194,.F.);
#122=ORIENTED_EDGE('',*,*,#192,.F.);
#123=ORIENTED_EDGE('',*,*,#187,.T.);
#124=ORIENTED_EDGE('',*,*,#191,.T.);
#125=ORIENTED_EDGE('',*,*,#194,.T.);
#126=ORIENTED_EDGE('',*,*,#195,.T.);
#127=ORIENTED_EDGE('',*,*,#196,.T.);
#128=ORIENTED_EDGE('',*,*,#197,.T.);
#129=ORIENTED_EDGE('',*,*,#198,.F.);
#130=ORIENTED_EDGE('',*,*,#199,.T.);
#131=ORIENTED_EDGE('',*,*,#196,.F.);
#132=ORIENTED_EDGE('',*,*,#200,.T.);
#133=ORIENTED_EDGE('',*,*,#198,.T.);
#134=ORIENTED_EDGE('',*,*,#200,.F.);
#135=ORIENTED_EDGE('',*,*,#201,.T.);
#136=ORIENTED_EDGE('',*,*,#202,.F.);
#137=ORIENTED_EDGE('',*,*,#203,.F.);
#138=ORIENTED_EDGE('',*,*,#204,.F.);
#139=ORIENTED_EDGE('',*,*,#201,.F.);
#140=ORIENTED_EDGE('',*,*,#195,.F.);
#141=ORIENTED_EDGE('',*,*,#203,.T.);
#142=ORIENTED_EDGE('',*,*,#205,.T.);
#143=ORIENTED_EDGE('',*,*,#206,.T.);
#144=ORIENTED_EDGE('',*,*,#204,.T.);
#145=ORIENTED_EDGE('',*,*,#207,.F.);
#146=ORIENTED_EDGE('',*,*,#202,.T.);
#147=ORIENTED_EDGE('',*,*,#206,.F.);
#148=ORIENTED_EDGE('',*,*,#208,.T.);
#149=ORIENTED_EDGE('',*,*,#207,.T.);
#150=ORIENTED_EDGE('',*,*,#208,.F.);
#151=ORIENTED_EDGE('',*,*,#209,.T.);
#152=ORIENTED_EDGE('',*,*,#210,.T.);
#153=ORIENTED_EDGE('',*,*,#211,.F.);
#154=ORIENTED_EDGE('',*,*,#212,.T.);
#155=ORIENTED_EDGE('',*,*,#209,.F.);
#156=ORIENTED_EDGE('',*,*,#205,.F.);
#157=ORIENTED_EDGE('',*,*,#211,.T.);
#158=ORIENTED_EDGE('',*,*,#212,.F.);
#159=ORIENTED_EDGE('',*,*,#210,.F.);
#160=ORIENTED_EDGE('',*,*,#213,.T.);
#161=ORIENTED_EDGE('',*,*,#199,.F.);
#162=ORIENTED_EDGE('',*,*,#214,.F.);
#163=ORIENTED_EDGE('',*,*,#215,.T.);
#164=ORIENTED_EDGE('',*,*,#215,.F.);
#165=ORIENTED_EDGE('',*,*,#216,.F.);
#166=ORIENTED_EDGE('',*,*,#214,.T.);
#167=ORIENTED_EDGE('',*,*,#197,.F.);
#168=ORIENTED_EDGE('',*,*,#213,.F.);
#169=ORIENTED_EDGE('',*,*,#216,.T.);
#170=VERTEX_POINT('',#511);
#171=VERTEX_POINT('',#512);
#172=VERTEX_POINT('',#514);
#173=VERTEX_POINT('',#520);
#174=VERTEX_POINT('',#522);
#175=VERTEX_POINT('',#529);
#176=VERTEX_POINT('',#530);
#177=VERTEX_POINT('',#532);
#178=VERTEX_POINT('',#534);
#179=VERTEX_POINT('',#541);
#180=VERTEX_POINT('',#543);
#181=VERTEX_POINT('',#549);
#182=VERTEX_POINT('',#550);
#183=VERTEX_POINT('',#557);
#184=VERTEX_POINT('',#559);
#185=VERTEX_POINT('',#566);
#186=VERTEX_POINT('',#568);
#187=EDGE_CURVE('',#170,#171,#217,.T.);
#188=EDGE_CURVE('',#170,#172,#273,.T.);
#189=EDGE_CURVE('',#171,#172,#274,.T.);
#190=EDGE_CURVE('',#170,#171,#218,.T.);
#191=EDGE_CURVE('',#171,#173,#275,.T.);
#192=EDGE_CURVE('',#170,#174,#276,.T.);
#193=EDGE_CURVE('',#174,#173,#219,.T.);
#194=EDGE_CURVE('',#173,#174,#220,.T.);
#195=EDGE_CURVE('',#175,#176,#221,.T.);
#196=EDGE_CURVE('',#176,#177,#277,.T.);
#197=EDGE_CURVE('',#177,#178,#222,.T.);
#198=EDGE_CURVE('',#175,#178,#278,.T.);
#199=EDGE_CURVE('',#178,#177,#223,.T.);
#200=EDGE_CURVE('',#176,#175,#224,.T.);
#201=EDGE_CURVE('',#176,#179,#279,.T.);
#202=EDGE_CURVE('',#180,#179,#225,.T.);
#203=EDGE_CURVE('',#175,#180,#280,.T.);
#204=EDGE_CURVE('',#179,#180,#226,.T.);
#205=EDGE_CURVE('',#181,#182,#227,.T.);
#206=EDGE_CURVE('',#182,#179,#281,.T.);
#207=EDGE_CURVE('',#181,#180,#282,.T.);
#208=EDGE_CURVE('',#182,#181,#228,.T.);
#209=EDGE_CURVE('',#182,#183,#283,.T.);
#210=EDGE_CURVE('',#183,#184,#229,.T.);
#211=EDGE_CURVE('',#181,#184,#284,.T.);
#212=EDGE_CURVE('',#184,#183,#230,.T.);
#213=EDGE_CURVE('',#185,#177,#285,.T.);
#214=EDGE_CURVE('',#186,#178,#286,.T.);
#215=EDGE_CURVE('',#186,#185,#231,.T.);
#216=EDGE_CURVE('',#185,#186,#232,.T.);
#217=CIRCLE('',#355,0.1875);
#218=CIRCLE('',#357,0.1875);
#219=CIRCLE('',#359,0.7);
#220=CIRCLE('',#361,0.7);
#221=CIRCLE('',#364,0.7499999999998);
#222=CIRCLE('',#365,0.75);
#223=CIRCLE('',#367,0.75);
#224=CIRCLE('',#368,0.7499999999998);
#225=CIRCLE('',#370,1.5);
#226=CIRCLE('',#372,1.5);
#227=CIRCLE('',#374,1.5);
#228=CIRCLE('',#376,1.5);
#229=CIRCLE('',#378,1.2);
#230=CIRCLE('',#380,1.2);
#231=CIRCLE('',#383,0.7);
#232=CIRCLE('',#385,0.7);
#233=COLOUR_RGB('Strong Stone',0.576470588235294,0.54508278019379,0.392156862745098);
#234=COLOUR_RGB('Medium Umber',0.372533760585946,0.313725490196078,0.270572976272221);
#235=COLOUR_RGB('Light Gray',0.8,0.8,0.8);
#236=COLOUR_RGB('non-cutting part and shank',0.501960784313725,0.501960784313725,
0.501960784313725);
#237=CURVE_STYLE('',#251,POSITIVE_LENGTH_MEASURE(0.18),#343);
#238=CURVE_STYLE('',#252,POSITIVE_LENGTH_MEASURE(0.18),#343);
#239=CURVE_STYLE('',#253,POSITIVE_LENGTH_MEASURE(0.18),#343);
#240=CURVE_STYLE('',#254,POSITIVE_LENGTH_MEASURE(0.18),#343);
#241=CURVE_STYLE('',#255,POSITIVE_LENGTH_MEASURE(0.13),#233);
#242=CURVE_STYLE('',#256,POSITIVE_LENGTH_MEASURE(0.13),#233);
#243=CURVE_STYLE('',#257,POSITIVE_LENGTH_MEASURE(0.13),#234);
#244=CURVE_STYLE('',#258,POSITIVE_LENGTH_MEASURE(0.13),#234);
#245=CURVE_STYLE('',#259,POSITIVE_LENGTH_MEASURE(0.13),#233);
#246=CURVE_STYLE('',#260,POSITIVE_LENGTH_MEASURE(0.13),#233);
#247=CURVE_STYLE('',#261,POSITIVE_LENGTH_MEASURE(0.13),#234);
#248=CURVE_STYLE('',#262,POSITIVE_LENGTH_MEASURE(0.13),#233);
#249=CURVE_STYLE('',#263,POSITIVE_LENGTH_MEASURE(0.13),#233);
#250=CURVE_STYLE('',#264,POSITIVE_LENGTH_MEASURE(0.13),#233);
#251=DRAUGHTING_PRE_DEFINED_CURVE_FONT('continuous');
#252=DRAUGHTING_PRE_DEFINED_CURVE_FONT('continuous');
#253=DRAUGHTING_PRE_DEFINED_CURVE_FONT('continuous');
#254=DRAUGHTING_PRE_DEFINED_CURVE_FONT('continuous');
#255=DRAUGHTING_PRE_DEFINED_CURVE_FONT('continuous');
#256=DRAUGHTING_PRE_DEFINED_CURVE_FONT('continuous');
#257=DRAUGHTING_PRE_DEFINED_CURVE_FONT('continuous');
#258=DRAUGHTING_PRE_DEFINED_CURVE_FONT('continuous');
#259=DRAUGHTING_PRE_DEFINED_CURVE_FONT('continuous');
#260=DRAUGHTING_PRE_DEFINED_CURVE_FONT('continuous');
#261=DRAUGHTING_PRE_DEFINED_CURVE_FONT('continuous');
#262=DRAUGHTING_PRE_DEFINED_CURVE_FONT('continuous');
#263=DRAUGHTING_PRE_DEFINED_CURVE_FONT('continuous');
#264=DRAUGHTING_PRE_DEFINED_CURVE_FONT('continuous');
#265=TRIMMED_CURVE('',#269,(PARAMETER_VALUE(0.)),(PARAMETER_VALUE(1.)),
 .T.,.PARAMETER.);
#266=TRIMMED_CURVE('',#270,(PARAMETER_VALUE(0.)),(PARAMETER_VALUE(1.)),
 .T.,.PARAMETER.);
#267=TRIMMED_CURVE('',#271,(PARAMETER_VALUE(0.)),(PARAMETER_VALUE(1.)),
 .T.,.PARAMETER.);
#268=TRIMMED_CURVE('',#272,(PARAMETER_VALUE(0.)),(PARAMETER_VALUE(1.)),
 .T.,.PARAMETER.);
#269=LINE('',#496,#287);
#270=LINE('',#497,#288);
#271=LINE('',#498,#289);
#272=LINE('',#499,#290);
#273=LINE('',#513,#291);
#274=LINE('',#515,#292);
#275=LINE('',#519,#293);
#276=LINE('',#521,#294);
#277=LINE('',#531,#295);
#278=LINE('',#535,#296);
#279=LINE('',#540,#297);
#280=LINE('',#544,#298);
#281=LINE('',#551,#299);
#282=LINE('',#552,#300);
#283=LINE('',#556,#301);
#284=LINE('',#560,#302);
#285=LINE('',#565,#303);
#286=LINE('',#567,#304);
#287=VECTOR('',#390,0.191213231759697);
#288=VECTOR('',#391,0.724784450716151);
#289=VECTOR('',#392,0.7);
#290=VECTOR('',#393,0.55);
#291=VECTOR('',#416,1.);
#292=VECTOR('',#417,1.);
#293=VECTOR('',#424,1.);
#294=VECTOR('',#425,1.);
#295=VECTOR('',#438,1.);
#296=VECTOR('',#441,1.);
#297=VECTOR('',#450,1.);
#298=VECTOR('',#453,1.);
#299=VECTOR('',#462,1.);
#300=VECTOR('',#463,1.);
#301=VECTOR('',#470,1.);
#302=VECTOR('',#473,1.);
#303=VECTOR('',#482,1.);
#304=VECTOR('',#483,1.);
#305=PRESENTATION_LAYER_ASSIGNMENT('1','Layer 1',(#495,#265,#266,#267,#268,
#345,#346,#349,#350,#351,#352,#353,#354,#42,#43));
#306=PRESENTATION_LAYER_ASSIGNMENT('2','Layer 2',(#347,#348));
#307=STYLED_ITEM('',(#324),#495);
#308=STYLED_ITEM('',(#325),#265);
#309=STYLED_ITEM('',(#326),#266);
#310=STYLED_ITEM('',(#327),#267);
#311=STYLED_ITEM('',(#328),#268);
#312=STYLED_ITEM('',(#329),#345);
#313=STYLED_ITEM('',(#330),#346);
#314=STYLED_ITEM('',(#331),#347);
#315=STYLED_ITEM('',(#332),#348);
#316=STYLED_ITEM('',(#333),#349);
#317=STYLED_ITEM('',(#334),#350);
#318=STYLED_ITEM('',(#335),#351);
#319=STYLED_ITEM('',(#336),#352);
#320=STYLED_ITEM('',(#337),#353);
#321=STYLED_ITEM('',(#338),#354);
#322=STYLED_ITEM('',(#339),#42);
#323=STYLED_ITEM('',(#340),#43);
#324=PRESENTATION_STYLE_ASSIGNMENT((#341));
#325=PRESENTATION_STYLE_ASSIGNMENT((#237));
#326=PRESENTATION_STYLE_ASSIGNMENT((#238));
#327=PRESENTATION_STYLE_ASSIGNMENT((#239));
#328=PRESENTATION_STYLE_ASSIGNMENT((#240));
#329=PRESENTATION_STYLE_ASSIGNMENT((#241));
#330=PRESENTATION_STYLE_ASSIGNMENT((#242));
#331=PRESENTATION_STYLE_ASSIGNMENT((#243));
#332=PRESENTATION_STYLE_ASSIGNMENT((#244));
#333=PRESENTATION_STYLE_ASSIGNMENT((#245));
#334=PRESENTATION_STYLE_ASSIGNMENT((#246));
#335=PRESENTATION_STYLE_ASSIGNMENT((#247));
#336=PRESENTATION_STYLE_ASSIGNMENT((#248));
#337=PRESENTATION_STYLE_ASSIGNMENT((#249));
#338=PRESENTATION_STYLE_ASSIGNMENT((#250));
#339=PRESENTATION_STYLE_ASSIGNMENT((#32));
#340=PRESENTATION_STYLE_ASSIGNMENT((#33));
#341=POINT_STYLE('',#342,POSITIVE_LENGTH_MEASURE(3.),#343);
#342=PRE_DEFINED_POINT_MARKER_SYMBOL('plus');
#343=DRAUGHTING_PRE_DEFINED_COLOUR('blue');
#344=AXIS2_PLACEMENT_3D('',#494,#388,#389);
#345=AXIS2_PLACEMENT_3D('',#500,#394,#395);
#346=AXIS2_PLACEMENT_3D('',#501,#396,#397);
#347=AXIS2_PLACEMENT_3D('CIP',#502,#398,#399);
#348=AXIS2_PLACEMENT_3D('PCS',#503,#400,#401);
#349=AXIS2_PLACEMENT_3D('MCS',#504,#402,#403);
#350=AXIS2_PLACEMENT_3D('',#505,#404,#405);
#351=AXIS2_PLACEMENT_3D('STEP_TEMP_8_1',#506,#406,#407);
#352=AXIS2_PLACEMENT_3D('',#507,#408,#409);
#353=AXIS2_PLACEMENT_3D('',#508,#410,#411);
#354=AXIS2_PLACEMENT_3D('',#509,#412,#413);
#355=AXIS2_PLACEMENT_3D('',#510,#414,#415);
#356=AXIS2_PLACEMENT_3D('',#516,#418,#419);
#357=AXIS2_PLACEMENT_3D('',#517,#420,#421);
#358=AXIS2_PLACEMENT_3D('',#518,#422,#423);
#359=AXIS2_PLACEMENT_3D('',#523,#426,#427);
#360=AXIS2_PLACEMENT_3D('',#524,#428,#429);
#361=AXIS2_PLACEMENT_3D('',#525,#430,#431);
#362=AXIS2_PLACEMENT_3D('',#526,#432,#433);
#363=AXIS2_PLACEMENT_3D('',#527,#434,#435);
#364=AXIS2_PLACEMENT_3D('',#528,#436,#437);
#365=AXIS2_PLACEMENT_3D('',#533,#439,#440);
#366=AXIS2_PLACEMENT_3D('',#536,#442,#443);
#367=AXIS2_PLACEMENT_3D('',#537,#444,#445);
#368=AXIS2_PLACEMENT_3D('',#538,#446,#447);
#369=AXIS2_PLACEMENT_3D('',#539,#448,#449);
#370=AXIS2_PLACEMENT_3D('',#542,#451,#452);
#371=AXIS2_PLACEMENT_3D('',#545,#454,#455);
#372=AXIS2_PLACEMENT_3D('',#546,#456,#457);
#373=AXIS2_PLACEMENT_3D('',#547,#458,#459);
#374=AXIS2_PLACEMENT_3D('',#548,#460,#461);
#375=AXIS2_PLACEMENT_3D('',#553,#464,#465);
#376=AXIS2_PLACEMENT_3D('',#554,#466,#467);
#377=AXIS2_PLACEMENT_3D('',#555,#468,#469);
#378=AXIS2_PLACEMENT_3D('',#558,#471,#472);
#379=AXIS2_PLACEMENT_3D('',#561,#474,#475);
#380=AXIS2_PLACEMENT_3D('',#562,#476,#477);
#381=AXIS2_PLACEMENT_3D('',#563,#478,#479);
#382=AXIS2_PLACEMENT_3D('',#564,#480,#481);
#383=AXIS2_PLACEMENT_3D('',#569,#484,#485);
#384=AXIS2_PLACEMENT_3D('',#570,#486,#487);
#385=AXIS2_PLACEMENT_3D('',#571,#488,#489);
#386=AXIS2_PLACEMENT_3D('',#572,#490,#491);
#387=AXIS2_PLACEMENT_3D('',#573,#492,#493);
#388=DIRECTION('',(0.,0.,1.));
#389=DIRECTION('',(1.,0.,0.));
#390=DIRECTION('',(-0.980580675690916,0.,0.196116135138203));
#391=DIRECTION('',(-0.707106781186548,0.,0.707106781186548));
#392=DIRECTION('',(1.,0.,0.));
#393=DIRECTION('',(0.,0.,-1.));
#394=DIRECTION('',(0.,0.,1.));
#395=DIRECTION('',(1.,0.,0.));
#396=DIRECTION('',(0.,0.,1.));
#397=DIRECTION('',(1.,0.,0.));
#398=DIRECTION('',(0.,0.,1.));
#399=DIRECTION('',(1.,0.,0.));
#400=DIRECTION('',(0.,0.,1.));
#401=DIRECTION('',(1.,0.,0.));
#402=DIRECTION('',(0.,0.,1.));
#403=DIRECTION('',(1.,0.,0.));
#404=DIRECTION('',(0.,0.,1.));
#405=DIRECTION('',(1.,0.,0.));
#406=DIRECTION('',(0.,0.,1.));
#407=DIRECTION('',(1.,0.,0.));
#408=DIRECTION('',(0.,0.,1.));
#409=DIRECTION('',(1.,0.,0.));
#410=DIRECTION('',(0.,0.,1.));
#411=DIRECTION('',(1.,0.,0.));
#412=DIRECTION('',(0.,0.,1.));
#413=DIRECTION('',(1.,0.,0.));
#414=DIRECTION('',(0.,0.,1.));
#415=DIRECTION('',(0.,-1.,0.));
#416=DIRECTION('',(0.,0.980580675690916,-0.196116135138203));
#417=DIRECTION('',(0.,-0.980580675690916,-0.196116135138203));
#418=DIRECTION('',(0.,0.,1.));
#419=DIRECTION('',(0.,-1.,-2.04605365661127E-17));
#420=DIRECTION('',(0.,0.,-1.));
#421=DIRECTION('',(0.,-1.,0.));
#422=DIRECTION('',(0.,0.,1.));
#423=DIRECTION('',(0.,-1.,-2.04605365661127E-17));
#424=DIRECTION('',(0.,0.707106781186547,0.707106781186547));
#425=DIRECTION('',(0.,-0.707106781186547,0.707106781186547));
#426=DIRECTION('',(0.,0.,-1.));
#427=DIRECTION('',(0.,-1.,0.));
#428=DIRECTION('',(0.,0.,1.));
#429=DIRECTION('',(0.,-1.,-1.84774476734728E-17));
#430=DIRECTION('',(0.,0.,-1.));
#431=DIRECTION('',(0.,1.,0.));
#432=DIRECTION('',(0.,0.,-1.));
#433=DIRECTION('',(1.,0.,0.));
#434=DIRECTION('',(0.,0.,1.));
#435=DIRECTION('',(0.,-1.,-1.84774476734728E-17));
#436=DIRECTION('',(0.,0.,-1.));
#437=DIRECTION('',(0.,1.,0.));
#438=DIRECTION('',(0.,-2.148747940378E-14,-1.));
#439=DIRECTION('',(0.,0.,1.));
#440=DIRECTION('',(0.,-1.,0.));
#441=DIRECTION('',(0.,2.148747940378E-14,-1.));
#442=DIRECTION('',(0.,0.,-1.));
#443=DIRECTION('',(0.,1.,0.));
#444=DIRECTION('',(0.,0.,1.));
#445=DIRECTION('',(0.,1.,0.));
#446=DIRECTION('',(0.,0.,-1.));
#447=DIRECTION('',(0.,-1.,0.));
#448=DIRECTION('',(0.,0.,-1.));
#449=DIRECTION('',(0.,1.,0.));
#450=DIRECTION('',(0.,-0.258819045102493,0.965925826289076));
#451=DIRECTION('',(0.,0.,1.));
#452=DIRECTION('',(0.,1.,0.));
#453=DIRECTION('',(0.,0.258819045102493,0.965925826289076));
#454=DIRECTION('',(0.,0.,1.));
#455=DIRECTION('',(0.,-1.,-4.09385009128011E-16));
#456=DIRECTION('',(0.,0.,1.));
#457=DIRECTION('',(0.,-1.,0.));
#458=DIRECTION('',(0.,0.,1.));
#459=DIRECTION('',(0.,-1.,-4.09385009128011E-16));
#460=DIRECTION('',(0.,0.,-1.));
#461=DIRECTION('',(0.,1.,0.));
#462=DIRECTION('',(0.,0.,-1.));
#463=DIRECTION('',(0.,0.,-1.));
#464=DIRECTION('',(0.,0.,-1.));
#465=DIRECTION('',(0.,1.,0.));
#466=DIRECTION('',(0.,0.,-1.));
#467=DIRECTION('',(0.,-1.,0.));
#468=DIRECTION('',(0.,0.,-1.));
#469=DIRECTION('',(0.,1.,0.));
#470=DIRECTION('',(0.,0.707106781186498,0.707106781186598));
#471=DIRECTION('',(0.,0.,-1.));
#472=DIRECTION('',(0.,-1.,0.));
#473=DIRECTION('',(0.,-0.707106781186498,0.707106781186598));
#474=DIRECTION('',(0.,0.,-1.));
#475=DIRECTION('',(0.,1.,5.54363122097746E-17));
#476=DIRECTION('',(0.,0.,-1.));
#477=DIRECTION('',(0.,1.,0.));
#478=DIRECTION('',(0.,0.,-1.));
#479=DIRECTION('',(0.,1.,5.54363122097746E-17));
#480=DIRECTION('',(0.,0.,-1.));
#481=DIRECTION('',(0.,1.,0.));
#482=DIRECTION('',(0.,-0.707106781186498,0.707106781186598));
#483=DIRECTION('',(0.,0.707106781186498,0.707106781186598));
#484=DIRECTION('',(0.,0.,1.));
#485=DIRECTION('',(0.,1.,0.));
#486=DIRECTION('',(0.,0.,1.));
#487=DIRECTION('',(0.,-1.,-7.80060020674574E-18));
#488=DIRECTION('',(0.,0.,1.));
#489=DIRECTION('',(0.,-1.,0.));
#490=DIRECTION('',(0.,0.,1.));
#491=DIRECTION('',(-1.,0.,0.));
#492=DIRECTION('',(0.,0.,1.));
#493=DIRECTION('',(0.,-1.,-7.80060020674574E-18));
#494=CARTESIAN_POINT('',(0.,0.,0.));
#495=CARTESIAN_POINT('CRP',(-0.75,0.,0.6));
#496=CARTESIAN_POINT('',(0.,0.,0.));
#497=CARTESIAN_POINT('',(-0.1875,0.,0.0375));
#498=CARTESIAN_POINT('',(-0.7,0.,0.55));
#499=CARTESIAN_POINT('',(0.,0.,0.55));
#500=CARTESIAN_POINT('',(0.,0.,0.));
#501=CARTESIAN_POINT('',(0.,0.,0.));
#502=CARTESIAN_POINT('',(0.,0.,0.));
#503=CARTESIAN_POINT('',(0.,0.,45.));
#504=CARTESIAN_POINT('',(0.,0.,9.3));
#505=CARTESIAN_POINT('',(0.,0.,0.));
#506=CARTESIAN_POINT('',(0.,0.,0.));
#507=CARTESIAN_POINT('',(0.,0.,0.));
#508=CARTESIAN_POINT('',(0.,0.,0.));
#509=CARTESIAN_POINT('',(0.,0.,0.));
#510=CARTESIAN_POINT('',(0.,0.,0.0375));
#511=CARTESIAN_POINT('',(0.,-0.1875,0.0375));
#512=CARTESIAN_POINT('',(0.,0.1875,0.0375));
#513=CARTESIAN_POINT('',(0.,-0.1875,0.0375));
#514=CARTESIAN_POINT('',(0.,0.,0.));
#515=CARTESIAN_POINT('',(0.,0.1875,0.0375));
#516=CARTESIAN_POINT('',(0.,0.,0.019125));
#517=CARTESIAN_POINT('',(0.,0.,0.0375));
#518=CARTESIAN_POINT('',(0.,0.,0.019125));
#519=CARTESIAN_POINT('',(0.,0.7,0.55));
#520=CARTESIAN_POINT('',(0.,0.7,0.55));
#521=CARTESIAN_POINT('',(0.,-0.7,0.55));
#522=CARTESIAN_POINT('',(0.,-0.7,0.55));
#523=CARTESIAN_POINT('',(0.,0.,0.55));
#524=CARTESIAN_POINT('',(0.,0.,0.29375));
#525=CARTESIAN_POINT('',(0.,0.,0.55));
#526=CARTESIAN_POINT('',(150.,150.,0.55));
#527=CARTESIAN_POINT('',(0.,0.,0.29375));
#528=CARTESIAN_POINT('',(0.,0.,4.500961894323));
#529=CARTESIAN_POINT('',(0.,0.7499999999999,4.500961894323));
#530=CARTESIAN_POINT('',(0.,-0.7499999999999,4.500961894323));
#531=CARTESIAN_POINT('',(0.,-0.7499999999999,4.500961894323));
#532=CARTESIAN_POINT('',(0.,-0.75,0.6));
#533=CARTESIAN_POINT('',(0.,0.,0.6));
#534=CARTESIAN_POINT('',(0.,0.75,0.6));
#535=CARTESIAN_POINT('',(0.,0.7499999999999,4.500961894323));
#536=CARTESIAN_POINT('',(0.,0.,47.25));
#537=CARTESIAN_POINT('',(0.,0.,0.6));
#538=CARTESIAN_POINT('',(0.,0.,4.500961894323));
#539=CARTESIAN_POINT('',(0.,0.,47.25));
#540=CARTESIAN_POINT('',(0.,-1.5,7.3));
#541=CARTESIAN_POINT('',(0.,-1.5,7.3));
#542=CARTESIAN_POINT('',(0.,0.,7.3));
#543=CARTESIAN_POINT('',(0.,1.5,7.3));
#544=CARTESIAN_POINT('',(0.,1.5,7.3));
#545=CARTESIAN_POINT('',(0.,0.,5.900480947162));
#546=CARTESIAN_POINT('',(0.,0.,7.3));
#547=CARTESIAN_POINT('',(0.,0.,5.900480947162));
#548=CARTESIAN_POINT('',(0.,0.,44.7));
#549=CARTESIAN_POINT('',(0.,1.5,44.7));
#550=CARTESIAN_POINT('',(0.,-1.5,44.7));
#551=CARTESIAN_POINT('',(0.,-1.5,44.7));
#552=CARTESIAN_POINT('',(0.,1.5,44.7));
#553=CARTESIAN_POINT('',(0.,0.,47.25));
#554=CARTESIAN_POINT('',(0.,0.,44.7));
#555=CARTESIAN_POINT('',(0.,0.,47.25));
#556=CARTESIAN_POINT('',(0.,-1.2,45.));
#557=CARTESIAN_POINT('',(0.,-1.2,45.));
#558=CARTESIAN_POINT('',(0.,0.,45.));
#559=CARTESIAN_POINT('',(0.,1.2,45.));
#560=CARTESIAN_POINT('',(0.,1.2,45.));
#561=CARTESIAN_POINT('',(0.,0.,44.85));
#562=CARTESIAN_POINT('',(0.,0.,45.));
#563=CARTESIAN_POINT('',(0.,0.,44.85));
#564=CARTESIAN_POINT('',(0.,0.,45.));
#565=CARTESIAN_POINT('',(0.,-0.75,0.6));
#566=CARTESIAN_POINT('',(0.,-0.7,0.55));
#567=CARTESIAN_POINT('',(0.,0.75,0.6));
#568=CARTESIAN_POINT('',(0.,0.7,0.55));
#569=CARTESIAN_POINT('',(0.,0.,0.55));
#570=CARTESIAN_POINT('',(0.,0.,0.575));
#571=CARTESIAN_POINT('',(0.,0.,0.55));
#572=CARTESIAN_POINT('',(-150.,150.,0.55));
#573=CARTESIAN_POINT('',(0.,0.,0.575));
#574=MECHANICAL_DESIGN_GEOMETRIC_PRESENTATION_REPRESENTATION('',(#307,#308,
#309,#310,#311,#312,#313,#314,#315,#316,#317,#318,#319,#320,#321,#322,#323),
#575);
#575=(
GEOMETRIC_REPRESENTATION_CONTEXT(3)
GLOBAL_UNCERTAINTY_ASSIGNED_CONTEXT((#576))
GLOBAL_UNIT_ASSIGNED_CONTEXT((#582,#578,#577))
REPRESENTATION_CONTEXT('DLE0150S030P090','TOP_LEVEL_ASSEMBLY_PART')
);
#576=UNCERTAINTY_MEASURE_WITH_UNIT(LENGTH_MEASURE(2.E-5),#582,
'DISTANCE_ACCURACY_VALUE','Maximum Tolerance applied to model');
#577=(
NAMED_UNIT(*)
SI_UNIT($,.STERADIAN.)
SOLID_ANGLE_UNIT()
);
#578=(
CONVERSION_BASED_UNIT('DEGREE',#580)
NAMED_UNIT(#579)
PLANE_ANGLE_UNIT()
);
#579=DIMENSIONAL_EXPONENTS(0.,0.,0.,0.,0.,0.,0.);
#580=PLANE_ANGLE_MEASURE_WITH_UNIT(PLANE_ANGLE_MEASURE(0.0174532925),#581);
#581=(
NAMED_UNIT(*)
PLANE_ANGLE_UNIT()
SI_UNIT($,.RADIAN.)
);
#582=(
LENGTH_UNIT()
NAMED_UNIT(*)
SI_UNIT(.MILLI.,.METRE.)
);
ENDSEC;
END-ISO-10303-21;
