ISO-10303-21;
HEADER;
/* Generated by software containing ST-Developer
 * from STEP Tools, Inc. (www.steptools.com) 
 */
/* OPTION: using custom schema-name function */

FILE_DESCRIPTION(
/* description */ (''),
/* implementation_level */ '2;1');

FILE_NAME(
/* name */ 'DWAE0680X02S070.stp',
/* time_stamp */ '2023-03-13T18:02:18+09:00',
/* author */ (''),
/* organization */ (''),
/* preprocessor_version */ 'ST-DEVELOPER v16',
/* originating_system */ 'SIEMENS PLM Software NX 10.0',
/* authorisation */ '');

FILE_SCHEMA (('AUTOMOTIVE_DESIGN { 1 0 10303 214 3 1 1 1 }'));
ENDSEC;

DATA;
#10=CONSTRUCTIVE_GEOMETRY_REPRESENTATION_RELATIONSHIP(
'supplemental geometry','',#26,#11);
#11=CONSTRUCTIVE_GEOMETRY_REPRESENTATION('supplemental geometry',(#305,
#306,#307,#308,#309,#310,#311,#312,#313,#314),#505);
#12=GEOMETRICALLY_BOUNDED_WIREFRAME_SHAPE_REPRESENTATION(
'DWAE0680X02S070-None',(#27),#505);
#13=SHAPE_REPRESENTATION_RELATIONSHIP('None',
'relationship between DWAE0680X02S070-None and DWAE0680X02S070-None',#26,
#15);
#14=SHAPE_REPRESENTATION_RELATIONSHIP('None',
'relationship between DWAE0680X02S070-None and DWAE0680X02S070-None',#26,
#12);
#15=ADVANCED_BREP_SHAPE_REPRESENTATION('DWAE0680X02S070-None',(#40,#41),
#505);
#16=SHAPE_DEFINITION_REPRESENTATION(#17,#26);
#17=PRODUCT_DEFINITION_SHAPE('','SHAPE FOR DWAE0680X02S070_ASM.',#18);
#18=PRODUCT_DEFINITION('part definition','',#20,#19);
#19=PRODUCT_DEFINITION_CONTEXT('part definition',#25,'design');
#20=PRODUCT_DEFINITION_FORMATION_WITH_SPECIFIED_SOURCE(' ',' ',#22,
 .NOT_KNOWN.);
#21=PRODUCT_RELATED_PRODUCT_CATEGORY('part','',(#22));
#22=PRODUCT('DWAE0680X02S070_ASM','DWAE0680X02S070_ASM','NOT SPECIFIED',
(#23));
#23=PRODUCT_CONTEXT('',#25,'mechanical');
#24=APPLICATION_PROTOCOL_DEFINITION('international standard',
'automotive_design',2010,#25);
#25=APPLICATION_CONTEXT(
'core data for automotive mechanical design processes');
#26=SHAPE_REPRESENTATION('DWAE0680X02S070-None',(#304),#505);
#27=GEOMETRIC_CURVE_SET('None',(#436,#233,#234,#235,#236));
#28=FACE_BOUND('',#93,.T.);
#29=FACE_BOUND('',#94,.T.);
#30=SURFACE_STYLE_USAGE(.BOTH.,#32);
#31=SURFACE_STYLE_USAGE(.BOTH.,#33);
#32=SURFACE_SIDE_STYLE('',(#34));
#33=SURFACE_SIDE_STYLE('',(#35));
#34=SURFACE_STYLE_FILL_AREA(#36);
#35=SURFACE_STYLE_FILL_AREA(#37);
#36=FILL_AREA_STYLE('',(#38));
#37=FILL_AREA_STYLE('',(#39));
#38=FILL_AREA_STYLE_COLOUR('',#203);
#39=FILL_AREA_STYLE_COLOUR('',#204);
#40=MANIFOLD_SOLID_BREP('CUT',#42);
#41=MANIFOLD_SOLID_BREP('NOCUT',#43);
#42=CLOSED_SHELL('',(#52,#53,#54,#55,#56));
#43=CLOSED_SHELL('',(#57,#58,#59,#60,#61,#62,#63,#64,#65));
#44=CONICAL_SURFACE('',#322,1.734,70.);
#45=CONICAL_SURFACE('',#323,1.734,70.);
#46=CONICAL_SURFACE('',#339,2.975,45.);
#47=CONICAL_SURFACE('',#341,2.975,45.);
#48=PLANE('',#319);
#49=PLANE('',#328);
#50=PLANE('',#333);
#51=PLANE('',#342);
#52=ADVANCED_FACE('',(#72),#66,.T.);
#53=ADVANCED_FACE('',(#73),#48,.F.);
#54=ADVANCED_FACE('',(#74),#67,.T.);
#55=ADVANCED_FACE('',(#75),#44,.T.);
#56=ADVANCED_FACE('',(#76),#45,.T.);
#57=ADVANCED_FACE('',(#77),#68,.T.);
#58=ADVANCED_FACE('',(#78),#49,.F.);
#59=ADVANCED_FACE('',(#79),#69,.T.);
#60=ADVANCED_FACE('',(#28,#29),#50,.T.);
#61=ADVANCED_FACE('',(#80),#70,.T.);
#62=ADVANCED_FACE('',(#81),#71,.T.);
#63=ADVANCED_FACE('',(#82),#46,.T.);
#64=ADVANCED_FACE('',(#83),#47,.T.);
#65=ADVANCED_FACE('',(#84),#51,.F.);
#66=CYLINDRICAL_SURFACE('',#317,3.4);
#67=CYLINDRICAL_SURFACE('',#321,3.4);
#68=CYLINDRICAL_SURFACE('',#326,3.4);
#69=CYLINDRICAL_SURFACE('',#330,3.4);
#70=CYLINDRICAL_SURFACE('',#335,3.5);
#71=CYLINDRICAL_SURFACE('',#337,3.5);
#72=FACE_OUTER_BOUND('',#85,.T.);
#73=FACE_OUTER_BOUND('',#86,.T.);
#74=FACE_OUTER_BOUND('',#87,.T.);
#75=FACE_OUTER_BOUND('',#88,.T.);
#76=FACE_OUTER_BOUND('',#89,.T.);
#77=FACE_OUTER_BOUND('',#90,.T.);
#78=FACE_OUTER_BOUND('',#91,.T.);
#79=FACE_OUTER_BOUND('',#92,.T.);
#80=FACE_OUTER_BOUND('',#95,.T.);
#81=FACE_OUTER_BOUND('',#96,.T.);
#82=FACE_OUTER_BOUND('',#97,.T.);
#83=FACE_OUTER_BOUND('',#98,.T.);
#84=FACE_OUTER_BOUND('',#99,.T.);
#85=EDGE_LOOP('',(#114,#115,#116,#117));
#86=EDGE_LOOP('',(#118,#119));
#87=EDGE_LOOP('',(#120,#121,#122,#123));
#88=EDGE_LOOP('',(#124,#125,#126));
#89=EDGE_LOOP('',(#127,#128,#129));
#90=EDGE_LOOP('',(#130,#131,#132,#133));
#91=EDGE_LOOP('',(#134,#135));
#92=EDGE_LOOP('',(#136,#137,#138,#139));
#93=EDGE_LOOP('',(#140,#141));
#94=EDGE_LOOP('',(#142,#143));
#95=EDGE_LOOP('',(#144,#145,#146,#147));
#96=EDGE_LOOP('',(#148,#149,#150,#151));
#97=EDGE_LOOP('',(#152,#153,#154,#155));
#98=EDGE_LOOP('',(#156,#157,#158,#159));
#99=EDGE_LOOP('',(#160,#161));
#100=CIRCLE('',#315,3.4);
#101=CIRCLE('',#316,3.4);
#102=CIRCLE('',#318,3.4);
#103=CIRCLE('',#320,3.4);
#104=CIRCLE('',#324,3.4);
#105=CIRCLE('',#325,3.4);
#106=CIRCLE('',#327,3.4);
#107=CIRCLE('',#329,3.4);
#108=CIRCLE('',#331,3.5);
#109=CIRCLE('',#332,3.5);
#110=CIRCLE('',#334,3.5);
#111=CIRCLE('',#336,3.5);
#112=CIRCLE('',#338,2.45);
#113=CIRCLE('',#340,2.45);
#114=ORIENTED_EDGE('',*,*,#177,.T.);
#115=ORIENTED_EDGE('',*,*,#178,.T.);
#116=ORIENTED_EDGE('',*,*,#179,.F.);
#117=ORIENTED_EDGE('',*,*,#180,.T.);
#118=ORIENTED_EDGE('',*,*,#181,.F.);
#119=ORIENTED_EDGE('',*,*,#180,.F.);
#120=ORIENTED_EDGE('',*,*,#179,.T.);
#121=ORIENTED_EDGE('',*,*,#182,.T.);
#122=ORIENTED_EDGE('',*,*,#177,.F.);
#123=ORIENTED_EDGE('',*,*,#181,.T.);
#124=ORIENTED_EDGE('',*,*,#183,.T.);
#125=ORIENTED_EDGE('',*,*,#182,.F.);
#126=ORIENTED_EDGE('',*,*,#184,.F.);
#127=ORIENTED_EDGE('',*,*,#178,.F.);
#128=ORIENTED_EDGE('',*,*,#183,.F.);
#129=ORIENTED_EDGE('',*,*,#184,.T.);
#130=ORIENTED_EDGE('',*,*,#185,.F.);
#131=ORIENTED_EDGE('',*,*,#186,.T.);
#132=ORIENTED_EDGE('',*,*,#187,.T.);
#133=ORIENTED_EDGE('',*,*,#188,.T.);
#134=ORIENTED_EDGE('',*,*,#189,.F.);
#135=ORIENTED_EDGE('',*,*,#188,.F.);
#136=ORIENTED_EDGE('',*,*,#187,.F.);
#137=ORIENTED_EDGE('',*,*,#190,.T.);
#138=ORIENTED_EDGE('',*,*,#185,.T.);
#139=ORIENTED_EDGE('',*,*,#189,.T.);
#140=ORIENTED_EDGE('',*,*,#191,.F.);
#141=ORIENTED_EDGE('',*,*,#192,.F.);
#142=ORIENTED_EDGE('',*,*,#186,.F.);
#143=ORIENTED_EDGE('',*,*,#190,.F.);
#144=ORIENTED_EDGE('',*,*,#193,.T.);
#145=ORIENTED_EDGE('',*,*,#194,.T.);
#146=ORIENTED_EDGE('',*,*,#192,.T.);
#147=ORIENTED_EDGE('',*,*,#195,.F.);
#148=ORIENTED_EDGE('',*,*,#191,.T.);
#149=ORIENTED_EDGE('',*,*,#194,.F.);
#150=ORIENTED_EDGE('',*,*,#196,.T.);
#151=ORIENTED_EDGE('',*,*,#195,.T.);
#152=ORIENTED_EDGE('',*,*,#196,.F.);
#153=ORIENTED_EDGE('',*,*,#197,.T.);
#154=ORIENTED_EDGE('',*,*,#198,.T.);
#155=ORIENTED_EDGE('',*,*,#199,.F.);
#156=ORIENTED_EDGE('',*,*,#200,.T.);
#157=ORIENTED_EDGE('',*,*,#197,.F.);
#158=ORIENTED_EDGE('',*,*,#193,.F.);
#159=ORIENTED_EDGE('',*,*,#199,.T.);
#160=ORIENTED_EDGE('',*,*,#200,.F.);
#161=ORIENTED_EDGE('',*,*,#198,.F.);
#162=VERTEX_POINT('',#452);
#163=VERTEX_POINT('',#453);
#164=VERTEX_POINT('',#455);
#165=VERTEX_POINT('',#457);
#166=VERTEX_POINT('',#465);
#167=VERTEX_POINT('',#470);
#168=VERTEX_POINT('',#471);
#169=VERTEX_POINT('',#473);
#170=VERTEX_POINT('',#475);
#171=VERTEX_POINT('',#483);
#172=VERTEX_POINT('',#484);
#173=VERTEX_POINT('',#488);
#174=VERTEX_POINT('',#489);
#175=VERTEX_POINT('',#496);
#176=VERTEX_POINT('',#498);
#177=EDGE_CURVE('',#162,#163,#241,.T.);
#178=EDGE_CURVE('',#163,#164,#100,.T.);
#179=EDGE_CURVE('',#165,#164,#242,.T.);
#180=EDGE_CURVE('',#165,#162,#101,.T.);
#181=EDGE_CURVE('',#162,#165,#102,.T.);
#182=EDGE_CURVE('',#164,#163,#103,.T.);
#183=EDGE_CURVE('',#166,#163,#243,.T.);
#184=EDGE_CURVE('',#166,#164,#244,.T.);
#185=EDGE_CURVE('',#167,#168,#245,.T.);
#186=EDGE_CURVE('',#167,#169,#104,.T.);
#187=EDGE_CURVE('',#169,#170,#246,.T.);
#188=EDGE_CURVE('',#170,#168,#105,.T.);
#189=EDGE_CURVE('',#168,#170,#106,.T.);
#190=EDGE_CURVE('',#169,#167,#107,.T.);
#191=EDGE_CURVE('',#171,#172,#108,.T.);
#192=EDGE_CURVE('',#172,#171,#109,.T.);
#193=EDGE_CURVE('',#173,#174,#110,.T.);
#194=EDGE_CURVE('',#174,#172,#247,.T.);
#195=EDGE_CURVE('',#173,#171,#248,.T.);
#196=EDGE_CURVE('',#174,#173,#111,.T.);
#197=EDGE_CURVE('',#174,#175,#249,.T.);
#198=EDGE_CURVE('',#175,#176,#112,.T.);
#199=EDGE_CURVE('',#173,#176,#250,.T.);
#200=EDGE_CURVE('',#176,#175,#113,.T.);
#201=COLOUR_RGB('Strong Stone',0.576470588235294,0.54508278019379,0.392156862745098);
#202=COLOUR_RGB('Medium Umber',0.372533760585946,0.313725490196078,0.270572976272221);
#203=COLOUR_RGB('Light Gray',0.8,0.8,0.8);
#204=COLOUR_RGB('non-cutting part and shank',0.501960784313725,0.501960784313725,
0.501960784313725);
#205=CURVE_STYLE('',#219,POSITIVE_LENGTH_MEASURE(0.18),#303);
#206=CURVE_STYLE('',#220,POSITIVE_LENGTH_MEASURE(0.18),#303);
#207=CURVE_STYLE('',#221,POSITIVE_LENGTH_MEASURE(0.18),#303);
#208=CURVE_STYLE('',#222,POSITIVE_LENGTH_MEASURE(0.18),#303);
#209=CURVE_STYLE('',#223,POSITIVE_LENGTH_MEASURE(0.13),#201);
#210=CURVE_STYLE('',#224,POSITIVE_LENGTH_MEASURE(0.13),#201);
#211=CURVE_STYLE('',#225,POSITIVE_LENGTH_MEASURE(0.13),#202);
#212=CURVE_STYLE('',#226,POSITIVE_LENGTH_MEASURE(0.13),#202);
#213=CURVE_STYLE('',#227,POSITIVE_LENGTH_MEASURE(0.13),#201);
#214=CURVE_STYLE('',#228,POSITIVE_LENGTH_MEASURE(0.13),#201);
#215=CURVE_STYLE('',#229,POSITIVE_LENGTH_MEASURE(0.13),#202);
#216=CURVE_STYLE('',#230,POSITIVE_LENGTH_MEASURE(0.13),#201);
#217=CURVE_STYLE('',#231,POSITIVE_LENGTH_MEASURE(0.13),#201);
#218=CURVE_STYLE('',#232,POSITIVE_LENGTH_MEASURE(0.13),#201);
#219=DRAUGHTING_PRE_DEFINED_CURVE_FONT('continuous');
#220=DRAUGHTING_PRE_DEFINED_CURVE_FONT('continuous');
#221=DRAUGHTING_PRE_DEFINED_CURVE_FONT('continuous');
#222=DRAUGHTING_PRE_DEFINED_CURVE_FONT('continuous');
#223=DRAUGHTING_PRE_DEFINED_CURVE_FONT('continuous');
#224=DRAUGHTING_PRE_DEFINED_CURVE_FONT('continuous');
#225=DRAUGHTING_PRE_DEFINED_CURVE_FONT('continuous');
#226=DRAUGHTING_PRE_DEFINED_CURVE_FONT('continuous');
#227=DRAUGHTING_PRE_DEFINED_CURVE_FONT('continuous');
#228=DRAUGHTING_PRE_DEFINED_CURVE_FONT('continuous');
#229=DRAUGHTING_PRE_DEFINED_CURVE_FONT('continuous');
#230=DRAUGHTING_PRE_DEFINED_CURVE_FONT('continuous');
#231=DRAUGHTING_PRE_DEFINED_CURVE_FONT('continuous');
#232=DRAUGHTING_PRE_DEFINED_CURVE_FONT('continuous');
#233=TRIMMED_CURVE('',#237,(PARAMETER_VALUE(0.)),(PARAMETER_VALUE(1.)),
 .T.,.PARAMETER.);
#234=TRIMMED_CURVE('',#238,(PARAMETER_VALUE(0.)),(PARAMETER_VALUE(1.)),
 .T.,.PARAMETER.);
#235=TRIMMED_CURVE('',#239,(PARAMETER_VALUE(0.)),(PARAMETER_VALUE(1.)),
 .T.,.PARAMETER.);
#236=TRIMMED_CURVE('',#240,(PARAMETER_VALUE(0.)),(PARAMETER_VALUE(1.)),
 .T.,.PARAMETER.);
#237=LINE('',#437,#251);
#238=LINE('',#438,#252);
#239=LINE('',#439,#253);
#240=LINE('',#440,#254);
#241=LINE('',#451,#255);
#242=LINE('',#456,#256);
#243=LINE('',#464,#257);
#244=LINE('',#466,#258);
#245=LINE('',#469,#259);
#246=LINE('',#474,#260);
#247=LINE('',#490,#261);
#248=LINE('',#491,#262);
#249=LINE('',#495,#263);
#250=LINE('',#499,#264);
#251=VECTOR('',#345,3.61820442641801);
#252=VECTOR('',#346,13.6);
#253=VECTOR('',#347,3.4);
#254=VECTOR('',#348,14.83749879651);
#255=VECTOR('',#369,1.);
#256=VECTOR('',#372,1.);
#257=VECTOR('',#385,1.);
#258=VECTOR('',#386,1.);
#259=VECTOR('',#391,1.);
#260=VECTOR('',#394,1.);
#261=VECTOR('',#415,1.);
#262=VECTOR('',#416,1.);
#263=VECTOR('',#423,1.);
#264=VECTOR('',#426,1.);
#265=PRESENTATION_LAYER_ASSIGNMENT('1','Layer 1',(#436,#233,#234,#235,#236,
#305,#306,#309,#310,#311,#312,#313,#314,#40,#41));
#266=PRESENTATION_LAYER_ASSIGNMENT('2','Layer 2',(#307,#308));
#267=STYLED_ITEM('',(#284),#436);
#268=STYLED_ITEM('',(#285),#233);
#269=STYLED_ITEM('',(#286),#234);
#270=STYLED_ITEM('',(#287),#235);
#271=STYLED_ITEM('',(#288),#236);
#272=STYLED_ITEM('',(#289),#305);
#273=STYLED_ITEM('',(#290),#306);
#274=STYLED_ITEM('',(#291),#307);
#275=STYLED_ITEM('',(#292),#308);
#276=STYLED_ITEM('',(#293),#309);
#277=STYLED_ITEM('',(#294),#310);
#278=STYLED_ITEM('',(#295),#311);
#279=STYLED_ITEM('',(#296),#312);
#280=STYLED_ITEM('',(#297),#313);
#281=STYLED_ITEM('',(#298),#314);
#282=STYLED_ITEM('',(#299),#40);
#283=STYLED_ITEM('',(#300),#41);
#284=PRESENTATION_STYLE_ASSIGNMENT((#301));
#285=PRESENTATION_STYLE_ASSIGNMENT((#205));
#286=PRESENTATION_STYLE_ASSIGNMENT((#206));
#287=PRESENTATION_STYLE_ASSIGNMENT((#207));
#288=PRESENTATION_STYLE_ASSIGNMENT((#208));
#289=PRESENTATION_STYLE_ASSIGNMENT((#209));
#290=PRESENTATION_STYLE_ASSIGNMENT((#210));
#291=PRESENTATION_STYLE_ASSIGNMENT((#211));
#292=PRESENTATION_STYLE_ASSIGNMENT((#212));
#293=PRESENTATION_STYLE_ASSIGNMENT((#213));
#294=PRESENTATION_STYLE_ASSIGNMENT((#214));
#295=PRESENTATION_STYLE_ASSIGNMENT((#215));
#296=PRESENTATION_STYLE_ASSIGNMENT((#216));
#297=PRESENTATION_STYLE_ASSIGNMENT((#217));
#298=PRESENTATION_STYLE_ASSIGNMENT((#218));
#299=PRESENTATION_STYLE_ASSIGNMENT((#30));
#300=PRESENTATION_STYLE_ASSIGNMENT((#31));
#301=POINT_STYLE('',#302,POSITIVE_LENGTH_MEASURE(3.),#303);
#302=PRE_DEFINED_POINT_MARKER_SYMBOL('plus');
#303=DRAUGHTING_PRE_DEFINED_COLOUR('blue');
#304=AXIS2_PLACEMENT_3D('',#435,#343,#344);
#305=AXIS2_PLACEMENT_3D('',#441,#349,#350);
#306=AXIS2_PLACEMENT_3D('',#442,#351,#352);
#307=AXIS2_PLACEMENT_3D('CIP',#443,#353,#354);
#308=AXIS2_PLACEMENT_3D('PCS',#444,#355,#356);
#309=AXIS2_PLACEMENT_3D('MCS',#445,#357,#358);
#310=AXIS2_PLACEMENT_3D('',#446,#359,#360);
#311=AXIS2_PLACEMENT_3D('STEP_TEMP_2_1',#447,#361,#362);
#312=AXIS2_PLACEMENT_3D('',#448,#363,#364);
#313=AXIS2_PLACEMENT_3D('',#449,#365,#366);
#314=AXIS2_PLACEMENT_3D('',#450,#367,#368);
#315=AXIS2_PLACEMENT_3D('',#454,#370,#371);
#316=AXIS2_PLACEMENT_3D('',#458,#373,#374);
#317=AXIS2_PLACEMENT_3D('',#459,#375,#376);
#318=AXIS2_PLACEMENT_3D('',#460,#377,#378);
#319=AXIS2_PLACEMENT_3D('',#461,#379,#380);
#320=AXIS2_PLACEMENT_3D('',#462,#381,#382);
#321=AXIS2_PLACEMENT_3D('',#463,#383,#384);
#322=AXIS2_PLACEMENT_3D('',#467,#387,#388);
#323=AXIS2_PLACEMENT_3D('',#468,#389,#390);
#324=AXIS2_PLACEMENT_3D('',#472,#392,#393);
#325=AXIS2_PLACEMENT_3D('',#476,#395,#396);
#326=AXIS2_PLACEMENT_3D('',#477,#397,#398);
#327=AXIS2_PLACEMENT_3D('',#478,#399,#400);
#328=AXIS2_PLACEMENT_3D('',#479,#401,#402);
#329=AXIS2_PLACEMENT_3D('',#480,#403,#404);
#330=AXIS2_PLACEMENT_3D('',#481,#405,#406);
#331=AXIS2_PLACEMENT_3D('',#482,#407,#408);
#332=AXIS2_PLACEMENT_3D('',#485,#409,#410);
#333=AXIS2_PLACEMENT_3D('',#486,#411,#412);
#334=AXIS2_PLACEMENT_3D('',#487,#413,#414);
#335=AXIS2_PLACEMENT_3D('',#492,#417,#418);
#336=AXIS2_PLACEMENT_3D('',#493,#419,#420);
#337=AXIS2_PLACEMENT_3D('',#494,#421,#422);
#338=AXIS2_PLACEMENT_3D('',#497,#424,#425);
#339=AXIS2_PLACEMENT_3D('',#500,#427,#428);
#340=AXIS2_PLACEMENT_3D('',#501,#429,#430);
#341=AXIS2_PLACEMENT_3D('',#502,#431,#432);
#342=AXIS2_PLACEMENT_3D('',#503,#433,#434);
#343=DIRECTION('',(0.,0.,1.));
#344=DIRECTION('',(1.,0.,0.));
#345=DIRECTION('',(-0.939692620785897,0.,0.342020143325699));
#346=DIRECTION('',(0.,0.,1.));
#347=DIRECTION('',(1.,0.,0.));
#348=DIRECTION('',(0.,0.,-1.));
#349=DIRECTION('',(0.,0.,1.));
#350=DIRECTION('',(1.,0.,0.));
#351=DIRECTION('',(0.,0.,1.));
#352=DIRECTION('',(1.,0.,0.));
#353=DIRECTION('',(0.,0.,1.));
#354=DIRECTION('',(1.,0.,0.));
#355=DIRECTION('',(0.,0.,1.));
#356=DIRECTION('',(1.,0.,0.));
#357=DIRECTION('',(0.,0.,1.));
#358=DIRECTION('',(1.,0.,0.));
#359=DIRECTION('',(0.,0.,1.));
#360=DIRECTION('',(1.,0.,0.));
#361=DIRECTION('',(0.,0.,1.));
#362=DIRECTION('',(1.,0.,0.));
#363=DIRECTION('',(0.,0.,1.));
#364=DIRECTION('',(1.,0.,0.));
#365=DIRECTION('',(0.,0.,1.));
#366=DIRECTION('',(1.,0.,0.));
#367=DIRECTION('',(0.,0.,1.));
#368=DIRECTION('',(1.,0.,0.));
#369=DIRECTION('',(0.,0.,-1.));
#370=DIRECTION('',(0.,0.,1.));
#371=DIRECTION('',(0.,-1.,0.));
#372=DIRECTION('',(0.,0.,-1.));
#373=DIRECTION('',(0.,0.,-1.));
#374=DIRECTION('',(0.,1.,0.));
#375=DIRECTION('',(0.,0.,-1.));
#376=DIRECTION('',(0.,1.,0.));
#377=DIRECTION('',(0.,0.,-1.));
#378=DIRECTION('',(0.,-1.,0.));
#379=DIRECTION('',(0.,0.,-1.));
#380=DIRECTION('',(1.,0.,0.));
#381=DIRECTION('',(0.,0.,1.));
#382=DIRECTION('',(0.,1.,0.));
#383=DIRECTION('',(0.,0.,-1.));
#384=DIRECTION('',(0.,1.,0.));
#385=DIRECTION('',(0.,-0.939692620785897,0.342020143325699));
#386=DIRECTION('',(0.,0.939692620785897,0.342020143325699));
#387=DIRECTION('',(0.,0.,1.));
#388=DIRECTION('',(0.,-1.,-1.34085263882033E-18));
#389=DIRECTION('',(0.,0.,1.));
#390=DIRECTION('',(0.,-1.,-1.34085263882033E-18));
#391=DIRECTION('',(0.,0.,-1.));
#392=DIRECTION('',(0.,0.,-1.));
#393=DIRECTION('',(0.,1.,0.));
#394=DIRECTION('',(0.,0.,-1.));
#395=DIRECTION('',(0.,0.,1.));
#396=DIRECTION('',(0.,-1.,0.));
#397=DIRECTION('',(0.,0.,-1.));
#398=DIRECTION('',(0.,1.,0.));
#399=DIRECTION('',(0.,0.,1.));
#400=DIRECTION('',(0.,1.,0.));
#401=DIRECTION('',(0.,0.,1.));
#402=DIRECTION('',(-1.,0.,0.));
#403=DIRECTION('',(0.,0.,-1.));
#404=DIRECTION('',(0.,-1.,0.));
#405=DIRECTION('',(0.,0.,-1.));
#406=DIRECTION('',(0.,1.,0.));
#407=DIRECTION('',(0.,0.,1.));
#408=DIRECTION('',(0.,1.,0.));
#409=DIRECTION('',(0.,0.,1.));
#410=DIRECTION('',(0.,-1.,0.));
#411=DIRECTION('',(0.,0.,-1.));
#412=DIRECTION('',(0.,1.,0.));
#413=DIRECTION('',(0.,0.,-1.));
#414=DIRECTION('',(0.,1.,0.));
#415=DIRECTION('',(0.,0.,-1.));
#416=DIRECTION('',(0.,0.,-1.));
#417=DIRECTION('',(0.,0.,-1.));
#418=DIRECTION('',(0.,1.,0.));
#419=DIRECTION('',(0.,0.,-1.));
#420=DIRECTION('',(0.,-1.,0.));
#421=DIRECTION('',(0.,0.,-1.));
#422=DIRECTION('',(0.,1.,0.));
#423=DIRECTION('',(0.,0.707106781186547,0.707106781186547));
#424=DIRECTION('',(0.,0.,-1.));
#425=DIRECTION('',(0.,-1.,0.));
#426=DIRECTION('',(0.,-0.707106781186547,0.707106781186547));
#427=DIRECTION('',(0.,0.,-1.));
#428=DIRECTION('',(0.,1.,-2.76732477037104E-17));
#429=DIRECTION('',(0.,0.,-1.));
#430=DIRECTION('',(0.,1.,0.));
#431=DIRECTION('',(0.,0.,-1.));
#432=DIRECTION('',(0.,1.,-2.76732477037104E-17));
#433=DIRECTION('',(0.,0.,-1.));
#434=DIRECTION('',(0.,1.,0.));
#435=CARTESIAN_POINT('',(0.,0.,0.));
#436=CARTESIAN_POINT('CRP',(-3.4,0.,1.237498796505));
#437=CARTESIAN_POINT('',(0.,0.,0.));
#438=CARTESIAN_POINT('',(-3.4,0.,1.237498796505));
#439=CARTESIAN_POINT('',(-3.4,0.,14.83749879651));
#440=CARTESIAN_POINT('',(0.,0.,14.83749879651));
#441=CARTESIAN_POINT('',(0.,0.,0.));
#442=CARTESIAN_POINT('',(0.,0.,0.));
#443=CARTESIAN_POINT('',(0.,0.,0.));
#444=CARTESIAN_POINT('',(0.,0.,75.23749879651));
#445=CARTESIAN_POINT('',(0.,0.,31.));
#446=CARTESIAN_POINT('',(0.,0.,0.));
#447=CARTESIAN_POINT('',(0.,0.,0.));
#448=CARTESIAN_POINT('',(0.,0.,0.));
#449=CARTESIAN_POINT('',(0.,0.,0.));
#450=CARTESIAN_POINT('',(0.,0.,0.));
#451=CARTESIAN_POINT('',(0.,-3.4,13.6));
#452=CARTESIAN_POINT('',(0.,-3.4,13.6));
#453=CARTESIAN_POINT('',(0.,-3.4,1.237498796505));
#454=CARTESIAN_POINT('',(0.,-1.370036841162E-14,1.237498796505));
#455=CARTESIAN_POINT('',(0.,3.4,1.237498796505));
#456=CARTESIAN_POINT('',(0.,3.4,13.6));
#457=CARTESIAN_POINT('',(0.,3.4,13.6));
#458=CARTESIAN_POINT('',(0.,0.,13.6));
#459=CARTESIAN_POINT('',(0.,0.,78.99937373633));
#460=CARTESIAN_POINT('',(0.,0.,13.6));
#461=CARTESIAN_POINT('',(150.,150.,13.6));
#462=CARTESIAN_POINT('',(0.,-1.370036841162E-14,1.237498796505));
#463=CARTESIAN_POINT('',(0.,0.,78.99937373633));
#464=CARTESIAN_POINT('',(0.,-3.4,1.237498796505));
#465=CARTESIAN_POINT('',(0.,-1.376676550535E-14,0.));
#466=CARTESIAN_POINT('',(0.,3.4,1.237498796505));
#467=CARTESIAN_POINT('',(0.,-1.370036841162E-14,0.6311243862176));
#468=CARTESIAN_POINT('',(0.,-1.370036841162E-14,0.6311243862176));
#469=CARTESIAN_POINT('',(0.,3.4,30.23749879651));
#470=CARTESIAN_POINT('',(0.,3.4,30.23749879651));
#471=CARTESIAN_POINT('',(0.,3.4,13.6));
#472=CARTESIAN_POINT('',(0.,0.,30.23749879651));
#473=CARTESIAN_POINT('',(0.,-3.4,30.23749879651));
#474=CARTESIAN_POINT('',(0.,-3.4,30.23749879651));
#475=CARTESIAN_POINT('',(0.,-3.4,13.6));
#476=CARTESIAN_POINT('',(0.,0.,13.6));
#477=CARTESIAN_POINT('',(0.,0.,78.99937373633));
#478=CARTESIAN_POINT('',(0.,0.,13.6));
#479=CARTESIAN_POINT('',(-150.,150.,13.6));
#480=CARTESIAN_POINT('',(0.,0.,30.23749879651));
#481=CARTESIAN_POINT('',(0.,0.,78.99937373633));
#482=CARTESIAN_POINT('',(0.,0.,30.23749879651));
#483=CARTESIAN_POINT('',(0.,3.5,30.23749879651));
#484=CARTESIAN_POINT('',(0.,-3.5,30.23749879651));
#485=CARTESIAN_POINT('',(0.,0.,30.23749879651));
#486=CARTESIAN_POINT('',(0.,0.,30.23749879651));
#487=CARTESIAN_POINT('',(0.,0.,74.18749879651));
#488=CARTESIAN_POINT('',(0.,3.5,74.18749879651));
#489=CARTESIAN_POINT('',(0.,-3.5,74.18749879651));
#490=CARTESIAN_POINT('',(0.,-3.5,74.18749879651));
#491=CARTESIAN_POINT('',(0.,3.5,74.18749879651));
#492=CARTESIAN_POINT('',(0.,0.,78.99937373633));
#493=CARTESIAN_POINT('',(0.,0.,74.18749879651));
#494=CARTESIAN_POINT('',(0.,0.,78.99937373633));
#495=CARTESIAN_POINT('',(0.,-2.45,75.23749879651));
#496=CARTESIAN_POINT('',(0.,-2.45,75.23749879651));
#497=CARTESIAN_POINT('',(0.,0.,75.23749879651));
#498=CARTESIAN_POINT('',(0.,2.45,75.23749879651));
#499=CARTESIAN_POINT('',(0.,2.45,75.23749879651));
#500=CARTESIAN_POINT('',(0.,0.,74.71249879651));
#501=CARTESIAN_POINT('',(0.,0.,75.23749879651));
#502=CARTESIAN_POINT('',(0.,0.,74.71249879651));
#503=CARTESIAN_POINT('',(0.,0.,75.23749879651));
#504=MECHANICAL_DESIGN_GEOMETRIC_PRESENTATION_REPRESENTATION('',(#267,#268,
#269,#270,#271,#272,#273,#274,#275,#276,#277,#278,#279,#280,#281,#282,#283),
#505);
#505=(
GEOMETRIC_REPRESENTATION_CONTEXT(3)
GLOBAL_UNCERTAINTY_ASSIGNED_CONTEXT((#506))
GLOBAL_UNIT_ASSIGNED_CONTEXT((#512,#508,#507))
REPRESENTATION_CONTEXT('DWAE0680X02S070','TOP_LEVEL_ASSEMBLY_PART')
);
#506=UNCERTAINTY_MEASURE_WITH_UNIT(LENGTH_MEASURE(2.E-5),#512,
'DISTANCE_ACCURACY_VALUE','Maximum Tolerance applied to model');
#507=(
NAMED_UNIT(*)
SI_UNIT($,.STERADIAN.)
SOLID_ANGLE_UNIT()
);
#508=(
CONVERSION_BASED_UNIT('DEGREE',#510)
NAMED_UNIT(#509)
PLANE_ANGLE_UNIT()
);
#509=DIMENSIONAL_EXPONENTS(0.,0.,0.,0.,0.,0.,0.);
#510=PLANE_ANGLE_MEASURE_WITH_UNIT(PLANE_ANGLE_MEASURE(0.0174532925),#511);
#511=(
NAMED_UNIT(*)
PLANE_ANGLE_UNIT()
SI_UNIT($,.RADIAN.)
);
#512=(
LENGTH_UNIT()
NAMED_UNIT(*)
SI_UNIT(.MILLI.,.METRE.)
);
ENDSEC;
END-ISO-10303-21;
