ISO-10303-21;
HEADER;
/* Generated by software containing ST-Developer
 * from STEP Tools, Inc. (www.steptools.com) 
 */
/* OPTION: using custom schema-name function */

FILE_DESCRIPTION(
/* description */ (''),
/* implementation_level */ '2;1');

FILE_NAME(
/* name */ 'DLE1200S120P090.stp',
/* time_stamp */ '2023-03-14T11:41:51+09:00',
/* author */ (''),
/* organization */ (''),
/* preprocessor_version */ 'ST-DEVELOPER v16',
/* originating_system */ 'SIEMENS PLM Software NX 10.0',
/* authorisation */ '');

FILE_SCHEMA (('AUTOMOTIVE_DESIGN { 1 0 10303 214 3 1 1 1 }'));
ENDSEC;

DATA;
#10=CONSTRUCTIVE_GEOMETRY_REPRESENTATION_RELATIONSHIP(
'supplemental geometry','',#26,#11);
#11=CONSTRUCTIVE_GEOMETRY_REPRESENTATION('supplemental geometry',(#289,
#290,#291,#292,#293,#294,#295,#296,#297,#298),#475);
#12=GEOMETRICALLY_BOUNDED_WIREFRAME_SHAPE_REPRESENTATION(
'DLE1200S120P090-None',(#27),#475);
#13=SHAPE_REPRESENTATION_RELATIONSHIP('None',
'relationship between DLE1200S120P090-None and DLE1200S120P090-None',#26,
#15);
#14=SHAPE_REPRESENTATION_RELATIONSHIP('None',
'relationship between DLE1200S120P090-None and DLE1200S120P090-None',#26,
#12);
#15=ADVANCED_BREP_SHAPE_REPRESENTATION('DLE1200S120P090-None',(#40,#41),
#475);
#16=SHAPE_DEFINITION_REPRESENTATION(#17,#26);
#17=PRODUCT_DEFINITION_SHAPE('','SHAPE FOR DLE1200S120P090_ASM.',#18);
#18=PRODUCT_DEFINITION('part definition','',#20,#19);
#19=PRODUCT_DEFINITION_CONTEXT('part definition',#25,'design');
#20=PRODUCT_DEFINITION_FORMATION_WITH_SPECIFIED_SOURCE(' ',' ',#22,
 .NOT_KNOWN.);
#21=PRODUCT_RELATED_PRODUCT_CATEGORY('part','',(#22));
#22=PRODUCT('DLE1200S120P090_ASM','DLE1200S120P090_ASM','NOT SPECIFIED',
(#23));
#23=PRODUCT_CONTEXT('',#25,'mechanical');
#24=APPLICATION_PROTOCOL_DEFINITION('international standard',
'automotive_design',2010,#25);
#25=APPLICATION_CONTEXT(
'core data for automotive mechanical design processes');
#26=SHAPE_REPRESENTATION('DLE1200S120P090-None',(#288),#475);
#27=GEOMETRIC_CURVE_SET('None',(#411,#217,#218,#219,#220));
#28=CYLINDRICAL_SURFACE('',#310,6.);
#29=CYLINDRICAL_SURFACE('',#313,6.);
#30=SURFACE_STYLE_USAGE(.BOTH.,#32);
#31=SURFACE_STYLE_USAGE(.BOTH.,#33);
#32=SURFACE_SIDE_STYLE('',(#34));
#33=SURFACE_SIDE_STYLE('',(#35));
#34=SURFACE_STYLE_FILL_AREA(#36);
#35=SURFACE_STYLE_FILL_AREA(#37);
#36=FILL_AREA_STYLE('',(#38));
#37=FILL_AREA_STYLE('',(#39));
#38=FILL_AREA_STYLE_COLOUR('',#187);
#39=FILL_AREA_STYLE_COLOUR('',#188);
#40=MANIFOLD_SOLID_BREP('CUT',#42);
#41=MANIFOLD_SOLID_BREP('NOCUT',#43);
#42=CLOSED_SHELL('',(#47,#48,#49,#50,#51));
#43=CLOSED_SHELL('',(#52,#53,#54,#55,#56,#57,#58,#59));
#44=PLANE('',#306);
#45=PLANE('',#318);
#46=PLANE('',#322);
#47=ADVANCED_FACE('',(#68),#60,.T.);
#48=ADVANCED_FACE('',(#69),#61,.T.);
#49=ADVANCED_FACE('',(#70),#62,.T.);
#50=ADVANCED_FACE('',(#71),#44,.F.);
#51=ADVANCED_FACE('',(#72),#63,.T.);
#52=ADVANCED_FACE('',(#73),#28,.T.);
#53=ADVANCED_FACE('',(#74),#29,.T.);
#54=ADVANCED_FACE('',(#75),#64,.T.);
#55=ADVANCED_FACE('',(#76),#65,.T.);
#56=ADVANCED_FACE('',(#77),#45,.F.);
#57=ADVANCED_FACE('',(#78),#66,.T.);
#58=ADVANCED_FACE('',(#79),#46,.F.);
#59=ADVANCED_FACE('',(#80),#67,.T.);
#60=CONICAL_SURFACE('',#300,0.765,68.19859051365);
#61=CONICAL_SURFACE('',#302,0.765,68.19859051365);
#62=CONICAL_SURFACE('',#304,3.65,45.);
#63=CONICAL_SURFACE('',#307,3.65,45.);
#64=CONICAL_SURFACE('',#315,5.5,45.);
#65=CONICAL_SURFACE('',#317,5.5,45.);
#66=CONICAL_SURFACE('',#320,5.9,45.);
#67=CONICAL_SURFACE('',#323,5.9,45.);
#68=FACE_OUTER_BOUND('',#81,.T.);
#69=FACE_OUTER_BOUND('',#82,.T.);
#70=FACE_OUTER_BOUND('',#83,.T.);
#71=FACE_OUTER_BOUND('',#84,.T.);
#72=FACE_OUTER_BOUND('',#85,.T.);
#73=FACE_OUTER_BOUND('',#86,.T.);
#74=FACE_OUTER_BOUND('',#87,.T.);
#75=FACE_OUTER_BOUND('',#88,.T.);
#76=FACE_OUTER_BOUND('',#89,.T.);
#77=FACE_OUTER_BOUND('',#90,.T.);
#78=FACE_OUTER_BOUND('',#91,.T.);
#79=FACE_OUTER_BOUND('',#92,.T.);
#80=FACE_OUTER_BOUND('',#93,.T.);
#81=EDGE_LOOP('',(#94,#95,#96));
#82=EDGE_LOOP('',(#97,#98,#99));
#83=EDGE_LOOP('',(#100,#101,#102,#103));
#84=EDGE_LOOP('',(#104,#105));
#85=EDGE_LOOP('',(#106,#107,#108,#109));
#86=EDGE_LOOP('',(#110,#111,#112,#113));
#87=EDGE_LOOP('',(#114,#115,#116,#117));
#88=EDGE_LOOP('',(#118,#119,#120,#121));
#89=EDGE_LOOP('',(#122,#123,#124,#125));
#90=EDGE_LOOP('',(#126,#127));
#91=EDGE_LOOP('',(#128,#129,#130,#131));
#92=EDGE_LOOP('',(#132,#133));
#93=EDGE_LOOP('',(#134,#135,#136,#137));
#94=ORIENTED_EDGE('',*,*,#151,.F.);
#95=ORIENTED_EDGE('',*,*,#152,.T.);
#96=ORIENTED_EDGE('',*,*,#153,.F.);
#97=ORIENTED_EDGE('',*,*,#152,.F.);
#98=ORIENTED_EDGE('',*,*,#154,.T.);
#99=ORIENTED_EDGE('',*,*,#153,.T.);
#100=ORIENTED_EDGE('',*,*,#155,.F.);
#101=ORIENTED_EDGE('',*,*,#154,.F.);
#102=ORIENTED_EDGE('',*,*,#156,.T.);
#103=ORIENTED_EDGE('',*,*,#157,.T.);
#104=ORIENTED_EDGE('',*,*,#157,.F.);
#105=ORIENTED_EDGE('',*,*,#158,.F.);
#106=ORIENTED_EDGE('',*,*,#156,.F.);
#107=ORIENTED_EDGE('',*,*,#151,.T.);
#108=ORIENTED_EDGE('',*,*,#155,.T.);
#109=ORIENTED_EDGE('',*,*,#158,.T.);
#110=ORIENTED_EDGE('',*,*,#159,.T.);
#111=ORIENTED_EDGE('',*,*,#160,.T.);
#112=ORIENTED_EDGE('',*,*,#161,.T.);
#113=ORIENTED_EDGE('',*,*,#162,.F.);
#114=ORIENTED_EDGE('',*,*,#163,.T.);
#115=ORIENTED_EDGE('',*,*,#160,.F.);
#116=ORIENTED_EDGE('',*,*,#164,.T.);
#117=ORIENTED_EDGE('',*,*,#162,.T.);
#118=ORIENTED_EDGE('',*,*,#164,.F.);
#119=ORIENTED_EDGE('',*,*,#165,.T.);
#120=ORIENTED_EDGE('',*,*,#166,.T.);
#121=ORIENTED_EDGE('',*,*,#167,.F.);
#122=ORIENTED_EDGE('',*,*,#168,.T.);
#123=ORIENTED_EDGE('',*,*,#165,.F.);
#124=ORIENTED_EDGE('',*,*,#159,.F.);
#125=ORIENTED_EDGE('',*,*,#167,.T.);
#126=ORIENTED_EDGE('',*,*,#168,.F.);
#127=ORIENTED_EDGE('',*,*,#166,.F.);
#128=ORIENTED_EDGE('',*,*,#169,.T.);
#129=ORIENTED_EDGE('',*,*,#163,.F.);
#130=ORIENTED_EDGE('',*,*,#170,.F.);
#131=ORIENTED_EDGE('',*,*,#171,.T.);
#132=ORIENTED_EDGE('',*,*,#171,.F.);
#133=ORIENTED_EDGE('',*,*,#172,.F.);
#134=ORIENTED_EDGE('',*,*,#170,.T.);
#135=ORIENTED_EDGE('',*,*,#161,.F.);
#136=ORIENTED_EDGE('',*,*,#169,.F.);
#137=ORIENTED_EDGE('',*,*,#172,.T.);
#138=VERTEX_POINT('',#427);
#139=VERTEX_POINT('',#428);
#140=VERTEX_POINT('',#430);
#141=VERTEX_POINT('',#436);
#142=VERTEX_POINT('',#438);
#143=VERTEX_POINT('',#445);
#144=VERTEX_POINT('',#446);
#145=VERTEX_POINT('',#448);
#146=VERTEX_POINT('',#450);
#147=VERTEX_POINT('',#457);
#148=VERTEX_POINT('',#459);
#149=VERTEX_POINT('',#466);
#150=VERTEX_POINT('',#468);
#151=EDGE_CURVE('',#138,#139,#173,.T.);
#152=EDGE_CURVE('',#138,#140,#225,.T.);
#153=EDGE_CURVE('',#139,#140,#226,.T.);
#154=EDGE_CURVE('',#138,#139,#174,.T.);
#155=EDGE_CURVE('',#139,#141,#227,.T.);
#156=EDGE_CURVE('',#138,#142,#228,.T.);
#157=EDGE_CURVE('',#142,#141,#175,.T.);
#158=EDGE_CURVE('',#141,#142,#176,.T.);
#159=EDGE_CURVE('',#143,#144,#177,.T.);
#160=EDGE_CURVE('',#144,#145,#229,.T.);
#161=EDGE_CURVE('',#145,#146,#178,.T.);
#162=EDGE_CURVE('',#143,#146,#230,.T.);
#163=EDGE_CURVE('',#146,#145,#179,.T.);
#164=EDGE_CURVE('',#144,#143,#180,.T.);
#165=EDGE_CURVE('',#144,#147,#231,.T.);
#166=EDGE_CURVE('',#147,#148,#181,.T.);
#167=EDGE_CURVE('',#143,#148,#232,.T.);
#168=EDGE_CURVE('',#148,#147,#182,.T.);
#169=EDGE_CURVE('',#149,#145,#233,.T.);
#170=EDGE_CURVE('',#150,#146,#234,.T.);
#171=EDGE_CURVE('',#150,#149,#183,.T.);
#172=EDGE_CURVE('',#149,#150,#184,.T.);
#173=CIRCLE('',#299,1.5);
#174=CIRCLE('',#301,1.5);
#175=CIRCLE('',#303,5.8);
#176=CIRCLE('',#305,5.8);
#177=CIRCLE('',#308,6.);
#178=CIRCLE('',#309,6.);
#179=CIRCLE('',#311,6.);
#180=CIRCLE('',#312,6.);
#181=CIRCLE('',#314,5.);
#182=CIRCLE('',#316,5.);
#183=CIRCLE('',#319,5.8);
#184=CIRCLE('',#321,5.8);
#185=COLOUR_RGB('Strong Stone',0.576470588235294,0.54508278019379,0.392156862745098);
#186=COLOUR_RGB('Medium Umber',0.372533760585946,0.313725490196078,0.270572976272221);
#187=COLOUR_RGB('Light Gray',0.8,0.8,0.8);
#188=COLOUR_RGB('non-cutting part and shank',0.501960784313725,0.501960784313725,
0.501960784313725);
#189=CURVE_STYLE('',#203,POSITIVE_LENGTH_MEASURE(0.18),#287);
#190=CURVE_STYLE('',#204,POSITIVE_LENGTH_MEASURE(0.18),#287);
#191=CURVE_STYLE('',#205,POSITIVE_LENGTH_MEASURE(0.18),#287);
#192=CURVE_STYLE('',#206,POSITIVE_LENGTH_MEASURE(0.18),#287);
#193=CURVE_STYLE('',#207,POSITIVE_LENGTH_MEASURE(0.13),#185);
#194=CURVE_STYLE('',#208,POSITIVE_LENGTH_MEASURE(0.13),#185);
#195=CURVE_STYLE('',#209,POSITIVE_LENGTH_MEASURE(0.13),#186);
#196=CURVE_STYLE('',#210,POSITIVE_LENGTH_MEASURE(0.13),#186);
#197=CURVE_STYLE('',#211,POSITIVE_LENGTH_MEASURE(0.13),#185);
#198=CURVE_STYLE('',#212,POSITIVE_LENGTH_MEASURE(0.13),#185);
#199=CURVE_STYLE('',#213,POSITIVE_LENGTH_MEASURE(0.13),#186);
#200=CURVE_STYLE('',#214,POSITIVE_LENGTH_MEASURE(0.13),#185);
#201=CURVE_STYLE('',#215,POSITIVE_LENGTH_MEASURE(0.13),#185);
#202=CURVE_STYLE('',#216,POSITIVE_LENGTH_MEASURE(0.13),#185);
#203=DRAUGHTING_PRE_DEFINED_CURVE_FONT('continuous');
#204=DRAUGHTING_PRE_DEFINED_CURVE_FONT('continuous');
#205=DRAUGHTING_PRE_DEFINED_CURVE_FONT('continuous');
#206=DRAUGHTING_PRE_DEFINED_CURVE_FONT('continuous');
#207=DRAUGHTING_PRE_DEFINED_CURVE_FONT('continuous');
#208=DRAUGHTING_PRE_DEFINED_CURVE_FONT('continuous');
#209=DRAUGHTING_PRE_DEFINED_CURVE_FONT('continuous');
#210=DRAUGHTING_PRE_DEFINED_CURVE_FONT('continuous');
#211=DRAUGHTING_PRE_DEFINED_CURVE_FONT('continuous');
#212=DRAUGHTING_PRE_DEFINED_CURVE_FONT('continuous');
#213=DRAUGHTING_PRE_DEFINED_CURVE_FONT('continuous');
#214=DRAUGHTING_PRE_DEFINED_CURVE_FONT('continuous');
#215=DRAUGHTING_PRE_DEFINED_CURVE_FONT('continuous');
#216=DRAUGHTING_PRE_DEFINED_CURVE_FONT('continuous');
#217=TRIMMED_CURVE('',#221,(PARAMETER_VALUE(0.)),(PARAMETER_VALUE(1.)),
 .T.,.PARAMETER.);
#218=TRIMMED_CURVE('',#222,(PARAMETER_VALUE(0.)),(PARAMETER_VALUE(1.)),
 .T.,.PARAMETER.);
#219=TRIMMED_CURVE('',#223,(PARAMETER_VALUE(0.)),(PARAMETER_VALUE(1.)),
 .T.,.PARAMETER.);
#220=TRIMMED_CURVE('',#224,(PARAMETER_VALUE(0.)),(PARAMETER_VALUE(1.)),
 .T.,.PARAMETER.);
#221=LINE('',#412,#235);
#222=LINE('',#413,#236);
#223=LINE('',#414,#237);
#224=LINE('',#415,#238);
#225=LINE('',#429,#239);
#226=LINE('',#431,#240);
#227=LINE('',#435,#241);
#228=LINE('',#437,#242);
#229=LINE('',#447,#243);
#230=LINE('',#451,#244);
#231=LINE('',#456,#245);
#232=LINE('',#460,#246);
#233=LINE('',#465,#247);
#234=LINE('',#467,#248);
#235=VECTOR('',#326,1.61554944214006);
#236=VECTOR('',#327,6.08111831820359);
#237=VECTOR('',#328,5.8);
#238=VECTOR('',#329,4.9);
#239=VECTOR('',#352,1.);
#240=VECTOR('',#353,1.);
#241=VECTOR('',#360,1.);
#242=VECTOR('',#361,1.);
#243=VECTOR('',#374,1.);
#244=VECTOR('',#377,1.);
#245=VECTOR('',#386,1.);
#246=VECTOR('',#389,1.);
#247=VECTOR('',#398,1.);
#248=VECTOR('',#399,1.);
#249=PRESENTATION_LAYER_ASSIGNMENT('1','Layer 1',(#411,#217,#218,#219,#220,
#289,#290,#293,#294,#295,#296,#297,#298,#40,#41));
#250=PRESENTATION_LAYER_ASSIGNMENT('2','Layer 2',(#291,#292));
#251=STYLED_ITEM('',(#268),#411);
#252=STYLED_ITEM('',(#269),#217);
#253=STYLED_ITEM('',(#270),#218);
#254=STYLED_ITEM('',(#271),#219);
#255=STYLED_ITEM('',(#272),#220);
#256=STYLED_ITEM('',(#273),#289);
#257=STYLED_ITEM('',(#274),#290);
#258=STYLED_ITEM('',(#275),#291);
#259=STYLED_ITEM('',(#276),#292);
#260=STYLED_ITEM('',(#277),#293);
#261=STYLED_ITEM('',(#278),#294);
#262=STYLED_ITEM('',(#279),#295);
#263=STYLED_ITEM('',(#280),#296);
#264=STYLED_ITEM('',(#281),#297);
#265=STYLED_ITEM('',(#282),#298);
#266=STYLED_ITEM('',(#283),#40);
#267=STYLED_ITEM('',(#284),#41);
#268=PRESENTATION_STYLE_ASSIGNMENT((#285));
#269=PRESENTATION_STYLE_ASSIGNMENT((#189));
#270=PRESENTATION_STYLE_ASSIGNMENT((#190));
#271=PRESENTATION_STYLE_ASSIGNMENT((#191));
#272=PRESENTATION_STYLE_ASSIGNMENT((#192));
#273=PRESENTATION_STYLE_ASSIGNMENT((#193));
#274=PRESENTATION_STYLE_ASSIGNMENT((#194));
#275=PRESENTATION_STYLE_ASSIGNMENT((#195));
#276=PRESENTATION_STYLE_ASSIGNMENT((#196));
#277=PRESENTATION_STYLE_ASSIGNMENT((#197));
#278=PRESENTATION_STYLE_ASSIGNMENT((#198));
#279=PRESENTATION_STYLE_ASSIGNMENT((#199));
#280=PRESENTATION_STYLE_ASSIGNMENT((#200));
#281=PRESENTATION_STYLE_ASSIGNMENT((#201));
#282=PRESENTATION_STYLE_ASSIGNMENT((#202));
#283=PRESENTATION_STYLE_ASSIGNMENT((#30));
#284=PRESENTATION_STYLE_ASSIGNMENT((#31));
#285=POINT_STYLE('',#286,POSITIVE_LENGTH_MEASURE(3.),#287);
#286=PRE_DEFINED_POINT_MARKER_SYMBOL('plus');
#287=DRAUGHTING_PRE_DEFINED_COLOUR('blue');
#288=AXIS2_PLACEMENT_3D('',#410,#324,#325);
#289=AXIS2_PLACEMENT_3D('',#416,#330,#331);
#290=AXIS2_PLACEMENT_3D('',#417,#332,#333);
#291=AXIS2_PLACEMENT_3D('CIP',#418,#334,#335);
#292=AXIS2_PLACEMENT_3D('PCS',#419,#336,#337);
#293=AXIS2_PLACEMENT_3D('MCS',#420,#338,#339);
#294=AXIS2_PLACEMENT_3D('',#421,#340,#341);
#295=AXIS2_PLACEMENT_3D('STEP_TEMP_4_1',#422,#342,#343);
#296=AXIS2_PLACEMENT_3D('',#423,#344,#345);
#297=AXIS2_PLACEMENT_3D('',#424,#346,#347);
#298=AXIS2_PLACEMENT_3D('',#425,#348,#349);
#299=AXIS2_PLACEMENT_3D('',#426,#350,#351);
#300=AXIS2_PLACEMENT_3D('',#432,#354,#355);
#301=AXIS2_PLACEMENT_3D('',#433,#356,#357);
#302=AXIS2_PLACEMENT_3D('',#434,#358,#359);
#303=AXIS2_PLACEMENT_3D('',#439,#362,#363);
#304=AXIS2_PLACEMENT_3D('',#440,#364,#365);
#305=AXIS2_PLACEMENT_3D('',#441,#366,#367);
#306=AXIS2_PLACEMENT_3D('',#442,#368,#369);
#307=AXIS2_PLACEMENT_3D('',#443,#370,#371);
#308=AXIS2_PLACEMENT_3D('',#444,#372,#373);
#309=AXIS2_PLACEMENT_3D('',#449,#375,#376);
#310=AXIS2_PLACEMENT_3D('',#452,#378,#379);
#311=AXIS2_PLACEMENT_3D('',#453,#380,#381);
#312=AXIS2_PLACEMENT_3D('',#454,#382,#383);
#313=AXIS2_PLACEMENT_3D('',#455,#384,#385);
#314=AXIS2_PLACEMENT_3D('',#458,#387,#388);
#315=AXIS2_PLACEMENT_3D('',#461,#390,#391);
#316=AXIS2_PLACEMENT_3D('',#462,#392,#393);
#317=AXIS2_PLACEMENT_3D('',#463,#394,#395);
#318=AXIS2_PLACEMENT_3D('',#464,#396,#397);
#319=AXIS2_PLACEMENT_3D('',#469,#400,#401);
#320=AXIS2_PLACEMENT_3D('',#470,#402,#403);
#321=AXIS2_PLACEMENT_3D('',#471,#404,#405);
#322=AXIS2_PLACEMENT_3D('',#472,#406,#407);
#323=AXIS2_PLACEMENT_3D('',#473,#408,#409);
#324=DIRECTION('',(0.,0.,1.));
#325=DIRECTION('',(1.,0.,0.));
#326=DIRECTION('',(-0.928476690885266,0.,0.371390676354086));
#327=DIRECTION('',(-0.707106781186548,0.,0.707106781186548));
#328=DIRECTION('',(1.,0.,0.));
#329=DIRECTION('',(0.,0.,-1.));
#330=DIRECTION('',(0.,0.,1.));
#331=DIRECTION('',(1.,0.,0.));
#332=DIRECTION('',(0.,0.,1.));
#333=DIRECTION('',(1.,0.,0.));
#334=DIRECTION('',(0.,0.,1.));
#335=DIRECTION('',(1.,0.,0.));
#336=DIRECTION('',(0.,0.,1.));
#337=DIRECTION('',(1.,0.,0.));
#338=DIRECTION('',(0.,0.,1.));
#339=DIRECTION('',(1.,0.,0.));
#340=DIRECTION('',(0.,0.,1.));
#341=DIRECTION('',(1.,0.,0.));
#342=DIRECTION('',(0.,0.,1.));
#343=DIRECTION('',(1.,0.,0.));
#344=DIRECTION('',(0.,0.,1.));
#345=DIRECTION('',(1.,0.,0.));
#346=DIRECTION('',(0.,0.,1.));
#347=DIRECTION('',(1.,0.,0.));
#348=DIRECTION('',(0.,0.,1.));
#349=DIRECTION('',(1.,0.,0.));
#350=DIRECTION('',(0.,0.,1.));
#351=DIRECTION('',(0.,-1.,0.));
#352=DIRECTION('',(0.,0.928476690885266,-0.371390676354087));
#353=DIRECTION('',(0.,-0.928476690885266,-0.371390676354087));
#354=DIRECTION('',(0.,0.,1.));
#355=DIRECTION('',(0.,-1.,-3.30146956770283E-17));
#356=DIRECTION('',(0.,0.,-1.));
#357=DIRECTION('',(0.,-1.,0.));
#358=DIRECTION('',(0.,0.,1.));
#359=DIRECTION('',(0.,-1.,-3.30146956770283E-17));
#360=DIRECTION('',(0.,0.707106781186547,0.707106781186547));
#361=DIRECTION('',(0.,-0.707106781186547,0.707106781186547));
#362=DIRECTION('',(0.,0.,-1.));
#363=DIRECTION('',(0.,-1.,0.));
#364=DIRECTION('',(0.,0.,1.));
#365=DIRECTION('',(0.,-1.,3.02472583366653E-17));
#366=DIRECTION('',(0.,0.,-1.));
#367=DIRECTION('',(0.,1.,0.));
#368=DIRECTION('',(0.,0.,-1.));
#369=DIRECTION('',(1.,0.,0.));
#370=DIRECTION('',(0.,0.,1.));
#371=DIRECTION('',(0.,-1.,3.02472583366653E-17));
#372=DIRECTION('',(0.,0.,-1.));
#373=DIRECTION('',(0.,1.,0.));
#374=DIRECTION('',(0.,0.,-1.));
#375=DIRECTION('',(0.,0.,1.));
#376=DIRECTION('',(0.,-1.,0.));
#377=DIRECTION('',(0.,0.,-1.));
#378=DIRECTION('',(0.,0.,-1.));
#379=DIRECTION('',(0.,1.,0.));
#380=DIRECTION('',(0.,0.,1.));
#381=DIRECTION('',(0.,1.,0.));
#382=DIRECTION('',(0.,0.,-1.));
#383=DIRECTION('',(0.,-1.,0.));
#384=DIRECTION('',(0.,0.,-1.));
#385=DIRECTION('',(0.,1.,0.));
#386=DIRECTION('',(0.,0.707106781186547,0.707106781186547));
#387=DIRECTION('',(0.,0.,-1.));
#388=DIRECTION('',(0.,-1.,0.));
#389=DIRECTION('',(0.,-0.707106781186547,0.707106781186547));
#390=DIRECTION('',(0.,0.,-1.));
#391=DIRECTION('',(0.,1.,2.76037549633306E-17));
#392=DIRECTION('',(0.,0.,-1.));
#393=DIRECTION('',(0.,1.,0.));
#394=DIRECTION('',(0.,0.,-1.));
#395=DIRECTION('',(0.,1.,2.76037549633306E-17));
#396=DIRECTION('',(0.,0.,-1.));
#397=DIRECTION('',(0.,1.,0.));
#398=DIRECTION('',(0.,-0.707106781186598,0.707106781186498));
#399=DIRECTION('',(0.,0.707106781186598,0.707106781186498));
#400=DIRECTION('',(0.,0.,1.));
#401=DIRECTION('',(0.,1.,0.));
#402=DIRECTION('',(0.,0.,1.));
#403=DIRECTION('',(0.,-1.,-1.0605974129891E-16));
#404=DIRECTION('',(0.,0.,1.));
#405=DIRECTION('',(0.,-1.,0.));
#406=DIRECTION('',(0.,0.,1.));
#407=DIRECTION('',(-1.,0.,0.));
#408=DIRECTION('',(0.,0.,1.));
#409=DIRECTION('',(0.,-1.,-1.0605974129891E-16));
#410=CARTESIAN_POINT('',(0.,0.,0.));
#411=CARTESIAN_POINT('CRP',(-6.,0.,5.1));
#412=CARTESIAN_POINT('',(0.,0.,0.));
#413=CARTESIAN_POINT('',(-1.5,0.,0.6));
#414=CARTESIAN_POINT('',(-5.8,0.,4.9));
#415=CARTESIAN_POINT('',(0.,0.,4.9));
#416=CARTESIAN_POINT('',(0.,0.,0.));
#417=CARTESIAN_POINT('',(0.,0.,0.));
#418=CARTESIAN_POINT('',(0.,0.,0.));
#419=CARTESIAN_POINT('',(0.,0.,95.));
#420=CARTESIAN_POINT('',(0.,0.,30.));
#421=CARTESIAN_POINT('',(0.,0.,0.));
#422=CARTESIAN_POINT('',(0.,0.,0.));
#423=CARTESIAN_POINT('',(0.,0.,0.));
#424=CARTESIAN_POINT('',(0.,0.,0.));
#425=CARTESIAN_POINT('',(0.,0.,0.));
#426=CARTESIAN_POINT('',(0.,-1.739220578184E-14,0.6));
#427=CARTESIAN_POINT('',(0.,-1.5,0.6));
#428=CARTESIAN_POINT('',(0.,1.5,0.6));
#429=CARTESIAN_POINT('',(0.,-1.5,0.6));
#430=CARTESIAN_POINT('',(0.,-1.731947918415E-14,2.808864252302E-14));
#431=CARTESIAN_POINT('',(0.,1.5,0.6));
#432=CARTESIAN_POINT('',(0.,-1.739220578184E-14,0.306));
#433=CARTESIAN_POINT('',(0.,-1.694325026527E-14,0.6));
#434=CARTESIAN_POINT('',(0.,-1.739220578184E-14,0.306));
#435=CARTESIAN_POINT('',(0.,5.8,4.9));
#436=CARTESIAN_POINT('',(0.,5.8,4.9));
#437=CARTESIAN_POINT('',(0.,-5.8,4.9));
#438=CARTESIAN_POINT('',(0.,-5.8,4.9));
#439=CARTESIAN_POINT('',(0.,-1.694325026527E-14,4.9));
#440=CARTESIAN_POINT('',(0.,-1.694325026527E-14,2.75));
#441=CARTESIAN_POINT('',(0.,-1.694325026527E-14,4.9));
#442=CARTESIAN_POINT('',(150.,150.,4.9));
#443=CARTESIAN_POINT('',(0.,-1.694325026527E-14,2.75));
#444=CARTESIAN_POINT('',(0.,0.,94.));
#445=CARTESIAN_POINT('',(0.,6.,94.));
#446=CARTESIAN_POINT('',(0.,-6.,94.));
#447=CARTESIAN_POINT('',(0.,-6.,94.));
#448=CARTESIAN_POINT('',(0.,-6.,5.1));
#449=CARTESIAN_POINT('',(0.,-1.652993197056E-14,5.1));
#450=CARTESIAN_POINT('',(0.,6.,5.1));
#451=CARTESIAN_POINT('',(0.,6.,94.));
#452=CARTESIAN_POINT('',(0.,0.,99.75));
#453=CARTESIAN_POINT('',(0.,-1.652993197056E-14,5.1));
#454=CARTESIAN_POINT('',(0.,0.,94.));
#455=CARTESIAN_POINT('',(0.,0.,99.75));
#456=CARTESIAN_POINT('',(0.,-5.,95.));
#457=CARTESIAN_POINT('',(0.,-5.,95.));
#458=CARTESIAN_POINT('',(0.,0.,95.));
#459=CARTESIAN_POINT('',(0.,5.,95.));
#460=CARTESIAN_POINT('',(0.,5.,95.));
#461=CARTESIAN_POINT('',(0.,0.,94.5));
#462=CARTESIAN_POINT('',(0.,0.,95.));
#463=CARTESIAN_POINT('',(0.,0.,94.5));
#464=CARTESIAN_POINT('',(0.,0.,95.));
#465=CARTESIAN_POINT('',(0.,-6.,5.1));
#466=CARTESIAN_POINT('',(0.,-5.8,4.9));
#467=CARTESIAN_POINT('',(0.,6.,5.1));
#468=CARTESIAN_POINT('',(0.,5.8,4.9));
#469=CARTESIAN_POINT('',(0.,-1.652993197056E-14,4.9));
#470=CARTESIAN_POINT('',(0.,-1.652993197056E-14,5.));
#471=CARTESIAN_POINT('',(0.,-1.652993197056E-14,4.9));
#472=CARTESIAN_POINT('',(-150.,150.,4.9));
#473=CARTESIAN_POINT('',(0.,-1.652993197056E-14,5.));
#474=MECHANICAL_DESIGN_GEOMETRIC_PRESENTATION_REPRESENTATION('',(#251,#252,
#253,#254,#255,#256,#257,#258,#259,#260,#261,#262,#263,#264,#265,#266,#267),
#475);
#475=(
GEOMETRIC_REPRESENTATION_CONTEXT(3)
GLOBAL_UNCERTAINTY_ASSIGNED_CONTEXT((#476))
GLOBAL_UNIT_ASSIGNED_CONTEXT((#482,#478,#477))
REPRESENTATION_CONTEXT('DLE1200S120P090','TOP_LEVEL_ASSEMBLY_PART')
);
#476=UNCERTAINTY_MEASURE_WITH_UNIT(LENGTH_MEASURE(2.E-5),#482,
'DISTANCE_ACCURACY_VALUE','Maximum Tolerance applied to model');
#477=(
NAMED_UNIT(*)
SI_UNIT($,.STERADIAN.)
SOLID_ANGLE_UNIT()
);
#478=(
CONVERSION_BASED_UNIT('DEGREE',#480)
NAMED_UNIT(#479)
PLANE_ANGLE_UNIT()
);
#479=DIMENSIONAL_EXPONENTS(0.,0.,0.,0.,0.,0.,0.);
#480=PLANE_ANGLE_MEASURE_WITH_UNIT(PLANE_ANGLE_MEASURE(0.0174532925),#481);
#481=(
NAMED_UNIT(*)
PLANE_ANGLE_UNIT()
SI_UNIT($,.RADIAN.)
);
#482=(
LENGTH_UNIT()
NAMED_UNIT(*)
SI_UNIT(.MILLI.,.METRE.)
);
ENDSEC;
END-ISO-10303-21;
