ISO-10303-21;
HEADER;
/* Generated by software containing ST-Developer
 * from STEP Tools, Inc. (www.steptools.com) 
 */
/* OPTION: using custom schema-name function */

FILE_DESCRIPTION(
/* description */ (''),
/* implementation_level */ '2;1');

FILE_NAME(
/* name */ 'MVS0900X40S100.stp',
/* time_stamp */ '2023-03-08T09:04:34+09:00',
/* author */ (''),
/* organization */ (''),
/* preprocessor_version */ 'ST-DEVELOPER v16',
/* originating_system */ 'SIEMENS PLM Software NX 10.0',
/* authorisation */ '');

FILE_SCHEMA (('AUTOMOTIVE_DESIGN { 1 0 10303 214 3 1 1 1 }'));
ENDSEC;

DATA;
#10=CONSTRUCTIVE_GEOMETRY_REPRESENTATION_RELATIONSHIP(
'supplemental geometry','',#26,#11);
#11=CONSTRUCTIVE_GEOMETRY_REPRESENTATION('supplemental geometry',(#305,
#306,#307,#308,#309,#310,#311,#312,#313,#314),#505);
#12=GEOMETRICALLY_BOUNDED_WIREFRAME_SHAPE_REPRESENTATION(
'MVS0900X40S100-None',(#27),#505);
#13=SHAPE_REPRESENTATION_RELATIONSHIP('None',
'relationship between MVS0900X40S100-None and MVS0900X40S100-None',#26,
#15);
#14=SHAPE_REPRESENTATION_RELATIONSHIP('None',
'relationship between MVS0900X40S100-None and MVS0900X40S100-None',#26,
#12);
#15=ADVANCED_BREP_SHAPE_REPRESENTATION('MVS0900X40S100-None',(#38,#39),
#505);
#16=SHAPE_DEFINITION_REPRESENTATION(#17,#26);
#17=PRODUCT_DEFINITION_SHAPE('','SHAPE FOR MVS0900X40S100_ASM.',#18);
#18=PRODUCT_DEFINITION('part definition','',#20,#19);
#19=PRODUCT_DEFINITION_CONTEXT('part definition',#25,'design');
#20=PRODUCT_DEFINITION_FORMATION_WITH_SPECIFIED_SOURCE(' ',' ',#22,
 .NOT_KNOWN.);
#21=PRODUCT_RELATED_PRODUCT_CATEGORY('part','',(#22));
#22=PRODUCT('MVS0900X40S100_ASM','MVS0900X40S100_ASM','NOT SPECIFIED',(#23));
#23=PRODUCT_CONTEXT('',#25,'mechanical');
#24=APPLICATION_PROTOCOL_DEFINITION('international standard',
'automotive_design',2010,#25);
#25=APPLICATION_CONTEXT(
'core data for automotive mechanical design processes');
#26=SHAPE_REPRESENTATION('MVS0900X40S100-None',(#304),#505);
#27=GEOMETRIC_CURVE_SET('None',(#436,#233,#234,#235,#236));
#28=SURFACE_STYLE_USAGE(.BOTH.,#30);
#29=SURFACE_STYLE_USAGE(.BOTH.,#31);
#30=SURFACE_SIDE_STYLE('',(#32));
#31=SURFACE_SIDE_STYLE('',(#33));
#32=SURFACE_STYLE_FILL_AREA(#34);
#33=SURFACE_STYLE_FILL_AREA(#35);
#34=FILL_AREA_STYLE('',(#36));
#35=FILL_AREA_STYLE('',(#37));
#36=FILL_AREA_STYLE_COLOUR('',#203);
#37=FILL_AREA_STYLE_COLOUR('',#204);
#38=MANIFOLD_SOLID_BREP('CUT',#40);
#39=MANIFOLD_SOLID_BREP('NOCUT',#41);
#40=CLOSED_SHELL('',(#52,#53,#54,#55,#56,#57,#58,#59));
#41=CLOSED_SHELL('',(#60,#61,#62,#63,#64,#65));
#42=CONICAL_SURFACE('',#329,2.478843898288,70.);
#43=CONICAL_SURFACE('',#330,2.478843898288,70.);
#44=CONICAL_SURFACE('',#339,4.5,45.);
#45=CONICAL_SURFACE('',#341,4.5,45.);
#46=PLANE('',#323);
#47=PLANE('',#327);
#48=PLANE('',#335);
#49=PLANE('',#342);
#50=FACE_BOUND('',#87,.T.);
#51=FACE_BOUND('',#88,.T.);
#52=ADVANCED_FACE('',(#72),#66,.T.);
#53=ADVANCED_FACE('',(#73),#67,.T.);
#54=ADVANCED_FACE('',(#50,#51),#46,.T.);
#55=ADVANCED_FACE('',(#74),#68,.T.);
#56=ADVANCED_FACE('',(#75),#47,.F.);
#57=ADVANCED_FACE('',(#76),#69,.T.);
#58=ADVANCED_FACE('',(#77),#42,.T.);
#59=ADVANCED_FACE('',(#78),#43,.T.);
#60=ADVANCED_FACE('',(#79),#70,.T.);
#61=ADVANCED_FACE('',(#80),#48,.F.);
#62=ADVANCED_FACE('',(#81),#71,.T.);
#63=ADVANCED_FACE('',(#82),#44,.T.);
#64=ADVANCED_FACE('',(#83),#45,.T.);
#65=ADVANCED_FACE('',(#84),#49,.F.);
#66=CYLINDRICAL_SURFACE('',#317,4.5);
#67=CYLINDRICAL_SURFACE('',#320,4.5);
#68=CYLINDRICAL_SURFACE('',#325,5.);
#69=CYLINDRICAL_SURFACE('',#328,5.);
#70=CYLINDRICAL_SURFACE('',#333,5.);
#71=CYLINDRICAL_SURFACE('',#337,5.);
#72=FACE_OUTER_BOUND('',#85,.T.);
#73=FACE_OUTER_BOUND('',#86,.T.);
#74=FACE_OUTER_BOUND('',#89,.T.);
#75=FACE_OUTER_BOUND('',#90,.T.);
#76=FACE_OUTER_BOUND('',#91,.T.);
#77=FACE_OUTER_BOUND('',#92,.T.);
#78=FACE_OUTER_BOUND('',#93,.T.);
#79=FACE_OUTER_BOUND('',#94,.T.);
#80=FACE_OUTER_BOUND('',#95,.T.);
#81=FACE_OUTER_BOUND('',#96,.T.);
#82=FACE_OUTER_BOUND('',#97,.T.);
#83=FACE_OUTER_BOUND('',#98,.T.);
#84=FACE_OUTER_BOUND('',#99,.T.);
#85=EDGE_LOOP('',(#100,#101,#102,#103));
#86=EDGE_LOOP('',(#104,#105,#106,#107));
#87=EDGE_LOOP('',(#108,#109));
#88=EDGE_LOOP('',(#110,#111));
#89=EDGE_LOOP('',(#112,#113,#114,#115));
#90=EDGE_LOOP('',(#116,#117));
#91=EDGE_LOOP('',(#118,#119,#120,#121));
#92=EDGE_LOOP('',(#122,#123,#124));
#93=EDGE_LOOP('',(#125,#126,#127));
#94=EDGE_LOOP('',(#128,#129,#130,#131));
#95=EDGE_LOOP('',(#132,#133));
#96=EDGE_LOOP('',(#134,#135,#136,#137));
#97=EDGE_LOOP('',(#138,#139,#140,#141));
#98=EDGE_LOOP('',(#142,#143,#144,#145));
#99=EDGE_LOOP('',(#146,#147));
#100=ORIENTED_EDGE('',*,*,#163,.T.);
#101=ORIENTED_EDGE('',*,*,#164,.T.);
#102=ORIENTED_EDGE('',*,*,#165,.T.);
#103=ORIENTED_EDGE('',*,*,#166,.F.);
#104=ORIENTED_EDGE('',*,*,#167,.T.);
#105=ORIENTED_EDGE('',*,*,#164,.F.);
#106=ORIENTED_EDGE('',*,*,#168,.T.);
#107=ORIENTED_EDGE('',*,*,#166,.T.);
#108=ORIENTED_EDGE('',*,*,#169,.F.);
#109=ORIENTED_EDGE('',*,*,#170,.F.);
#110=ORIENTED_EDGE('',*,*,#163,.F.);
#111=ORIENTED_EDGE('',*,*,#168,.F.);
#112=ORIENTED_EDGE('',*,*,#171,.T.);
#113=ORIENTED_EDGE('',*,*,#170,.T.);
#114=ORIENTED_EDGE('',*,*,#172,.F.);
#115=ORIENTED_EDGE('',*,*,#173,.T.);
#116=ORIENTED_EDGE('',*,*,#174,.F.);
#117=ORIENTED_EDGE('',*,*,#173,.F.);
#118=ORIENTED_EDGE('',*,*,#172,.T.);
#119=ORIENTED_EDGE('',*,*,#169,.T.);
#120=ORIENTED_EDGE('',*,*,#171,.F.);
#121=ORIENTED_EDGE('',*,*,#174,.T.);
#122=ORIENTED_EDGE('',*,*,#175,.T.);
#123=ORIENTED_EDGE('',*,*,#167,.F.);
#124=ORIENTED_EDGE('',*,*,#176,.F.);
#125=ORIENTED_EDGE('',*,*,#165,.F.);
#126=ORIENTED_EDGE('',*,*,#175,.F.);
#127=ORIENTED_EDGE('',*,*,#176,.T.);
#128=ORIENTED_EDGE('',*,*,#177,.F.);
#129=ORIENTED_EDGE('',*,*,#178,.T.);
#130=ORIENTED_EDGE('',*,*,#179,.T.);
#131=ORIENTED_EDGE('',*,*,#180,.T.);
#132=ORIENTED_EDGE('',*,*,#181,.F.);
#133=ORIENTED_EDGE('',*,*,#180,.F.);
#134=ORIENTED_EDGE('',*,*,#179,.F.);
#135=ORIENTED_EDGE('',*,*,#182,.T.);
#136=ORIENTED_EDGE('',*,*,#177,.T.);
#137=ORIENTED_EDGE('',*,*,#181,.T.);
#138=ORIENTED_EDGE('',*,*,#182,.F.);
#139=ORIENTED_EDGE('',*,*,#183,.T.);
#140=ORIENTED_EDGE('',*,*,#184,.T.);
#141=ORIENTED_EDGE('',*,*,#185,.F.);
#142=ORIENTED_EDGE('',*,*,#186,.T.);
#143=ORIENTED_EDGE('',*,*,#183,.F.);
#144=ORIENTED_EDGE('',*,*,#178,.F.);
#145=ORIENTED_EDGE('',*,*,#185,.T.);
#146=ORIENTED_EDGE('',*,*,#186,.F.);
#147=ORIENTED_EDGE('',*,*,#184,.F.);
#148=VERTEX_POINT('',#452);
#149=VERTEX_POINT('',#453);
#150=VERTEX_POINT('',#455);
#151=VERTEX_POINT('',#457);
#152=VERTEX_POINT('',#464);
#153=VERTEX_POINT('',#465);
#154=VERTEX_POINT('',#469);
#155=VERTEX_POINT('',#471);
#156=VERTEX_POINT('',#478);
#157=VERTEX_POINT('',#483);
#158=VERTEX_POINT('',#484);
#159=VERTEX_POINT('',#486);
#160=VERTEX_POINT('',#488);
#161=VERTEX_POINT('',#496);
#162=VERTEX_POINT('',#498);
#163=EDGE_CURVE('',#148,#149,#187,.T.);
#164=EDGE_CURVE('',#149,#150,#241,.T.);
#165=EDGE_CURVE('',#150,#151,#188,.T.);
#166=EDGE_CURVE('',#148,#151,#242,.T.);
#167=EDGE_CURVE('',#151,#150,#189,.T.);
#168=EDGE_CURVE('',#149,#148,#190,.T.);
#169=EDGE_CURVE('',#152,#153,#191,.T.);
#170=EDGE_CURVE('',#153,#152,#192,.T.);
#171=EDGE_CURVE('',#154,#153,#243,.T.);
#172=EDGE_CURVE('',#155,#152,#244,.T.);
#173=EDGE_CURVE('',#155,#154,#193,.T.);
#174=EDGE_CURVE('',#154,#155,#194,.T.);
#175=EDGE_CURVE('',#156,#150,#245,.T.);
#176=EDGE_CURVE('',#156,#151,#246,.T.);
#177=EDGE_CURVE('',#157,#158,#247,.T.);
#178=EDGE_CURVE('',#157,#159,#195,.T.);
#179=EDGE_CURVE('',#159,#160,#248,.T.);
#180=EDGE_CURVE('',#160,#158,#196,.T.);
#181=EDGE_CURVE('',#158,#160,#197,.T.);
#182=EDGE_CURVE('',#159,#157,#198,.T.);
#183=EDGE_CURVE('',#159,#161,#249,.T.);
#184=EDGE_CURVE('',#161,#162,#199,.T.);
#185=EDGE_CURVE('',#157,#162,#250,.T.);
#186=EDGE_CURVE('',#162,#161,#200,.T.);
#187=CIRCLE('',#315,4.5);
#188=CIRCLE('',#316,4.5);
#189=CIRCLE('',#318,4.5);
#190=CIRCLE('',#319,4.5);
#191=CIRCLE('',#321,5.);
#192=CIRCLE('',#322,5.);
#193=CIRCLE('',#324,5.);
#194=CIRCLE('',#326,5.);
#195=CIRCLE('',#331,5.);
#196=CIRCLE('',#332,5.);
#197=CIRCLE('',#334,5.);
#198=CIRCLE('',#336,5.);
#199=CIRCLE('',#338,4.);
#200=CIRCLE('',#340,4.);
#201=COLOUR_RGB('Strong Stone',0.576470588235294,0.54508278019379,0.392156862745098);
#202=COLOUR_RGB('Medium Umber',0.372533760585946,0.313725490196078,0.270572976272221);
#203=COLOUR_RGB('Light Gray',0.8,0.8,0.8);
#204=COLOUR_RGB('non-cutting part and shank',0.501960784313725,0.501960784313725,
0.501960784313725);
#205=CURVE_STYLE('',#219,POSITIVE_LENGTH_MEASURE(0.18),#303);
#206=CURVE_STYLE('',#220,POSITIVE_LENGTH_MEASURE(0.18),#303);
#207=CURVE_STYLE('',#221,POSITIVE_LENGTH_MEASURE(0.18),#303);
#208=CURVE_STYLE('',#222,POSITIVE_LENGTH_MEASURE(0.18),#303);
#209=CURVE_STYLE('',#223,POSITIVE_LENGTH_MEASURE(0.13),#201);
#210=CURVE_STYLE('',#224,POSITIVE_LENGTH_MEASURE(0.13),#201);
#211=CURVE_STYLE('',#225,POSITIVE_LENGTH_MEASURE(0.13),#202);
#212=CURVE_STYLE('',#226,POSITIVE_LENGTH_MEASURE(0.13),#202);
#213=CURVE_STYLE('',#227,POSITIVE_LENGTH_MEASURE(0.13),#201);
#214=CURVE_STYLE('',#228,POSITIVE_LENGTH_MEASURE(0.13),#201);
#215=CURVE_STYLE('',#229,POSITIVE_LENGTH_MEASURE(0.13),#202);
#216=CURVE_STYLE('',#230,POSITIVE_LENGTH_MEASURE(0.13),#201);
#217=CURVE_STYLE('',#231,POSITIVE_LENGTH_MEASURE(0.13),#201);
#218=CURVE_STYLE('',#232,POSITIVE_LENGTH_MEASURE(0.13),#201);
#219=DRAUGHTING_PRE_DEFINED_CURVE_FONT('continuous');
#220=DRAUGHTING_PRE_DEFINED_CURVE_FONT('continuous');
#221=DRAUGHTING_PRE_DEFINED_CURVE_FONT('continuous');
#222=DRAUGHTING_PRE_DEFINED_CURVE_FONT('continuous');
#223=DRAUGHTING_PRE_DEFINED_CURVE_FONT('continuous');
#224=DRAUGHTING_PRE_DEFINED_CURVE_FONT('continuous');
#225=DRAUGHTING_PRE_DEFINED_CURVE_FONT('continuous');
#226=DRAUGHTING_PRE_DEFINED_CURVE_FONT('continuous');
#227=DRAUGHTING_PRE_DEFINED_CURVE_FONT('continuous');
#228=DRAUGHTING_PRE_DEFINED_CURVE_FONT('continuous');
#229=DRAUGHTING_PRE_DEFINED_CURVE_FONT('continuous');
#230=DRAUGHTING_PRE_DEFINED_CURVE_FONT('continuous');
#231=DRAUGHTING_PRE_DEFINED_CURVE_FONT('continuous');
#232=DRAUGHTING_PRE_DEFINED_CURVE_FONT('continuous');
#233=TRIMMED_CURVE('',#237,(PARAMETER_VALUE(0.)),(PARAMETER_VALUE(1.)),
 .T.,.PARAMETER.);
#234=TRIMMED_CURVE('',#238,(PARAMETER_VALUE(0.)),(PARAMETER_VALUE(1.)),
 .T.,.PARAMETER.);
#235=TRIMMED_CURVE('',#239,(PARAMETER_VALUE(0.)),(PARAMETER_VALUE(1.)),
 .T.,.PARAMETER.);
#236=TRIMMED_CURVE('',#240,(PARAMETER_VALUE(0.)),(PARAMETER_VALUE(1.)),
 .T.,.PARAMETER.);
#237=LINE('',#437,#251);
#238=LINE('',#438,#252);
#239=LINE('',#439,#253);
#240=LINE('',#440,#254);
#241=LINE('',#454,#255);
#242=LINE('',#458,#256);
#243=LINE('',#468,#257);
#244=LINE('',#470,#258);
#245=LINE('',#477,#259);
#246=LINE('',#479,#260);
#247=LINE('',#482,#261);
#248=LINE('',#487,#262);
#249=LINE('',#495,#263);
#250=LINE('',#499,#264);
#251=VECTOR('',#345,4.78879997614201);
#252=VECTOR('',#346,404.);
#253=VECTOR('',#347,4.5);
#254=VECTOR('',#348,405.6378660542);
#255=VECTOR('',#371,1.);
#256=VECTOR('',#374,1.);
#257=VECTOR('',#389,1.);
#258=VECTOR('',#390,1.);
#259=VECTOR('',#401,1.);
#260=VECTOR('',#402,1.);
#261=VECTOR('',#407,1.);
#262=VECTOR('',#410,1.);
#263=VECTOR('',#423,1.);
#264=VECTOR('',#426,1.);
#265=PRESENTATION_LAYER_ASSIGNMENT('1','Layer 1',(#436,#233,#234,#235,#236,
#305,#306,#309,#310,#311,#312,#313,#314,#38,#39));
#266=PRESENTATION_LAYER_ASSIGNMENT('2','Layer 2',(#307,#308));
#267=STYLED_ITEM('',(#284),#436);
#268=STYLED_ITEM('',(#285),#233);
#269=STYLED_ITEM('',(#286),#234);
#270=STYLED_ITEM('',(#287),#235);
#271=STYLED_ITEM('',(#288),#236);
#272=STYLED_ITEM('',(#289),#305);
#273=STYLED_ITEM('',(#290),#306);
#274=STYLED_ITEM('',(#291),#307);
#275=STYLED_ITEM('',(#292),#308);
#276=STYLED_ITEM('',(#293),#309);
#277=STYLED_ITEM('',(#294),#310);
#278=STYLED_ITEM('',(#295),#311);
#279=STYLED_ITEM('',(#296),#312);
#280=STYLED_ITEM('',(#297),#313);
#281=STYLED_ITEM('',(#298),#314);
#282=STYLED_ITEM('',(#299),#38);
#283=STYLED_ITEM('',(#300),#39);
#284=PRESENTATION_STYLE_ASSIGNMENT((#301));
#285=PRESENTATION_STYLE_ASSIGNMENT((#205));
#286=PRESENTATION_STYLE_ASSIGNMENT((#206));
#287=PRESENTATION_STYLE_ASSIGNMENT((#207));
#288=PRESENTATION_STYLE_ASSIGNMENT((#208));
#289=PRESENTATION_STYLE_ASSIGNMENT((#209));
#290=PRESENTATION_STYLE_ASSIGNMENT((#210));
#291=PRESENTATION_STYLE_ASSIGNMENT((#211));
#292=PRESENTATION_STYLE_ASSIGNMENT((#212));
#293=PRESENTATION_STYLE_ASSIGNMENT((#213));
#294=PRESENTATION_STYLE_ASSIGNMENT((#214));
#295=PRESENTATION_STYLE_ASSIGNMENT((#215));
#296=PRESENTATION_STYLE_ASSIGNMENT((#216));
#297=PRESENTATION_STYLE_ASSIGNMENT((#217));
#298=PRESENTATION_STYLE_ASSIGNMENT((#218));
#299=PRESENTATION_STYLE_ASSIGNMENT((#28));
#300=PRESENTATION_STYLE_ASSIGNMENT((#29));
#301=POINT_STYLE('',#302,POSITIVE_LENGTH_MEASURE(3.),#303);
#302=PRE_DEFINED_POINT_MARKER_SYMBOL('plus');
#303=DRAUGHTING_PRE_DEFINED_COLOUR('blue');
#304=AXIS2_PLACEMENT_3D('',#435,#343,#344);
#305=AXIS2_PLACEMENT_3D('',#441,#349,#350);
#306=AXIS2_PLACEMENT_3D('',#442,#351,#352);
#307=AXIS2_PLACEMENT_3D('CIP',#443,#353,#354);
#308=AXIS2_PLACEMENT_3D('PCS',#444,#355,#356);
#309=AXIS2_PLACEMENT_3D('MCS',#445,#357,#358);
#310=AXIS2_PLACEMENT_3D('',#446,#359,#360);
#311=AXIS2_PLACEMENT_3D('STEP_TEMP_2_1',#447,#361,#362);
#312=AXIS2_PLACEMENT_3D('',#448,#363,#364);
#313=AXIS2_PLACEMENT_3D('',#449,#365,#366);
#314=AXIS2_PLACEMENT_3D('',#450,#367,#368);
#315=AXIS2_PLACEMENT_3D('',#451,#369,#370);
#316=AXIS2_PLACEMENT_3D('',#456,#372,#373);
#317=AXIS2_PLACEMENT_3D('',#459,#375,#376);
#318=AXIS2_PLACEMENT_3D('',#460,#377,#378);
#319=AXIS2_PLACEMENT_3D('',#461,#379,#380);
#320=AXIS2_PLACEMENT_3D('',#462,#381,#382);
#321=AXIS2_PLACEMENT_3D('',#463,#383,#384);
#322=AXIS2_PLACEMENT_3D('',#466,#385,#386);
#323=AXIS2_PLACEMENT_3D('',#467,#387,#388);
#324=AXIS2_PLACEMENT_3D('',#472,#391,#392);
#325=AXIS2_PLACEMENT_3D('',#473,#393,#394);
#326=AXIS2_PLACEMENT_3D('',#474,#395,#396);
#327=AXIS2_PLACEMENT_3D('',#475,#397,#398);
#328=AXIS2_PLACEMENT_3D('',#476,#399,#400);
#329=AXIS2_PLACEMENT_3D('',#480,#403,#404);
#330=AXIS2_PLACEMENT_3D('',#481,#405,#406);
#331=AXIS2_PLACEMENT_3D('',#485,#408,#409);
#332=AXIS2_PLACEMENT_3D('',#489,#411,#412);
#333=AXIS2_PLACEMENT_3D('',#490,#413,#414);
#334=AXIS2_PLACEMENT_3D('',#491,#415,#416);
#335=AXIS2_PLACEMENT_3D('',#492,#417,#418);
#336=AXIS2_PLACEMENT_3D('',#493,#419,#420);
#337=AXIS2_PLACEMENT_3D('',#494,#421,#422);
#338=AXIS2_PLACEMENT_3D('',#497,#424,#425);
#339=AXIS2_PLACEMENT_3D('',#500,#427,#428);
#340=AXIS2_PLACEMENT_3D('',#501,#429,#430);
#341=AXIS2_PLACEMENT_3D('',#502,#431,#432);
#342=AXIS2_PLACEMENT_3D('',#503,#433,#434);
#343=DIRECTION('',(0.,0.,1.));
#344=DIRECTION('',(1.,0.,0.));
#345=DIRECTION('',(-0.939692620785897,0.,0.342020143325699));
#346=DIRECTION('',(0.,0.,1.));
#347=DIRECTION('',(1.,0.,0.));
#348=DIRECTION('',(0.,0.,-1.));
#349=DIRECTION('',(0.,0.,1.));
#350=DIRECTION('',(1.,0.,0.));
#351=DIRECTION('',(0.,0.,1.));
#352=DIRECTION('',(1.,0.,0.));
#353=DIRECTION('',(0.,0.,1.));
#354=DIRECTION('',(1.,0.,0.));
#355=DIRECTION('',(0.,0.,1.));
#356=DIRECTION('',(1.,0.,0.));
#357=DIRECTION('',(0.,0.,1.));
#358=DIRECTION('',(1.,0.,0.));
#359=DIRECTION('',(0.,0.,1.));
#360=DIRECTION('',(1.,0.,0.));
#361=DIRECTION('',(0.,0.,1.));
#362=DIRECTION('',(1.,0.,0.));
#363=DIRECTION('',(0.,0.,1.));
#364=DIRECTION('',(1.,0.,0.));
#365=DIRECTION('',(0.,0.,1.));
#366=DIRECTION('',(1.,0.,0.));
#367=DIRECTION('',(0.,0.,1.));
#368=DIRECTION('',(1.,0.,0.));
#369=DIRECTION('',(0.,0.,-1.));
#370=DIRECTION('',(0.,1.,0.));
#371=DIRECTION('',(0.,0.,-1.));
#372=DIRECTION('',(0.,0.,1.));
#373=DIRECTION('',(0.,-1.,0.));
#374=DIRECTION('',(0.,0.,-1.));
#375=DIRECTION('',(0.,0.,-1.));
#376=DIRECTION('',(0.,1.,0.));
#377=DIRECTION('',(0.,0.,1.));
#378=DIRECTION('',(0.,1.,0.));
#379=DIRECTION('',(0.,0.,-1.));
#380=DIRECTION('',(0.,-1.,0.));
#381=DIRECTION('',(0.,0.,-1.));
#382=DIRECTION('',(0.,1.,0.));
#383=DIRECTION('',(0.,0.,1.));
#384=DIRECTION('',(0.,1.,0.));
#385=DIRECTION('',(0.,0.,1.));
#386=DIRECTION('',(0.,-1.,0.));
#387=DIRECTION('',(0.,0.,-1.));
#388=DIRECTION('',(0.,1.,0.));
#389=DIRECTION('',(0.,0.,-1.));
#390=DIRECTION('',(0.,0.,-1.));
#391=DIRECTION('',(0.,0.,-1.));
#392=DIRECTION('',(0.,1.,0.));
#393=DIRECTION('',(0.,0.,-1.));
#394=DIRECTION('',(0.,1.,0.));
#395=DIRECTION('',(0.,0.,-1.));
#396=DIRECTION('',(0.,-1.,0.));
#397=DIRECTION('',(0.,0.,-1.));
#398=DIRECTION('',(1.,0.,0.));
#399=DIRECTION('',(0.,0.,-1.));
#400=DIRECTION('',(0.,1.,0.));
#401=DIRECTION('',(0.,-0.939692620785865,0.342020143325787));
#402=DIRECTION('',(0.,0.939692620785865,0.342020143325787));
#403=DIRECTION('',(0.,0.,1.));
#404=DIRECTION('',(0.,-1.,-2.64943799150437E-17));
#405=DIRECTION('',(0.,0.,1.));
#406=DIRECTION('',(0.,-1.,-2.64943799150437E-17));
#407=DIRECTION('',(0.,0.,-1.));
#408=DIRECTION('',(0.,0.,-1.));
#409=DIRECTION('',(0.,1.,0.));
#410=DIRECTION('',(0.,0.,-1.));
#411=DIRECTION('',(0.,0.,1.));
#412=DIRECTION('',(0.,-1.,0.));
#413=DIRECTION('',(0.,0.,-1.));
#414=DIRECTION('',(0.,1.,0.));
#415=DIRECTION('',(0.,0.,1.));
#416=DIRECTION('',(0.,1.,0.));
#417=DIRECTION('',(0.,0.,1.));
#418=DIRECTION('',(-1.,0.,0.));
#419=DIRECTION('',(0.,0.,-1.));
#420=DIRECTION('',(0.,-1.,0.));
#421=DIRECTION('',(0.,0.,-1.));
#422=DIRECTION('',(0.,1.,0.));
#423=DIRECTION('',(0.,0.707106781186547,0.707106781186547));
#424=DIRECTION('',(0.,0.,-1.));
#425=DIRECTION('',(0.,-1.,0.));
#426=DIRECTION('',(0.,-0.707106781186547,0.707106781186547));
#427=DIRECTION('',(0.,0.,-1.));
#428=DIRECTION('',(0.,1.,0.));
#429=DIRECTION('',(0.,0.,-1.));
#430=DIRECTION('',(0.,1.,0.));
#431=DIRECTION('',(0.,0.,-1.));
#432=DIRECTION('',(0.,1.,0.));
#433=DIRECTION('',(0.,0.,-1.));
#434=DIRECTION('',(0.,1.,0.));
#435=CARTESIAN_POINT('',(0.,0.,0.));
#436=CARTESIAN_POINT('CRP',(-4.5,0.,1.637866054198));
#437=CARTESIAN_POINT('',(0.,0.,0.));
#438=CARTESIAN_POINT('',(-4.5,0.,1.637866054198));
#439=CARTESIAN_POINT('',(-4.5,0.,405.6378660542));
#440=CARTESIAN_POINT('',(0.,0.,405.6378660542));
#441=CARTESIAN_POINT('',(0.,0.,0.));
#442=CARTESIAN_POINT('',(0.,0.,0.));
#443=CARTESIAN_POINT('',(0.,0.,0.));
#444=CARTESIAN_POINT('',(0.,0.,449.6378660542));
#445=CARTESIAN_POINT('',(0.,0.,396.6378661));
#446=CARTESIAN_POINT('',(0.,0.,0.));
#447=CARTESIAN_POINT('',(0.,0.,0.));
#448=CARTESIAN_POINT('',(0.,0.,0.));
#449=CARTESIAN_POINT('',(0.,0.,0.));
#450=CARTESIAN_POINT('',(0.,0.,0.));
#451=CARTESIAN_POINT('',(0.,0.,394.6378660542));
#452=CARTESIAN_POINT('',(0.,4.5,394.6378660542));
#453=CARTESIAN_POINT('',(0.,-4.5,394.6378660542));
#454=CARTESIAN_POINT('',(0.,-4.5,394.6378660542));
#455=CARTESIAN_POINT('',(0.,-4.5,1.637866054198));
#456=CARTESIAN_POINT('',(0.,-8.242533900422E-14,1.637866054198));
#457=CARTESIAN_POINT('',(0.,4.5,1.637866054198));
#458=CARTESIAN_POINT('',(0.,4.5,394.6378660542));
#459=CARTESIAN_POINT('',(0.,0.,472.1197593569));
#460=CARTESIAN_POINT('',(0.,-8.242533900422E-14,1.637866054198));
#461=CARTESIAN_POINT('',(0.,0.,394.6378660542));
#462=CARTESIAN_POINT('',(0.,0.,472.1197593569));
#463=CARTESIAN_POINT('',(0.,0.,394.6378660542));
#464=CARTESIAN_POINT('',(0.,5.,394.6378660542));
#465=CARTESIAN_POINT('',(0.,-5.,394.6378660542));
#466=CARTESIAN_POINT('',(0.,0.,394.6378660542));
#467=CARTESIAN_POINT('',(0.,-1.008498334907E-14,394.6378660542));
#468=CARTESIAN_POINT('',(0.,-5.,405.6378661));
#469=CARTESIAN_POINT('',(0.,-5.,405.6378661));
#470=CARTESIAN_POINT('',(0.,5.,405.6378661));
#471=CARTESIAN_POINT('',(0.,5.,405.6378661));
#472=CARTESIAN_POINT('',(0.,0.,405.6378661));
#473=CARTESIAN_POINT('',(0.,0.,472.1197593569));
#474=CARTESIAN_POINT('',(0.,0.,405.6378661));
#475=CARTESIAN_POINT('',(150.,150.,405.6378661));
#476=CARTESIAN_POINT('',(0.,0.,472.1197593569));
#477=CARTESIAN_POINT('',(0.,-4.5,1.637866054198));
#478=CARTESIAN_POINT('',(0.,-8.260059303211E-14,-3.46389583683E-14));
#479=CARTESIAN_POINT('',(0.,4.5,1.637866054198));
#480=CARTESIAN_POINT('',(0.,-8.242533900422E-14,0.9022253943692));
#481=CARTESIAN_POINT('',(0.,-8.242533900422E-14,0.9022253943692));
#482=CARTESIAN_POINT('',(0.,5.,448.6378660542));
#483=CARTESIAN_POINT('',(0.,5.,448.6378660542));
#484=CARTESIAN_POINT('',(0.,5.,405.6378661));
#485=CARTESIAN_POINT('',(0.,0.,448.6378660542));
#486=CARTESIAN_POINT('',(0.,-5.,448.6378660542));
#487=CARTESIAN_POINT('',(0.,-5.,448.6378660542));
#488=CARTESIAN_POINT('',(0.,-5.,405.6378661));
#489=CARTESIAN_POINT('',(0.,0.,405.6378661));
#490=CARTESIAN_POINT('',(0.,0.,472.1197593569));
#491=CARTESIAN_POINT('',(0.,0.,405.6378661));
#492=CARTESIAN_POINT('',(-150.,150.,405.6378661));
#493=CARTESIAN_POINT('',(0.,0.,448.6378660542));
#494=CARTESIAN_POINT('',(0.,0.,472.1197593569));
#495=CARTESIAN_POINT('',(0.,-4.,449.6378660542));
#496=CARTESIAN_POINT('',(0.,-4.,449.6378660542));
#497=CARTESIAN_POINT('',(0.,0.,449.6378660542));
#498=CARTESIAN_POINT('',(0.,4.,449.6378660542));
#499=CARTESIAN_POINT('',(0.,4.,449.6378660542));
#500=CARTESIAN_POINT('',(0.,0.,449.1378660542));
#501=CARTESIAN_POINT('',(0.,0.,449.6378660542));
#502=CARTESIAN_POINT('',(0.,0.,449.1378660542));
#503=CARTESIAN_POINT('',(0.,0.,449.6378660542));
#504=MECHANICAL_DESIGN_GEOMETRIC_PRESENTATION_REPRESENTATION('',(#267,#268,
#269,#270,#271,#272,#273,#274,#275,#276,#277,#278,#279,#280,#281,#282,#283),
#505);
#505=(
GEOMETRIC_REPRESENTATION_CONTEXT(3)
GLOBAL_UNCERTAINTY_ASSIGNED_CONTEXT((#506))
GLOBAL_UNIT_ASSIGNED_CONTEXT((#512,#508,#507))
REPRESENTATION_CONTEXT('MVS0900X40S100','TOP_LEVEL_ASSEMBLY_PART')
);
#506=UNCERTAINTY_MEASURE_WITH_UNIT(LENGTH_MEASURE(2.E-5),#512,
'DISTANCE_ACCURACY_VALUE','Maximum Tolerance applied to model');
#507=(
NAMED_UNIT(*)
SI_UNIT($,.STERADIAN.)
SOLID_ANGLE_UNIT()
);
#508=(
CONVERSION_BASED_UNIT('DEGREE',#510)
NAMED_UNIT(#509)
PLANE_ANGLE_UNIT()
);
#509=DIMENSIONAL_EXPONENTS(0.,0.,0.,0.,0.,0.,0.);
#510=PLANE_ANGLE_MEASURE_WITH_UNIT(PLANE_ANGLE_MEASURE(0.0174532925),#511);
#511=(
NAMED_UNIT(*)
PLANE_ANGLE_UNIT()
SI_UNIT($,.RADIAN.)
);
#512=(
LENGTH_UNIT()
NAMED_UNIT(*)
SI_UNIT(.MILLI.,.METRE.)
);
ENDSEC;
END-ISO-10303-21;
