ISO-10303-21;
HEADER;
/* Generated by software containing ST-Developer
 * from STEP Tools, Inc. (www.steptools.com) 
 */
/* OPTION: using custom schema-name function */

FILE_DESCRIPTION(
/* description */ (''),
/* implementation_level */ '2;1');

FILE_NAME(
/* name */ 'MVS0476X20S060.stp',
/* time_stamp */ '2020-08-20T09:25:34+09:00',
/* author */ (''),
/* organization */ (''),
/* preprocessor_version */ 'ST-DEVELOPER v16',
/* originating_system */ 'SIEMENS PLM Software NX 10.0',
/* authorisation */ '');

FILE_SCHEMA (('AUTOMOTIVE_DESIGN { 1 0 10303 214 3 1 1 1 }'));
ENDSEC;

DATA;
#10=CONSTRUCTIVE_GEOMETRY_REPRESENTATION_RELATIONSHIP(
'supplemental geometry','',#26,#11);
#11=CONSTRUCTIVE_GEOMETRY_REPRESENTATION('supplemental geometry',(#333,
#334,#335,#336,#337,#338,#339,#340,#341,#342,#343,#344,#345),#549);
#12=GEOMETRICALLY_BOUNDED_WIREFRAME_SHAPE_REPRESENTATION(
'MVS0476X20S060-None',(#27),#549);
#13=SHAPE_REPRESENTATION_RELATIONSHIP('None',
'relationship between MVS0476X20S060-None and MVS0476X20S060-None',#26,
#15);
#14=SHAPE_REPRESENTATION_RELATIONSHIP('None',
'relationship between MVS0476X20S060-None and MVS0476X20S060-None',#26,
#12);
#15=ADVANCED_BREP_SHAPE_REPRESENTATION('MVS0476X20S060-None',(#40,#41),
#549);
#16=SHAPE_DEFINITION_REPRESENTATION(#17,#26);
#17=PRODUCT_DEFINITION_SHAPE('','SHAPE FOR MVS0476X20S060_ASM.',#18);
#18=PRODUCT_DEFINITION('part definition','',#20,#19);
#19=PRODUCT_DEFINITION_CONTEXT('part definition',#25,'design');
#20=PRODUCT_DEFINITION_FORMATION_WITH_SPECIFIED_SOURCE(' ',' ',#22,
 .NOT_KNOWN.);
#21=PRODUCT_RELATED_PRODUCT_CATEGORY('part','',(#22));
#22=PRODUCT('MVS0476X20S060_ASM','MVS0476X20S060_ASM','NOT SPECIFIED',(#23));
#23=PRODUCT_CONTEXT('',#25,'mechanical');
#24=APPLICATION_PROTOCOL_DEFINITION('international standard',
'automotive_design',2010,#25);
#25=APPLICATION_CONTEXT(
'core data for automotive mechanical design processes');
#26=SHAPE_REPRESENTATION('MVS0476X20S060-None',(#332),#549);
#27=GEOMETRIC_CURVE_SET('None',(#473,#474,#475,#476,#477,#236,#237,#238,
#239));
#28=FACE_BOUND('',#93,.T.);
#29=FACE_BOUND('',#94,.T.);
#30=SURFACE_STYLE_USAGE(.BOTH.,#32);
#31=SURFACE_STYLE_USAGE(.BOTH.,#33);
#32=SURFACE_SIDE_STYLE('',(#34));
#33=SURFACE_SIDE_STYLE('',(#35));
#34=SURFACE_STYLE_FILL_AREA(#36);
#35=SURFACE_STYLE_FILL_AREA(#37);
#36=FILL_AREA_STYLE('',(#38));
#37=FILL_AREA_STYLE('',(#39));
#38=FILL_AREA_STYLE_COLOUR('',#330);
#39=FILL_AREA_STYLE_COLOUR('',#331);
#40=MANIFOLD_SOLID_BREP('CUT',#42);
#41=MANIFOLD_SOLID_BREP('NOCUT',#43);
#42=CLOSED_SHELL('',(#52,#53,#54,#55,#56));
#43=CLOSED_SHELL('',(#57,#58,#59,#60,#61,#62,#63,#64,#65));
#44=CONICAL_SURFACE('',#353,1.245087547464,70.);
#45=CONICAL_SURFACE('',#354,1.245087547464,70.);
#46=CONICAL_SURFACE('',#370,2.7,45.);
#47=CONICAL_SURFACE('',#372,2.7,45.);
#48=PLANE('',#350);
#49=PLANE('',#359);
#50=PLANE('',#364);
#51=PLANE('',#373);
#52=ADVANCED_FACE('',(#72),#66,.T.);
#53=ADVANCED_FACE('',(#73),#48,.F.);
#54=ADVANCED_FACE('',(#74),#67,.T.);
#55=ADVANCED_FACE('',(#75),#44,.T.);
#56=ADVANCED_FACE('',(#76),#45,.T.);
#57=ADVANCED_FACE('',(#77),#68,.T.);
#58=ADVANCED_FACE('',(#78),#49,.F.);
#59=ADVANCED_FACE('',(#79),#69,.T.);
#60=ADVANCED_FACE('',(#28,#29),#50,.T.);
#61=ADVANCED_FACE('',(#80),#70,.T.);
#62=ADVANCED_FACE('',(#81),#71,.T.);
#63=ADVANCED_FACE('',(#82),#46,.T.);
#64=ADVANCED_FACE('',(#83),#47,.T.);
#65=ADVANCED_FACE('',(#84),#51,.F.);
#66=CYLINDRICAL_SURFACE('',#348,2.3815);
#67=CYLINDRICAL_SURFACE('',#352,2.3815);
#68=CYLINDRICAL_SURFACE('',#357,2.3815);
#69=CYLINDRICAL_SURFACE('',#361,2.3815);
#70=CYLINDRICAL_SURFACE('',#366,3.);
#71=CYLINDRICAL_SURFACE('',#368,3.);
#72=FACE_OUTER_BOUND('',#85,.T.);
#73=FACE_OUTER_BOUND('',#86,.T.);
#74=FACE_OUTER_BOUND('',#87,.T.);
#75=FACE_OUTER_BOUND('',#88,.T.);
#76=FACE_OUTER_BOUND('',#89,.T.);
#77=FACE_OUTER_BOUND('',#90,.T.);
#78=FACE_OUTER_BOUND('',#91,.T.);
#79=FACE_OUTER_BOUND('',#92,.T.);
#80=FACE_OUTER_BOUND('',#95,.T.);
#81=FACE_OUTER_BOUND('',#96,.T.);
#82=FACE_OUTER_BOUND('',#97,.T.);
#83=FACE_OUTER_BOUND('',#98,.T.);
#84=FACE_OUTER_BOUND('',#99,.T.);
#85=EDGE_LOOP('',(#114,#115,#116,#117));
#86=EDGE_LOOP('',(#118,#119));
#87=EDGE_LOOP('',(#120,#121,#122,#123));
#88=EDGE_LOOP('',(#124,#125,#126));
#89=EDGE_LOOP('',(#127,#128,#129));
#90=EDGE_LOOP('',(#130,#131,#132,#133));
#91=EDGE_LOOP('',(#134,#135));
#92=EDGE_LOOP('',(#136,#137,#138,#139));
#93=EDGE_LOOP('',(#140,#141));
#94=EDGE_LOOP('',(#142,#143));
#95=EDGE_LOOP('',(#144,#145,#146,#147));
#96=EDGE_LOOP('',(#148,#149,#150,#151));
#97=EDGE_LOOP('',(#152,#153,#154,#155));
#98=EDGE_LOOP('',(#156,#157,#158,#159));
#99=EDGE_LOOP('',(#160,#161));
#100=CIRCLE('',#346,2.3815);
#101=CIRCLE('',#347,2.3815);
#102=CIRCLE('',#349,2.3815);
#103=CIRCLE('',#351,2.3815);
#104=CIRCLE('',#355,2.3815);
#105=CIRCLE('',#356,2.3815);
#106=CIRCLE('',#358,2.3815);
#107=CIRCLE('',#360,2.3815);
#108=CIRCLE('',#362,3.);
#109=CIRCLE('',#363,3.);
#110=CIRCLE('',#365,3.);
#111=CIRCLE('',#367,3.);
#112=CIRCLE('',#369,2.4);
#113=CIRCLE('',#371,2.4);
#114=ORIENTED_EDGE('',*,*,#177,.T.);
#115=ORIENTED_EDGE('',*,*,#178,.T.);
#116=ORIENTED_EDGE('',*,*,#179,.F.);
#117=ORIENTED_EDGE('',*,*,#180,.T.);
#118=ORIENTED_EDGE('',*,*,#181,.F.);
#119=ORIENTED_EDGE('',*,*,#180,.F.);
#120=ORIENTED_EDGE('',*,*,#179,.T.);
#121=ORIENTED_EDGE('',*,*,#182,.T.);
#122=ORIENTED_EDGE('',*,*,#177,.F.);
#123=ORIENTED_EDGE('',*,*,#181,.T.);
#124=ORIENTED_EDGE('',*,*,#183,.T.);
#125=ORIENTED_EDGE('',*,*,#182,.F.);
#126=ORIENTED_EDGE('',*,*,#184,.F.);
#127=ORIENTED_EDGE('',*,*,#178,.F.);
#128=ORIENTED_EDGE('',*,*,#183,.F.);
#129=ORIENTED_EDGE('',*,*,#184,.T.);
#130=ORIENTED_EDGE('',*,*,#185,.F.);
#131=ORIENTED_EDGE('',*,*,#186,.T.);
#132=ORIENTED_EDGE('',*,*,#187,.T.);
#133=ORIENTED_EDGE('',*,*,#188,.T.);
#134=ORIENTED_EDGE('',*,*,#189,.F.);
#135=ORIENTED_EDGE('',*,*,#188,.F.);
#136=ORIENTED_EDGE('',*,*,#187,.F.);
#137=ORIENTED_EDGE('',*,*,#190,.T.);
#138=ORIENTED_EDGE('',*,*,#185,.T.);
#139=ORIENTED_EDGE('',*,*,#189,.T.);
#140=ORIENTED_EDGE('',*,*,#191,.F.);
#141=ORIENTED_EDGE('',*,*,#192,.F.);
#142=ORIENTED_EDGE('',*,*,#186,.F.);
#143=ORIENTED_EDGE('',*,*,#190,.F.);
#144=ORIENTED_EDGE('',*,*,#193,.T.);
#145=ORIENTED_EDGE('',*,*,#194,.T.);
#146=ORIENTED_EDGE('',*,*,#192,.T.);
#147=ORIENTED_EDGE('',*,*,#195,.F.);
#148=ORIENTED_EDGE('',*,*,#191,.T.);
#149=ORIENTED_EDGE('',*,*,#194,.F.);
#150=ORIENTED_EDGE('',*,*,#196,.T.);
#151=ORIENTED_EDGE('',*,*,#195,.T.);
#152=ORIENTED_EDGE('',*,*,#196,.F.);
#153=ORIENTED_EDGE('',*,*,#197,.T.);
#154=ORIENTED_EDGE('',*,*,#198,.T.);
#155=ORIENTED_EDGE('',*,*,#199,.F.);
#156=ORIENTED_EDGE('',*,*,#200,.T.);
#157=ORIENTED_EDGE('',*,*,#197,.F.);
#158=ORIENTED_EDGE('',*,*,#193,.F.);
#159=ORIENTED_EDGE('',*,*,#199,.T.);
#160=ORIENTED_EDGE('',*,*,#200,.F.);
#161=ORIENTED_EDGE('',*,*,#198,.F.);
#162=VERTEX_POINT('',#496);
#163=VERTEX_POINT('',#497);
#164=VERTEX_POINT('',#499);
#165=VERTEX_POINT('',#501);
#166=VERTEX_POINT('',#509);
#167=VERTEX_POINT('',#514);
#168=VERTEX_POINT('',#515);
#169=VERTEX_POINT('',#517);
#170=VERTEX_POINT('',#519);
#171=VERTEX_POINT('',#527);
#172=VERTEX_POINT('',#528);
#173=VERTEX_POINT('',#532);
#174=VERTEX_POINT('',#533);
#175=VERTEX_POINT('',#540);
#176=VERTEX_POINT('',#542);
#177=EDGE_CURVE('',#162,#163,#244,.T.);
#178=EDGE_CURVE('',#163,#164,#100,.T.);
#179=EDGE_CURVE('',#165,#164,#245,.T.);
#180=EDGE_CURVE('',#165,#162,#101,.T.);
#181=EDGE_CURVE('',#162,#165,#102,.T.);
#182=EDGE_CURVE('',#164,#163,#103,.T.);
#183=EDGE_CURVE('',#166,#163,#246,.T.);
#184=EDGE_CURVE('',#166,#164,#247,.T.);
#185=EDGE_CURVE('',#167,#168,#248,.T.);
#186=EDGE_CURVE('',#167,#169,#104,.T.);
#187=EDGE_CURVE('',#169,#170,#249,.T.);
#188=EDGE_CURVE('',#170,#168,#105,.T.);
#189=EDGE_CURVE('',#168,#170,#106,.T.);
#190=EDGE_CURVE('',#169,#167,#107,.T.);
#191=EDGE_CURVE('',#171,#172,#108,.T.);
#192=EDGE_CURVE('',#172,#171,#109,.T.);
#193=EDGE_CURVE('',#173,#174,#110,.T.);
#194=EDGE_CURVE('',#174,#172,#250,.T.);
#195=EDGE_CURVE('',#173,#171,#251,.T.);
#196=EDGE_CURVE('',#174,#173,#111,.T.);
#197=EDGE_CURVE('',#174,#175,#252,.T.);
#198=EDGE_CURVE('',#175,#176,#112,.T.);
#199=EDGE_CURVE('',#173,#176,#253,.T.);
#200=EDGE_CURVE('',#176,#175,#113,.T.);
#201=CURVE_STYLE('',#219,POSITIVE_LENGTH_MEASURE(0.18),#218);
#202=CURVE_STYLE('',#220,POSITIVE_LENGTH_MEASURE(0.18),#218);
#203=CURVE_STYLE('',#221,POSITIVE_LENGTH_MEASURE(0.18),#218);
#204=CURVE_STYLE('',#222,POSITIVE_LENGTH_MEASURE(0.18),#218);
#205=CURVE_STYLE('',#223,POSITIVE_LENGTH_MEASURE(0.13),#329);
#206=CURVE_STYLE('',#224,POSITIVE_LENGTH_MEASURE(0.13),#329);
#207=CURVE_STYLE('',#225,POSITIVE_LENGTH_MEASURE(0.13),#329);
#208=CURVE_STYLE('',#226,POSITIVE_LENGTH_MEASURE(0.13),#328);
#209=CURVE_STYLE('',#227,POSITIVE_LENGTH_MEASURE(0.13),#328);
#210=CURVE_STYLE('',#228,POSITIVE_LENGTH_MEASURE(0.18),#329);
#211=CURVE_STYLE('',#229,POSITIVE_LENGTH_MEASURE(0.13),#328);
#212=CURVE_STYLE('',#230,POSITIVE_LENGTH_MEASURE(0.13),#329);
#213=CURVE_STYLE('',#231,POSITIVE_LENGTH_MEASURE(0.13),#329);
#214=CURVE_STYLE('',#232,POSITIVE_LENGTH_MEASURE(0.13),#329);
#215=CURVE_STYLE('',#233,POSITIVE_LENGTH_MEASURE(0.13),#328);
#216=CURVE_STYLE('',#234,POSITIVE_LENGTH_MEASURE(0.13),#329);
#217=CURVE_STYLE('',#235,POSITIVE_LENGTH_MEASURE(0.13),#329);
#218=DRAUGHTING_PRE_DEFINED_COLOUR('blue');
#219=DRAUGHTING_PRE_DEFINED_CURVE_FONT('continuous');
#220=DRAUGHTING_PRE_DEFINED_CURVE_FONT('continuous');
#221=DRAUGHTING_PRE_DEFINED_CURVE_FONT('continuous');
#222=DRAUGHTING_PRE_DEFINED_CURVE_FONT('continuous');
#223=DRAUGHTING_PRE_DEFINED_CURVE_FONT('continuous');
#224=DRAUGHTING_PRE_DEFINED_CURVE_FONT('continuous');
#225=DRAUGHTING_PRE_DEFINED_CURVE_FONT('continuous');
#226=DRAUGHTING_PRE_DEFINED_CURVE_FONT('continuous');
#227=DRAUGHTING_PRE_DEFINED_CURVE_FONT('continuous');
#228=DRAUGHTING_PRE_DEFINED_CURVE_FONT('continuous');
#229=DRAUGHTING_PRE_DEFINED_CURVE_FONT('continuous');
#230=DRAUGHTING_PRE_DEFINED_CURVE_FONT('continuous');
#231=DRAUGHTING_PRE_DEFINED_CURVE_FONT('continuous');
#232=DRAUGHTING_PRE_DEFINED_CURVE_FONT('continuous');
#233=DRAUGHTING_PRE_DEFINED_CURVE_FONT('continuous');
#234=DRAUGHTING_PRE_DEFINED_CURVE_FONT('continuous');
#235=DRAUGHTING_PRE_DEFINED_CURVE_FONT('continuous');
#236=TRIMMED_CURVE('',#240,(PARAMETER_VALUE(0.)),(PARAMETER_VALUE(1.)),
 .T.,.PARAMETER.);
#237=TRIMMED_CURVE('',#241,(PARAMETER_VALUE(0.)),(PARAMETER_VALUE(1.)),
 .T.,.PARAMETER.);
#238=TRIMMED_CURVE('',#242,(PARAMETER_VALUE(0.)),(PARAMETER_VALUE(1.)),
 .T.,.PARAMETER.);
#239=TRIMMED_CURVE('',#243,(PARAMETER_VALUE(0.)),(PARAMETER_VALUE(1.)),
 .T.,.PARAMETER.);
#240=LINE('',#478,#254);
#241=LINE('',#479,#255);
#242=LINE('',#480,#256);
#243=LINE('',#481,#257);
#244=LINE('',#495,#258);
#245=LINE('',#500,#259);
#246=LINE('',#508,#260);
#247=LINE('',#510,#261);
#248=LINE('',#513,#262);
#249=LINE('',#518,#263);
#250=LINE('',#534,#264);
#251=LINE('',#535,#265);
#252=LINE('',#539,#266);
#253=LINE('',#543,#267);
#254=VECTOR('',#376,2.53433936515101);
#255=VECTOR('',#377,95.2722048871);
#256=VECTOR('',#378,2.3815);
#257=VECTOR('',#379,96.139);
#258=VECTOR('',#406,1.);
#259=VECTOR('',#409,1.);
#260=VECTOR('',#422,1.);
#261=VECTOR('',#423,1.);
#262=VECTOR('',#428,1.);
#263=VECTOR('',#431,1.);
#264=VECTOR('',#452,1.);
#265=VECTOR('',#453,1.);
#266=VECTOR('',#460,1.);
#267=VECTOR('',#463,1.);
#268=PRESENTATION_LAYER_ASSIGNMENT('2','Layer 2',(#473,#474,#336,#337));
#269=PRESENTATION_LAYER_ASSIGNMENT('1','Layer 1',(#475,#476,#477,#236,#237,
#238,#239,#333,#334,#335,#338,#339,#340,#341,#342,#343,#344,#345,#40,#41));
#270=STYLED_ITEM('',(#294),#473);
#271=STYLED_ITEM('',(#295),#474);
#272=STYLED_ITEM('',(#296),#475);
#273=STYLED_ITEM('',(#297),#476);
#274=STYLED_ITEM('',(#298),#477);
#275=STYLED_ITEM('',(#299),#236);
#276=STYLED_ITEM('',(#300),#237);
#277=STYLED_ITEM('',(#301),#238);
#278=STYLED_ITEM('',(#302),#239);
#279=STYLED_ITEM('',(#303),#333);
#280=STYLED_ITEM('',(#304),#334);
#281=STYLED_ITEM('',(#305),#335);
#282=STYLED_ITEM('',(#306),#336);
#283=STYLED_ITEM('',(#307),#337);
#284=STYLED_ITEM('',(#308),#338);
#285=STYLED_ITEM('',(#309),#339);
#286=STYLED_ITEM('',(#310),#340);
#287=STYLED_ITEM('',(#311),#341);
#288=STYLED_ITEM('',(#312),#342);
#289=STYLED_ITEM('',(#313),#343);
#290=STYLED_ITEM('',(#314),#344);
#291=STYLED_ITEM('',(#315),#345);
#292=STYLED_ITEM('',(#316),#40);
#293=STYLED_ITEM('',(#317),#41);
#294=PRESENTATION_STYLE_ASSIGNMENT((#318));
#295=PRESENTATION_STYLE_ASSIGNMENT((#319));
#296=PRESENTATION_STYLE_ASSIGNMENT((#320));
#297=PRESENTATION_STYLE_ASSIGNMENT((#321));
#298=PRESENTATION_STYLE_ASSIGNMENT((#322));
#299=PRESENTATION_STYLE_ASSIGNMENT((#201));
#300=PRESENTATION_STYLE_ASSIGNMENT((#202));
#301=PRESENTATION_STYLE_ASSIGNMENT((#203));
#302=PRESENTATION_STYLE_ASSIGNMENT((#204));
#303=PRESENTATION_STYLE_ASSIGNMENT((#205));
#304=PRESENTATION_STYLE_ASSIGNMENT((#206));
#305=PRESENTATION_STYLE_ASSIGNMENT((#207));
#306=PRESENTATION_STYLE_ASSIGNMENT((#208));
#307=PRESENTATION_STYLE_ASSIGNMENT((#209));
#308=PRESENTATION_STYLE_ASSIGNMENT((#210));
#309=PRESENTATION_STYLE_ASSIGNMENT((#211));
#310=PRESENTATION_STYLE_ASSIGNMENT((#212));
#311=PRESENTATION_STYLE_ASSIGNMENT((#213));
#312=PRESENTATION_STYLE_ASSIGNMENT((#214));
#313=PRESENTATION_STYLE_ASSIGNMENT((#215));
#314=PRESENTATION_STYLE_ASSIGNMENT((#216));
#315=PRESENTATION_STYLE_ASSIGNMENT((#217));
#316=PRESENTATION_STYLE_ASSIGNMENT((#30));
#317=PRESENTATION_STYLE_ASSIGNMENT((#31));
#318=POINT_STYLE('',#323,POSITIVE_LENGTH_MEASURE(3.),#328);
#319=POINT_STYLE('',#324,POSITIVE_LENGTH_MEASURE(3.),#328);
#320=POINT_STYLE('',#325,POSITIVE_LENGTH_MEASURE(3.),#329);
#321=POINT_STYLE('',#326,POSITIVE_LENGTH_MEASURE(3.),#328);
#322=POINT_STYLE('',#327,POSITIVE_LENGTH_MEASURE(3.),#328);
#323=PRE_DEFINED_POINT_MARKER_SYMBOL('plus');
#324=PRE_DEFINED_POINT_MARKER_SYMBOL('plus');
#325=PRE_DEFINED_POINT_MARKER_SYMBOL('plus');
#326=PRE_DEFINED_POINT_MARKER_SYMBOL('plus');
#327=PRE_DEFINED_POINT_MARKER_SYMBOL('plus');
#328=COLOUR_RGB('Medium Umber',0.372533760585946,0.313725490196078,0.270572976272221);
#329=COLOUR_RGB('Strong Stone',0.576470588235294,0.54508278019379,0.392156862745098);
#330=COLOUR_RGB('Light Gray',0.8,0.8,0.8);
#331=COLOUR_RGB('Medium Gray',0.490196078431373,0.490196078431373,0.490196078431373);
#332=AXIS2_PLACEMENT_3D('',#472,#374,#375);
#333=AXIS2_PLACEMENT_3D('',#482,#380,#381);
#334=AXIS2_PLACEMENT_3D('',#483,#382,#383);
#335=AXIS2_PLACEMENT_3D('',#484,#384,#385);
#336=AXIS2_PLACEMENT_3D('CIP',#485,#386,#387);
#337=AXIS2_PLACEMENT_3D('PCS',#486,#388,#389);
#338=AXIS2_PLACEMENT_3D('MCS',#487,#390,#391);
#339=AXIS2_PLACEMENT_3D('STEP_TEMP_2_INCH_1',#488,#392,#393);
#340=AXIS2_PLACEMENT_3D('',#489,#394,#395);
#341=AXIS2_PLACEMENT_3D('',#490,#396,#397);
#342=AXIS2_PLACEMENT_3D('',#491,#398,#399);
#343=AXIS2_PLACEMENT_3D('STEP_TEMP_2_INCH_2',#492,#400,#401);
#344=AXIS2_PLACEMENT_3D('',#493,#402,#403);
#345=AXIS2_PLACEMENT_3D('',#494,#404,#405);
#346=AXIS2_PLACEMENT_3D('',#498,#407,#408);
#347=AXIS2_PLACEMENT_3D('',#502,#410,#411);
#348=AXIS2_PLACEMENT_3D('',#503,#412,#413);
#349=AXIS2_PLACEMENT_3D('',#504,#414,#415);
#350=AXIS2_PLACEMENT_3D('',#505,#416,#417);
#351=AXIS2_PLACEMENT_3D('',#506,#418,#419);
#352=AXIS2_PLACEMENT_3D('',#507,#420,#421);
#353=AXIS2_PLACEMENT_3D('',#511,#424,#425);
#354=AXIS2_PLACEMENT_3D('',#512,#426,#427);
#355=AXIS2_PLACEMENT_3D('',#516,#429,#430);
#356=AXIS2_PLACEMENT_3D('',#520,#432,#433);
#357=AXIS2_PLACEMENT_3D('',#521,#434,#435);
#358=AXIS2_PLACEMENT_3D('',#522,#436,#437);
#359=AXIS2_PLACEMENT_3D('',#523,#438,#439);
#360=AXIS2_PLACEMENT_3D('',#524,#440,#441);
#361=AXIS2_PLACEMENT_3D('',#525,#442,#443);
#362=AXIS2_PLACEMENT_3D('',#526,#444,#445);
#363=AXIS2_PLACEMENT_3D('',#529,#446,#447);
#364=AXIS2_PLACEMENT_3D('',#530,#448,#449);
#365=AXIS2_PLACEMENT_3D('',#531,#450,#451);
#366=AXIS2_PLACEMENT_3D('',#536,#454,#455);
#367=AXIS2_PLACEMENT_3D('',#537,#456,#457);
#368=AXIS2_PLACEMENT_3D('',#538,#458,#459);
#369=AXIS2_PLACEMENT_3D('',#541,#461,#462);
#370=AXIS2_PLACEMENT_3D('',#544,#464,#465);
#371=AXIS2_PLACEMENT_3D('',#545,#466,#467);
#372=AXIS2_PLACEMENT_3D('',#546,#468,#469);
#373=AXIS2_PLACEMENT_3D('',#547,#470,#471);
#374=DIRECTION('',(0.,0.,1.));
#375=DIRECTION('',(1.,0.,0.));
#376=DIRECTION('',(-0.939692620785897,0.,0.342020143325699));
#377=DIRECTION('',(0.,0.,1.));
#378=DIRECTION('',(1.,0.,0.));
#379=DIRECTION('',(0.,0.,-1.));
#380=DIRECTION('',(0.,0.,1.));
#381=DIRECTION('',(1.,0.,0.));
#382=DIRECTION('',(0.,0.,1.));
#383=DIRECTION('',(1.,0.,0.));
#384=DIRECTION('',(0.,0.,1.));
#385=DIRECTION('',(1.,0.,0.));
#386=DIRECTION('',(0.,0.,1.));
#387=DIRECTION('',(1.,0.,0.));
#388=DIRECTION('',(0.,0.,1.));
#389=DIRECTION('',(1.,0.,0.));
#390=DIRECTION('',(0.,0.,1.));
#391=DIRECTION('',(1.,0.,0.));
#392=DIRECTION('',(0.,0.,1.));
#393=DIRECTION('',(1.,0.,0.));
#394=DIRECTION('',(0.,0.,1.));
#395=DIRECTION('',(1.,0.,0.));
#396=DIRECTION('',(0.,0.,1.));
#397=DIRECTION('',(1.,0.,0.));
#398=DIRECTION('',(0.,0.,1.));
#399=DIRECTION('',(1.,0.,0.));
#400=DIRECTION('',(0.,0.,1.));
#401=DIRECTION('',(1.,0.,0.));
#402=DIRECTION('',(0.,0.,1.));
#403=DIRECTION('',(1.,0.,0.));
#404=DIRECTION('',(0.,0.,1.));
#405=DIRECTION('',(1.,0.,0.));
#406=DIRECTION('',(0.,0.,-1.));
#407=DIRECTION('',(0.,0.,1.));
#408=DIRECTION('',(0.,-1.,0.));
#409=DIRECTION('',(0.,0.,-1.));
#410=DIRECTION('',(0.,0.,-1.));
#411=DIRECTION('',(0.,1.,0.));
#412=DIRECTION('',(0.,0.,-1.));
#413=DIRECTION('',(0.,1.,0.));
#414=DIRECTION('',(0.,0.,-1.));
#415=DIRECTION('',(0.,-1.,0.));
#416=DIRECTION('',(0.,0.,-1.));
#417=DIRECTION('',(1.,0.,0.));
#418=DIRECTION('',(0.,0.,1.));
#419=DIRECTION('',(0.,1.,0.));
#420=DIRECTION('',(0.,0.,-1.));
#421=DIRECTION('',(0.,1.,0.));
#422=DIRECTION('',(0.,-0.939692620785897,0.342020143325699));
#423=DIRECTION('',(0.,0.939692620785897,0.342020143325699));
#424=DIRECTION('',(0.,0.,1.));
#425=DIRECTION('',(0.,-1.,2.06883029487347E-17));
#426=DIRECTION('',(0.,0.,1.));
#427=DIRECTION('',(0.,-1.,2.06883029487347E-17));
#428=DIRECTION('',(0.,0.,-1.));
#429=DIRECTION('',(0.,0.,-1.));
#430=DIRECTION('',(0.,1.,0.));
#431=DIRECTION('',(0.,0.,-1.));
#432=DIRECTION('',(0.,0.,1.));
#433=DIRECTION('',(0.,-1.,0.));
#434=DIRECTION('',(0.,0.,-1.));
#435=DIRECTION('',(0.,1.,0.));
#436=DIRECTION('',(0.,0.,1.));
#437=DIRECTION('',(0.,1.,0.));
#438=DIRECTION('',(0.,0.,1.));
#439=DIRECTION('',(-1.,0.,0.));
#440=DIRECTION('',(0.,0.,-1.));
#441=DIRECTION('',(0.,-1.,0.));
#442=DIRECTION('',(0.,0.,-1.));
#443=DIRECTION('',(0.,1.,0.));
#444=DIRECTION('',(0.,0.,1.));
#445=DIRECTION('',(0.,1.,0.));
#446=DIRECTION('',(0.,0.,1.));
#447=DIRECTION('',(0.,-1.,0.));
#448=DIRECTION('',(0.,0.,-1.));
#449=DIRECTION('',(0.,1.,0.));
#450=DIRECTION('',(0.,0.,-1.));
#451=DIRECTION('',(0.,1.,0.));
#452=DIRECTION('',(0.,0.,-1.));
#453=DIRECTION('',(0.,0.,-1.));
#454=DIRECTION('',(0.,0.,-1.));
#455=DIRECTION('',(0.,1.,0.));
#456=DIRECTION('',(0.,0.,-1.));
#457=DIRECTION('',(0.,-1.,0.));
#458=DIRECTION('',(0.,0.,-1.));
#459=DIRECTION('',(0.,1.,0.));
#460=DIRECTION('',(0.,0.707106781186598,0.707106781186498));
#461=DIRECTION('',(0.,0.,-1.));
#462=DIRECTION('',(0.,-1.,0.));
#463=DIRECTION('',(0.,-0.707106781186598,0.707106781186498));
#464=DIRECTION('',(0.,0.,-1.));
#465=DIRECTION('',(0.,1.,-2.7680837354771E-17));
#466=DIRECTION('',(0.,0.,-1.));
#467=DIRECTION('',(0.,1.,0.));
#468=DIRECTION('',(0.,0.,-1.));
#469=DIRECTION('',(0.,1.,-2.7680837354771E-17));
#470=DIRECTION('',(0.,0.,-1.));
#471=DIRECTION('',(0.,1.,0.));
#472=CARTESIAN_POINT('',(0.,0.,0.));
#473=CARTESIAN_POINT('',(0.,0.,0.));
#474=CARTESIAN_POINT('',(0.,0.,168.8667951129));
#475=CARTESIAN_POINT('',(0.,0.,120.8667951));
#476=CARTESIAN_POINT('',(0.,0.,0.));
#477=CARTESIAN_POINT('',(0.,0.,0.));
#478=CARTESIAN_POINT('',(0.,0.,0.));
#479=CARTESIAN_POINT('',(-2.3815,0.,0.866795112905));
#480=CARTESIAN_POINT('',(-2.3815,0.,96.139));
#481=CARTESIAN_POINT('',(0.,0.,96.139));
#482=CARTESIAN_POINT('',(0.,0.,0.));
#483=CARTESIAN_POINT('',(0.,0.,0.));
#484=CARTESIAN_POINT('',(0.,0.,0.));
#485=CARTESIAN_POINT('',(0.,0.,0.));
#486=CARTESIAN_POINT('',(0.,0.,168.8667951129));
#487=CARTESIAN_POINT('',(0.,0.,120.8667951));
#488=CARTESIAN_POINT('',(0.,0.,0.));
#489=CARTESIAN_POINT('',(0.,0.,0.));
#490=CARTESIAN_POINT('',(0.,0.,0.));
#491=CARTESIAN_POINT('',(0.,0.,0.));
#492=CARTESIAN_POINT('',(0.,0.,0.));
#493=CARTESIAN_POINT('',(0.,0.,0.));
#494=CARTESIAN_POINT('',(0.,0.,0.));
#495=CARTESIAN_POINT('',(0.,-2.3815,96.139));
#496=CARTESIAN_POINT('',(0.,-2.3815,96.139));
#497=CARTESIAN_POINT('',(0.,-2.3815,0.866795112905));
#498=CARTESIAN_POINT('',(0.,-3.093108147317E-14,0.866795112905));
#499=CARTESIAN_POINT('',(0.,2.3815,0.866795112905));
#500=CARTESIAN_POINT('',(0.,2.3815,96.139));
#501=CARTESIAN_POINT('',(0.,2.3815,96.139));
#502=CARTESIAN_POINT('',(0.,0.,96.139));
#503=CARTESIAN_POINT('',(0.,0.,177.3101348686));
#504=CARTESIAN_POINT('',(0.,0.,96.139));
#505=CARTESIAN_POINT('',(150.,150.,96.139));
#506=CARTESIAN_POINT('',(0.,-3.093108147317E-14,0.866795112905));
#507=CARTESIAN_POINT('',(0.,0.,177.3101348686));
#508=CARTESIAN_POINT('',(0.,-2.3815,0.866795112905));
#509=CARTESIAN_POINT('',(0.,-3.10862446895E-14,-3.01980662698E-14));
#510=CARTESIAN_POINT('',(0.,2.3815,0.866795112905));
#511=CARTESIAN_POINT('',(0.,-3.093108147317E-14,0.4531748063325));
#512=CARTESIAN_POINT('',(0.,-3.093108147317E-14,0.4531748063325));
#513=CARTESIAN_POINT('',(0.,2.3815,118.8667951129));
#514=CARTESIAN_POINT('',(0.,2.3815,118.8667951129));
#515=CARTESIAN_POINT('',(0.,2.3815,96.139));
#516=CARTESIAN_POINT('',(0.,0.,118.8667951129));
#517=CARTESIAN_POINT('',(0.,-2.3815,118.8667951129));
#518=CARTESIAN_POINT('',(0.,-2.3815,118.8667951129));
#519=CARTESIAN_POINT('',(0.,-2.3815,96.139));
#520=CARTESIAN_POINT('',(0.,0.,96.139));
#521=CARTESIAN_POINT('',(0.,0.,177.3101348686));
#522=CARTESIAN_POINT('',(0.,0.,96.139));
#523=CARTESIAN_POINT('',(-150.,150.,96.139));
#524=CARTESIAN_POINT('',(0.,0.,118.8667951129));
#525=CARTESIAN_POINT('',(0.,0.,177.3101348686));
#526=CARTESIAN_POINT('',(0.,0.,118.8667951129));
#527=CARTESIAN_POINT('',(0.,3.,118.8667951129));
#528=CARTESIAN_POINT('',(0.,-3.,118.8667951129));
#529=CARTESIAN_POINT('',(0.,0.,118.8667951129));
#530=CARTESIAN_POINT('',(0.,0.,118.8667951129));
#531=CARTESIAN_POINT('',(0.,0.,168.2667951129));
#532=CARTESIAN_POINT('',(0.,3.,168.2667951129));
#533=CARTESIAN_POINT('',(0.,-3.,168.2667951129));
#534=CARTESIAN_POINT('',(0.,-3.,168.2667951129));
#535=CARTESIAN_POINT('',(0.,3.,168.2667951129));
#536=CARTESIAN_POINT('',(0.,0.,177.3101348686));
#537=CARTESIAN_POINT('',(0.,0.,168.2667951129));
#538=CARTESIAN_POINT('',(0.,0.,177.3101348686));
#539=CARTESIAN_POINT('',(0.,-2.4,168.8667951129));
#540=CARTESIAN_POINT('',(0.,-2.4,168.8667951129));
#541=CARTESIAN_POINT('',(0.,0.,168.8667951129));
#542=CARTESIAN_POINT('',(0.,2.4,168.8667951129));
#543=CARTESIAN_POINT('',(0.,2.4,168.8667951129));
#544=CARTESIAN_POINT('',(0.,0.,168.5667951129));
#545=CARTESIAN_POINT('',(0.,0.,168.8667951129));
#546=CARTESIAN_POINT('',(0.,0.,168.5667951129));
#547=CARTESIAN_POINT('',(0.,0.,168.8667951129));
#548=MECHANICAL_DESIGN_GEOMETRIC_PRESENTATION_REPRESENTATION('',(#270,#271,
#272,#273,#274,#275,#276,#277,#278,#279,#280,#281,#282,#283,#284,#285,#286,
#287,#288,#289,#290,#291,#292,#293),#549);
#549=(
GEOMETRIC_REPRESENTATION_CONTEXT(3)
GLOBAL_UNCERTAINTY_ASSIGNED_CONTEXT((#550))
GLOBAL_UNIT_ASSIGNED_CONTEXT((#556,#552,#551))
REPRESENTATION_CONTEXT('MVS0476X20S060','TOP_LEVEL_ASSEMBLY_PART')
);
#550=UNCERTAINTY_MEASURE_WITH_UNIT(LENGTH_MEASURE(2.E-5),#556,
'DISTANCE_ACCURACY_VALUE','Maximum Tolerance applied to model');
#551=(
NAMED_UNIT(*)
SI_UNIT($,.STERADIAN.)
SOLID_ANGLE_UNIT()
);
#552=(
CONVERSION_BASED_UNIT('DEGREE',#554)
NAMED_UNIT(#553)
PLANE_ANGLE_UNIT()
);
#553=DIMENSIONAL_EXPONENTS(0.,0.,0.,0.,0.,0.,0.);
#554=PLANE_ANGLE_MEASURE_WITH_UNIT(PLANE_ANGLE_MEASURE(0.0174532925),#555);
#555=(
NAMED_UNIT(*)
PLANE_ANGLE_UNIT()
SI_UNIT($,.RADIAN.)
);
#556=(
LENGTH_UNIT()
NAMED_UNIT(*)
SI_UNIT(.MILLI.,.METRE.)
);
ENDSEC;
END-ISO-10303-21;
