ISO-10303-21;
HEADER;
/* Generated by software containing ST-Developer
 * from STEP Tools, Inc. (www.steptools.com) 
 */
/* OPTION: using custom schema-name function */

FILE_DESCRIPTION(
/* description */ (''),
/* implementation_level */ '2;1');

FILE_NAME(
/* name */ 'VFHVRBD100R20N080T09.stp',
/* time_stamp */ '2023-03-17T09:18:07+09:00',
/* author */ (''),
/* organization */ (''),
/* preprocessor_version */ 'ST-DEVELOPER v16',
/* originating_system */ 'SIEMENS PLM Software NX 10.0',
/* authorisation */ '');

FILE_SCHEMA (('AUTOMOTIVE_DESIGN { 1 0 10303 214 3 1 1 1 }'));
ENDSEC;

DATA;
#10=CONSTRUCTIVE_GEOMETRY_REPRESENTATION_RELATIONSHIP(
'supplemental geometry','',#26,#11);
#11=CONSTRUCTIVE_GEOMETRY_REPRESENTATION('supplemental geometry',(#391,
#392,#393,#394,#395,#396,#397,#398,#399,#400),#663);
#12=GEOMETRICALLY_BOUNDED_WIREFRAME_SHAPE_REPRESENTATION(
'VFHVRBD100R20N080T09-None',(#27),#663);
#13=SHAPE_REPRESENTATION_RELATIONSHIP('None',
'relationship between VFHVRBD100R20N080T09-None and VFHVRBD100R20N080T
09-None',#26,#15);
#14=SHAPE_REPRESENTATION_RELATIONSHIP('None',
'relationship between VFHVRBD100R20N080T09-None and VFHVRBD100R20N080T
09-None',#26,#12);
#15=ADVANCED_BREP_SHAPE_REPRESENTATION('VFHVRBD100R20N080T09-None',(#46,
#47),#663);
#16=SHAPE_DEFINITION_REPRESENTATION(#17,#26);
#17=PRODUCT_DEFINITION_SHAPE('','SHAPE FOR VFHVRBD100R20N080T09_ASM.',#18);
#18=PRODUCT_DEFINITION('part definition','',#20,#19);
#19=PRODUCT_DEFINITION_CONTEXT('part definition',#25,'design');
#20=PRODUCT_DEFINITION_FORMATION_WITH_SPECIFIED_SOURCE(' ',' ',#22,
 .NOT_KNOWN.);
#21=PRODUCT_RELATED_PRODUCT_CATEGORY('part','',(#22));
#22=PRODUCT('VFHVRBD100R20N080T09_ASM','VFHVRBD100R20N080T09_ASM',
'NOT SPECIFIED',(#23));
#23=PRODUCT_CONTEXT('',#25,'mechanical');
#24=APPLICATION_PROTOCOL_DEFINITION('international standard',
'automotive_design',2010,#25);
#25=APPLICATION_CONTEXT(
'core data for automotive mechanical design processes');
#26=SHAPE_REPRESENTATION('VFHVRBD100R20N080T09-None',(#389),#663);
#27=GEOMETRIC_CURVE_SET('None',(#570,#303,#304,#305,#306,#307));
#28=CONICAL_SURFACE('',#417,4.925,45.00000000001);
#29=CONICAL_SURFACE('',#421,4.925,45.00000000001);
#30=CONICAL_SURFACE('',#427,5.336986915034,0.9);
#31=CONICAL_SURFACE('',#429,5.336986915034,0.9);
#32=CONICAL_SURFACE('',#431,6.911986915035,15.);
#33=CONICAL_SURFACE('',#433,6.911986915035,15.);
#34=CONICAL_SURFACE('',#439,7.75,45.);
#35=CONICAL_SURFACE('',#441,7.75,45.);
#36=SURFACE_STYLE_USAGE(.BOTH.,#38);
#37=SURFACE_STYLE_USAGE(.BOTH.,#39);
#38=SURFACE_SIDE_STYLE('',(#40));
#39=SURFACE_SIDE_STYLE('',(#41));
#40=SURFACE_STYLE_FILL_AREA(#42);
#41=SURFACE_STYLE_FILL_AREA(#43);
#42=FILL_AREA_STYLE('',(#44));
#43=FILL_AREA_STYLE('',(#45));
#44=FILL_AREA_STYLE_COLOUR('',#387);
#45=FILL_AREA_STYLE_COLOUR('',#388);
#46=MANIFOLD_SOLID_BREP('CUT',#48);
#47=MANIFOLD_SOLID_BREP('NOCUT',#49);
#48=CLOSED_SHELL('',(#56,#57,#58,#59,#60,#61));
#49=CLOSED_SHELL('',(#62,#63,#64,#65,#66,#67,#68,#69,#70,#71,#72,#73,#74,
#75));
#50=TOROIDAL_SURFACE('',#411,3.,2.);
#51=TOROIDAL_SURFACE('',#413,3.,2.);
#52=PLANE('',#405);
#53=PLANE('',#414);
#54=PLANE('',#419);
#55=PLANE('',#442);
#56=ADVANCED_FACE('',(#82),#76,.T.);
#57=ADVANCED_FACE('',(#83),#52,.F.);
#58=ADVANCED_FACE('',(#84),#77,.T.);
#59=ADVANCED_FACE('',(#85),#50,.T.);
#60=ADVANCED_FACE('',(#86),#51,.T.);
#61=ADVANCED_FACE('',(#87),#53,.T.);
#62=ADVANCED_FACE('',(#88),#28,.T.);
#63=ADVANCED_FACE('',(#89),#54,.F.);
#64=ADVANCED_FACE('',(#90),#29,.T.);
#65=ADVANCED_FACE('',(#91),#78,.T.);
#66=ADVANCED_FACE('',(#92),#79,.T.);
#67=ADVANCED_FACE('',(#93),#30,.T.);
#68=ADVANCED_FACE('',(#94),#31,.T.);
#69=ADVANCED_FACE('',(#95),#32,.T.);
#70=ADVANCED_FACE('',(#96),#33,.T.);
#71=ADVANCED_FACE('',(#97),#80,.T.);
#72=ADVANCED_FACE('',(#98),#81,.T.);
#73=ADVANCED_FACE('',(#99),#34,.T.);
#74=ADVANCED_FACE('',(#100),#35,.T.);
#75=ADVANCED_FACE('',(#101),#55,.F.);
#76=CYLINDRICAL_SURFACE('',#403,5.);
#77=CYLINDRICAL_SURFACE('',#407,5.);
#78=CYLINDRICAL_SURFACE('',#423,4.85);
#79=CYLINDRICAL_SURFACE('',#425,4.85);
#80=CYLINDRICAL_SURFACE('',#435,8.);
#81=CYLINDRICAL_SURFACE('',#437,8.);
#82=FACE_OUTER_BOUND('',#102,.T.);
#83=FACE_OUTER_BOUND('',#103,.T.);
#84=FACE_OUTER_BOUND('',#104,.T.);
#85=FACE_OUTER_BOUND('',#105,.T.);
#86=FACE_OUTER_BOUND('',#106,.T.);
#87=FACE_OUTER_BOUND('',#107,.T.);
#88=FACE_OUTER_BOUND('',#108,.T.);
#89=FACE_OUTER_BOUND('',#109,.T.);
#90=FACE_OUTER_BOUND('',#110,.T.);
#91=FACE_OUTER_BOUND('',#111,.T.);
#92=FACE_OUTER_BOUND('',#112,.T.);
#93=FACE_OUTER_BOUND('',#113,.T.);
#94=FACE_OUTER_BOUND('',#114,.T.);
#95=FACE_OUTER_BOUND('',#115,.T.);
#96=FACE_OUTER_BOUND('',#116,.T.);
#97=FACE_OUTER_BOUND('',#117,.T.);
#98=FACE_OUTER_BOUND('',#118,.T.);
#99=FACE_OUTER_BOUND('',#119,.T.);
#100=FACE_OUTER_BOUND('',#120,.T.);
#101=FACE_OUTER_BOUND('',#121,.T.);
#102=EDGE_LOOP('',(#122,#123,#124,#125));
#103=EDGE_LOOP('',(#126,#127));
#104=EDGE_LOOP('',(#128,#129,#130,#131));
#105=EDGE_LOOP('',(#132,#133,#134,#135));
#106=EDGE_LOOP('',(#136,#137,#138,#139));
#107=EDGE_LOOP('',(#140,#141));
#108=EDGE_LOOP('',(#142,#143,#144,#145));
#109=EDGE_LOOP('',(#146,#147));
#110=EDGE_LOOP('',(#148,#149,#150,#151));
#111=EDGE_LOOP('',(#152,#153,#154,#155));
#112=EDGE_LOOP('',(#156,#157,#158,#159));
#113=EDGE_LOOP('',(#160,#161,#162,#163));
#114=EDGE_LOOP('',(#164,#165,#166,#167));
#115=EDGE_LOOP('',(#168,#169,#170,#171));
#116=EDGE_LOOP('',(#172,#173,#174,#175));
#117=EDGE_LOOP('',(#176,#177,#178,#179));
#118=EDGE_LOOP('',(#180,#181,#182,#183));
#119=EDGE_LOOP('',(#184,#185,#186,#187));
#120=EDGE_LOOP('',(#188,#189,#190,#191));
#121=EDGE_LOOP('',(#192,#193));
#122=ORIENTED_EDGE('',*,*,#214,.T.);
#123=ORIENTED_EDGE('',*,*,#215,.T.);
#124=ORIENTED_EDGE('',*,*,#216,.F.);
#125=ORIENTED_EDGE('',*,*,#217,.T.);
#126=ORIENTED_EDGE('',*,*,#218,.F.);
#127=ORIENTED_EDGE('',*,*,#217,.F.);
#128=ORIENTED_EDGE('',*,*,#216,.T.);
#129=ORIENTED_EDGE('',*,*,#219,.T.);
#130=ORIENTED_EDGE('',*,*,#214,.F.);
#131=ORIENTED_EDGE('',*,*,#218,.T.);
#132=ORIENTED_EDGE('',*,*,#220,.T.);
#133=ORIENTED_EDGE('',*,*,#221,.T.);
#134=ORIENTED_EDGE('',*,*,#219,.F.);
#135=ORIENTED_EDGE('',*,*,#222,.F.);
#136=ORIENTED_EDGE('',*,*,#215,.F.);
#137=ORIENTED_EDGE('',*,*,#221,.F.);
#138=ORIENTED_EDGE('',*,*,#223,.T.);
#139=ORIENTED_EDGE('',*,*,#222,.T.);
#140=ORIENTED_EDGE('',*,*,#223,.F.);
#141=ORIENTED_EDGE('',*,*,#220,.F.);
#142=ORIENTED_EDGE('',*,*,#224,.F.);
#143=ORIENTED_EDGE('',*,*,#225,.F.);
#144=ORIENTED_EDGE('',*,*,#226,.T.);
#145=ORIENTED_EDGE('',*,*,#227,.T.);
#146=ORIENTED_EDGE('',*,*,#228,.F.);
#147=ORIENTED_EDGE('',*,*,#227,.F.);
#148=ORIENTED_EDGE('',*,*,#226,.F.);
#149=ORIENTED_EDGE('',*,*,#229,.F.);
#150=ORIENTED_EDGE('',*,*,#224,.T.);
#151=ORIENTED_EDGE('',*,*,#228,.T.);
#152=ORIENTED_EDGE('',*,*,#229,.T.);
#153=ORIENTED_EDGE('',*,*,#230,.T.);
#154=ORIENTED_EDGE('',*,*,#231,.T.);
#155=ORIENTED_EDGE('',*,*,#232,.F.);
#156=ORIENTED_EDGE('',*,*,#233,.T.);
#157=ORIENTED_EDGE('',*,*,#230,.F.);
#158=ORIENTED_EDGE('',*,*,#225,.T.);
#159=ORIENTED_EDGE('',*,*,#232,.T.);
#160=ORIENTED_EDGE('',*,*,#234,.F.);
#161=ORIENTED_EDGE('',*,*,#235,.T.);
#162=ORIENTED_EDGE('',*,*,#233,.F.);
#163=ORIENTED_EDGE('',*,*,#236,.F.);
#164=ORIENTED_EDGE('',*,*,#231,.F.);
#165=ORIENTED_EDGE('',*,*,#235,.F.);
#166=ORIENTED_EDGE('',*,*,#237,.T.);
#167=ORIENTED_EDGE('',*,*,#236,.T.);
#168=ORIENTED_EDGE('',*,*,#237,.F.);
#169=ORIENTED_EDGE('',*,*,#238,.T.);
#170=ORIENTED_EDGE('',*,*,#239,.F.);
#171=ORIENTED_EDGE('',*,*,#240,.F.);
#172=ORIENTED_EDGE('',*,*,#241,.F.);
#173=ORIENTED_EDGE('',*,*,#238,.F.);
#174=ORIENTED_EDGE('',*,*,#234,.T.);
#175=ORIENTED_EDGE('',*,*,#240,.T.);
#176=ORIENTED_EDGE('',*,*,#242,.T.);
#177=ORIENTED_EDGE('',*,*,#243,.T.);
#178=ORIENTED_EDGE('',*,*,#241,.T.);
#179=ORIENTED_EDGE('',*,*,#244,.F.);
#180=ORIENTED_EDGE('',*,*,#239,.T.);
#181=ORIENTED_EDGE('',*,*,#243,.F.);
#182=ORIENTED_EDGE('',*,*,#245,.T.);
#183=ORIENTED_EDGE('',*,*,#244,.T.);
#184=ORIENTED_EDGE('',*,*,#245,.F.);
#185=ORIENTED_EDGE('',*,*,#246,.T.);
#186=ORIENTED_EDGE('',*,*,#247,.T.);
#187=ORIENTED_EDGE('',*,*,#248,.F.);
#188=ORIENTED_EDGE('',*,*,#249,.T.);
#189=ORIENTED_EDGE('',*,*,#246,.F.);
#190=ORIENTED_EDGE('',*,*,#242,.F.);
#191=ORIENTED_EDGE('',*,*,#248,.T.);
#192=ORIENTED_EDGE('',*,*,#249,.F.);
#193=ORIENTED_EDGE('',*,*,#247,.F.);
#194=VERTEX_POINT('',#587);
#195=VERTEX_POINT('',#588);
#196=VERTEX_POINT('',#590);
#197=VERTEX_POINT('',#592);
#198=VERTEX_POINT('',#600);
#199=VERTEX_POINT('',#601);
#200=VERTEX_POINT('',#609);
#201=VERTEX_POINT('',#610);
#202=VERTEX_POINT('',#612);
#203=VERTEX_POINT('',#614);
#204=VERTEX_POINT('',#622);
#205=VERTEX_POINT('',#624);
#206=VERTEX_POINT('',#630);
#207=VERTEX_POINT('',#631);
#208=VERTEX_POINT('',#638);
#209=VERTEX_POINT('',#640);
#210=VERTEX_POINT('',#646);
#211=VERTEX_POINT('',#647);
#212=VERTEX_POINT('',#654);
#213=VERTEX_POINT('',#656);
#214=EDGE_CURVE('',#194,#195,#312,.T.);
#215=EDGE_CURVE('',#195,#196,#251,.T.);
#216=EDGE_CURVE('',#197,#196,#313,.T.);
#217=EDGE_CURVE('',#197,#194,#252,.T.);
#218=EDGE_CURVE('',#194,#197,#253,.T.);
#219=EDGE_CURVE('',#196,#195,#254,.T.);
#220=EDGE_CURVE('',#198,#199,#255,.T.);
#221=EDGE_CURVE('',#199,#195,#256,.T.);
#222=EDGE_CURVE('',#198,#196,#257,.T.);
#223=EDGE_CURVE('',#199,#198,#258,.T.);
#224=EDGE_CURVE('',#200,#201,#314,.T.);
#225=EDGE_CURVE('',#202,#200,#259,.T.);
#226=EDGE_CURVE('',#202,#203,#315,.T.);
#227=EDGE_CURVE('',#203,#201,#260,.T.);
#228=EDGE_CURVE('',#201,#203,#261,.T.);
#229=EDGE_CURVE('',#200,#202,#262,.T.);
#230=EDGE_CURVE('',#202,#204,#316,.T.);
#231=EDGE_CURVE('',#204,#205,#263,.T.);
#232=EDGE_CURVE('',#200,#205,#317,.T.);
#233=EDGE_CURVE('',#205,#204,#264,.T.);
#234=EDGE_CURVE('',#206,#207,#265,.T.);
#235=EDGE_CURVE('',#206,#204,#318,.T.);
#236=EDGE_CURVE('',#207,#205,#319,.T.);
#237=EDGE_CURVE('',#206,#207,#266,.T.);
#238=EDGE_CURVE('',#206,#208,#320,.T.);
#239=EDGE_CURVE('',#209,#208,#267,.T.);
#240=EDGE_CURVE('',#207,#209,#321,.T.);
#241=EDGE_CURVE('',#208,#209,#268,.T.);
#242=EDGE_CURVE('',#210,#211,#269,.T.);
#243=EDGE_CURVE('',#211,#208,#322,.T.);
#244=EDGE_CURVE('',#210,#209,#323,.T.);
#245=EDGE_CURVE('',#211,#210,#270,.T.);
#246=EDGE_CURVE('',#211,#212,#324,.T.);
#247=EDGE_CURVE('',#212,#213,#271,.T.);
#248=EDGE_CURVE('',#210,#213,#325,.T.);
#249=EDGE_CURVE('',#213,#212,#272,.T.);
#250=CIRCLE('',#390,2.);
#251=CIRCLE('',#401,5.);
#252=CIRCLE('',#402,5.);
#253=CIRCLE('',#404,5.);
#254=CIRCLE('',#406,5.);
#255=CIRCLE('',#408,3.);
#256=CIRCLE('',#409,2.);
#257=CIRCLE('',#410,2.);
#258=CIRCLE('',#412,3.);
#259=CIRCLE('',#415,4.85);
#260=CIRCLE('',#416,5.);
#261=CIRCLE('',#418,5.);
#262=CIRCLE('',#420,4.85);
#263=CIRCLE('',#422,4.85);
#264=CIRCLE('',#424,4.85);
#265=CIRCLE('',#426,5.823973830068);
#266=CIRCLE('',#428,5.823973830069);
#267=CIRCLE('',#430,8.000000000002);
#268=CIRCLE('',#432,8.000000000002);
#269=CIRCLE('',#434,8.);
#270=CIRCLE('',#436,8.);
#271=CIRCLE('',#438,7.5);
#272=CIRCLE('',#440,7.5);
#273=CURVE_STYLE('',#288,POSITIVE_LENGTH_MEASURE(0.18),#384);
#274=CURVE_STYLE('',#289,POSITIVE_LENGTH_MEASURE(0.18),#384);
#275=CURVE_STYLE('',#290,POSITIVE_LENGTH_MEASURE(0.18),#384);
#276=CURVE_STYLE('',#291,POSITIVE_LENGTH_MEASURE(0.18),#384);
#277=CURVE_STYLE('',#292,POSITIVE_LENGTH_MEASURE(0.18),#384);
#278=CURVE_STYLE('',#293,POSITIVE_LENGTH_MEASURE(0.13),#385);
#279=CURVE_STYLE('',#294,POSITIVE_LENGTH_MEASURE(0.13),#385);
#280=CURVE_STYLE('',#295,POSITIVE_LENGTH_MEASURE(0.13),#386);
#281=CURVE_STYLE('',#296,POSITIVE_LENGTH_MEASURE(0.13),#386);
#282=CURVE_STYLE('',#297,POSITIVE_LENGTH_MEASURE(0.13),#385);
#283=CURVE_STYLE('',#298,POSITIVE_LENGTH_MEASURE(0.13),#385);
#284=CURVE_STYLE('',#299,POSITIVE_LENGTH_MEASURE(0.13),#386);
#285=CURVE_STYLE('',#300,POSITIVE_LENGTH_MEASURE(0.13),#385);
#286=CURVE_STYLE('',#301,POSITIVE_LENGTH_MEASURE(0.13),#385);
#287=CURVE_STYLE('',#302,POSITIVE_LENGTH_MEASURE(0.13),#385);
#288=DRAUGHTING_PRE_DEFINED_CURVE_FONT('continuous');
#289=DRAUGHTING_PRE_DEFINED_CURVE_FONT('continuous');
#290=DRAUGHTING_PRE_DEFINED_CURVE_FONT('continuous');
#291=DRAUGHTING_PRE_DEFINED_CURVE_FONT('continuous');
#292=DRAUGHTING_PRE_DEFINED_CURVE_FONT('continuous');
#293=DRAUGHTING_PRE_DEFINED_CURVE_FONT('continuous');
#294=DRAUGHTING_PRE_DEFINED_CURVE_FONT('continuous');
#295=DRAUGHTING_PRE_DEFINED_CURVE_FONT('continuous');
#296=DRAUGHTING_PRE_DEFINED_CURVE_FONT('continuous');
#297=DRAUGHTING_PRE_DEFINED_CURVE_FONT('continuous');
#298=DRAUGHTING_PRE_DEFINED_CURVE_FONT('continuous');
#299=DRAUGHTING_PRE_DEFINED_CURVE_FONT('continuous');
#300=DRAUGHTING_PRE_DEFINED_CURVE_FONT('continuous');
#301=DRAUGHTING_PRE_DEFINED_CURVE_FONT('continuous');
#302=DRAUGHTING_PRE_DEFINED_CURVE_FONT('continuous');
#303=TRIMMED_CURVE('',#308,(PARAMETER_VALUE(0.)),(PARAMETER_VALUE(1.)),
 .T.,.PARAMETER.);
#304=TRIMMED_CURVE('',#309,(PARAMETER_VALUE(0.)),(PARAMETER_VALUE(1.)),
 .T.,.PARAMETER.);
#305=TRIMMED_CURVE('',#310,(PARAMETER_VALUE(0.)),(PARAMETER_VALUE(1.)),
 .T.,.PARAMETER.);
#306=TRIMMED_CURVE('',#311,(PARAMETER_VALUE(0.)),(PARAMETER_VALUE(1.)),
 .T.,.PARAMETER.);
#307=TRIMMED_CURVE('',#250,(PARAMETER_VALUE(0.)),(PARAMETER_VALUE(90.)),
 .T.,.PARAMETER.);
#308=LINE('',#571,#326);
#309=LINE('',#572,#327);
#310=LINE('',#573,#328);
#311=LINE('',#574,#329);
#312=LINE('',#586,#330);
#313=LINE('',#591,#331);
#314=LINE('',#608,#332);
#315=LINE('',#613,#333);
#316=LINE('',#621,#334);
#317=LINE('',#625,#335);
#318=LINE('',#632,#336);
#319=LINE('',#633,#337);
#320=LINE('',#637,#338);
#321=LINE('',#641,#339);
#322=LINE('',#648,#340);
#323=LINE('',#649,#341);
#324=LINE('',#653,#342);
#325=LINE('',#657,#343);
#326=VECTOR('',#445,3.);
#327=VECTOR('',#446,13.);
#328=VECTOR('',#447,5.);
#329=VECTOR('',#448,15.);
#330=VECTOR('',#471,1.);
#331=VECTOR('',#474,1.);
#332=VECTOR('',#501,1.);
#333=VECTOR('',#504,1.);
#334=VECTOR('',#517,1.);
#335=VECTOR('',#520,1.);
#336=VECTOR('',#529,1.);
#337=VECTOR('',#530,1.);
#338=VECTOR('',#537,1.);
#339=VECTOR('',#540,1.);
#340=VECTOR('',#549,1.);
#341=VECTOR('',#550,1.);
#342=VECTOR('',#557,1.);
#343=VECTOR('',#560,1.);
#344=PRESENTATION_LAYER_ASSIGNMENT('1','Layer 1',(#570,#303,#304,#305,#306,
#307,#391,#392,#395,#396,#397,#398,#399,#400,#46,#47));
#345=PRESENTATION_LAYER_ASSIGNMENT('2','Layer 2',(#393,#394));
#346=STYLED_ITEM('',(#364),#570);
#347=STYLED_ITEM('',(#365),#303);
#348=STYLED_ITEM('',(#366),#304);
#349=STYLED_ITEM('',(#367),#305);
#350=STYLED_ITEM('',(#368),#306);
#351=STYLED_ITEM('',(#369),#307);
#352=STYLED_ITEM('',(#370),#391);
#353=STYLED_ITEM('',(#371),#392);
#354=STYLED_ITEM('',(#372),#393);
#355=STYLED_ITEM('',(#373),#394);
#356=STYLED_ITEM('',(#374),#395);
#357=STYLED_ITEM('',(#375),#396);
#358=STYLED_ITEM('',(#376),#397);
#359=STYLED_ITEM('',(#377),#398);
#360=STYLED_ITEM('',(#378),#399);
#361=STYLED_ITEM('',(#379),#400);
#362=STYLED_ITEM('',(#380),#46);
#363=STYLED_ITEM('',(#381),#47);
#364=PRESENTATION_STYLE_ASSIGNMENT((#382));
#365=PRESENTATION_STYLE_ASSIGNMENT((#273));
#366=PRESENTATION_STYLE_ASSIGNMENT((#274));
#367=PRESENTATION_STYLE_ASSIGNMENT((#275));
#368=PRESENTATION_STYLE_ASSIGNMENT((#276));
#369=PRESENTATION_STYLE_ASSIGNMENT((#277));
#370=PRESENTATION_STYLE_ASSIGNMENT((#278));
#371=PRESENTATION_STYLE_ASSIGNMENT((#279));
#372=PRESENTATION_STYLE_ASSIGNMENT((#280));
#373=PRESENTATION_STYLE_ASSIGNMENT((#281));
#374=PRESENTATION_STYLE_ASSIGNMENT((#282));
#375=PRESENTATION_STYLE_ASSIGNMENT((#283));
#376=PRESENTATION_STYLE_ASSIGNMENT((#284));
#377=PRESENTATION_STYLE_ASSIGNMENT((#285));
#378=PRESENTATION_STYLE_ASSIGNMENT((#286));
#379=PRESENTATION_STYLE_ASSIGNMENT((#287));
#380=PRESENTATION_STYLE_ASSIGNMENT((#36));
#381=PRESENTATION_STYLE_ASSIGNMENT((#37));
#382=POINT_STYLE('',#383,POSITIVE_LENGTH_MEASURE(3.),#384);
#383=PRE_DEFINED_POINT_MARKER_SYMBOL('plus');
#384=COLOUR_RGB('Medium Royal',0.2,0.4,0.8);
#385=COLOUR_RGB('Strong Stone',0.576470588235294,0.54508278019379,0.392156862745098);
#386=COLOUR_RGB('Medium Umber',0.372533760585946,0.313725490196078,0.270572976272221);
#387=COLOUR_RGB('cutting part',0.8,0.8,0.8);
#388=COLOUR_RGB('non-cutting part and shank',0.501960784313725,0.501960784313725,
0.501960784313725);
#389=AXIS2_PLACEMENT_3D('',#569,#443,#444);
#390=AXIS2_PLACEMENT_3D('',#575,#449,#450);
#391=AXIS2_PLACEMENT_3D('',#576,#451,#452);
#392=AXIS2_PLACEMENT_3D('',#577,#453,#454);
#393=AXIS2_PLACEMENT_3D('CIP',#578,#455,#456);
#394=AXIS2_PLACEMENT_3D('PCS',#579,#457,#458);
#395=AXIS2_PLACEMENT_3D('MCS',#580,#459,#460);
#396=AXIS2_PLACEMENT_3D('',#581,#461,#462);
#397=AXIS2_PLACEMENT_3D('STEP_TEMP_EM26-2_1',#582,#463,#464);
#398=AXIS2_PLACEMENT_3D('',#583,#465,#466);
#399=AXIS2_PLACEMENT_3D('',#584,#467,#468);
#400=AXIS2_PLACEMENT_3D('',#585,#469,#470);
#401=AXIS2_PLACEMENT_3D('',#589,#472,#473);
#402=AXIS2_PLACEMENT_3D('',#593,#475,#476);
#403=AXIS2_PLACEMENT_3D('',#594,#477,#478);
#404=AXIS2_PLACEMENT_3D('',#595,#479,#480);
#405=AXIS2_PLACEMENT_3D('',#596,#481,#482);
#406=AXIS2_PLACEMENT_3D('',#597,#483,#484);
#407=AXIS2_PLACEMENT_3D('',#598,#485,#486);
#408=AXIS2_PLACEMENT_3D('',#599,#487,#488);
#409=AXIS2_PLACEMENT_3D('',#602,#489,#490);
#410=AXIS2_PLACEMENT_3D('',#603,#491,#492);
#411=AXIS2_PLACEMENT_3D('',#604,#493,#494);
#412=AXIS2_PLACEMENT_3D('',#605,#495,#496);
#413=AXIS2_PLACEMENT_3D('',#606,#497,#498);
#414=AXIS2_PLACEMENT_3D('',#607,#499,#500);
#415=AXIS2_PLACEMENT_3D('',#611,#502,#503);
#416=AXIS2_PLACEMENT_3D('',#615,#505,#506);
#417=AXIS2_PLACEMENT_3D('',#616,#507,#508);
#418=AXIS2_PLACEMENT_3D('',#617,#509,#510);
#419=AXIS2_PLACEMENT_3D('',#618,#511,#512);
#420=AXIS2_PLACEMENT_3D('',#619,#513,#514);
#421=AXIS2_PLACEMENT_3D('',#620,#515,#516);
#422=AXIS2_PLACEMENT_3D('',#623,#518,#519);
#423=AXIS2_PLACEMENT_3D('',#626,#521,#522);
#424=AXIS2_PLACEMENT_3D('',#627,#523,#524);
#425=AXIS2_PLACEMENT_3D('',#628,#525,#526);
#426=AXIS2_PLACEMENT_3D('',#629,#527,#528);
#427=AXIS2_PLACEMENT_3D('',#634,#531,#532);
#428=AXIS2_PLACEMENT_3D('',#635,#533,#534);
#429=AXIS2_PLACEMENT_3D('',#636,#535,#536);
#430=AXIS2_PLACEMENT_3D('',#639,#538,#539);
#431=AXIS2_PLACEMENT_3D('',#642,#541,#542);
#432=AXIS2_PLACEMENT_3D('',#643,#543,#544);
#433=AXIS2_PLACEMENT_3D('',#644,#545,#546);
#434=AXIS2_PLACEMENT_3D('',#645,#547,#548);
#435=AXIS2_PLACEMENT_3D('',#650,#551,#552);
#436=AXIS2_PLACEMENT_3D('',#651,#553,#554);
#437=AXIS2_PLACEMENT_3D('',#652,#555,#556);
#438=AXIS2_PLACEMENT_3D('',#655,#558,#559);
#439=AXIS2_PLACEMENT_3D('',#658,#561,#562);
#440=AXIS2_PLACEMENT_3D('',#659,#563,#564);
#441=AXIS2_PLACEMENT_3D('',#660,#565,#566);
#442=AXIS2_PLACEMENT_3D('',#661,#567,#568);
#443=DIRECTION('',(0.,0.,1.));
#444=DIRECTION('',(1.,0.,0.));
#445=DIRECTION('',(-1.,0.,0.));
#446=DIRECTION('',(0.,0.,1.));
#447=DIRECTION('',(1.,0.,0.));
#448=DIRECTION('',(0.,0.,-1.));
#449=DIRECTION('',(0.,1.,0.));
#450=DIRECTION('',(0.,0.,-1.));
#451=DIRECTION('',(0.,0.,1.));
#452=DIRECTION('',(1.,0.,0.));
#453=DIRECTION('',(0.,0.,1.));
#454=DIRECTION('',(1.,0.,0.));
#455=DIRECTION('',(0.,0.,1.));
#456=DIRECTION('',(1.,0.,0.));
#457=DIRECTION('',(0.,0.,1.));
#458=DIRECTION('',(1.,0.,0.));
#459=DIRECTION('',(0.,0.,1.));
#460=DIRECTION('',(1.,0.,0.));
#461=DIRECTION('',(0.,0.,1.));
#462=DIRECTION('',(1.,0.,0.));
#463=DIRECTION('',(0.,0.,1.));
#464=DIRECTION('',(1.,0.,0.));
#465=DIRECTION('',(0.,0.,1.));
#466=DIRECTION('',(1.,0.,0.));
#467=DIRECTION('',(0.,0.,1.));
#468=DIRECTION('',(1.,0.,0.));
#469=DIRECTION('',(0.,0.,1.));
#470=DIRECTION('',(1.,0.,0.));
#471=DIRECTION('',(0.,0.,-1.));
#472=DIRECTION('',(0.,0.,1.));
#473=DIRECTION('',(0.,-1.,0.));
#474=DIRECTION('',(0.,0.,-1.));
#475=DIRECTION('',(0.,0.,-1.));
#476=DIRECTION('',(0.,1.,0.));
#477=DIRECTION('',(0.,0.,-1.));
#478=DIRECTION('',(0.,1.,0.));
#479=DIRECTION('',(0.,0.,-1.));
#480=DIRECTION('',(0.,-1.,0.));
#481=DIRECTION('',(0.,0.,-1.));
#482=DIRECTION('',(1.,0.,0.));
#483=DIRECTION('',(0.,0.,1.));
#484=DIRECTION('',(0.,1.,0.));
#485=DIRECTION('',(0.,0.,-1.));
#486=DIRECTION('',(0.,1.,0.));
#487=DIRECTION('',(0.,0.,1.));
#488=DIRECTION('',(0.,1.,0.));
#489=DIRECTION('',(-1.,0.,0.));
#490=DIRECTION('',(0.,-1.,0.));
#491=DIRECTION('',(1.,0.,0.));
#492=DIRECTION('',(0.,1.,0.));
#493=DIRECTION('',(0.,0.,-1.));
#494=DIRECTION('',(0.,1.,0.));
#495=DIRECTION('',(0.,0.,1.));
#496=DIRECTION('',(0.,-1.,0.));
#497=DIRECTION('',(0.,0.,-1.));
#498=DIRECTION('',(0.,1.,0.));
#499=DIRECTION('',(0.,0.,-1.));
#500=DIRECTION('',(0.,1.,0.));
#501=DIRECTION('',(0.,0.707106781186498,-0.707106781186598));
#502=DIRECTION('',(0.,0.,1.));
#503=DIRECTION('',(0.,-1.,0.));
#504=DIRECTION('',(0.,-0.707106781186598,-0.707106781186498));
#505=DIRECTION('',(0.,0.,1.));
#506=DIRECTION('',(0.,-1.,0.));
#507=DIRECTION('',(0.,0.,-1.));
#508=DIRECTION('',(0.,1.,-5.00604331699479E-17));
#509=DIRECTION('',(0.,0.,1.));
#510=DIRECTION('',(0.,1.,0.));
#511=DIRECTION('',(0.,0.,1.));
#512=DIRECTION('',(-1.,0.,0.));
#513=DIRECTION('',(0.,0.,1.));
#514=DIRECTION('',(0.,1.,0.));
#515=DIRECTION('',(0.,0.,-1.));
#516=DIRECTION('',(0.,1.,-5.00604331699479E-17));
#517=DIRECTION('',(0.,-7.136591512678E-14,1.));
#518=DIRECTION('',(0.,0.,-1.));
#519=DIRECTION('',(0.,-1.,0.));
#520=DIRECTION('',(0.,7.136591512678E-14,1.));
#521=DIRECTION('',(0.,0.,-1.));
#522=DIRECTION('',(0.,1.,0.));
#523=DIRECTION('',(0.,0.,-1.));
#524=DIRECTION('',(0.,1.,0.));
#525=DIRECTION('',(0.,0.,-1.));
#526=DIRECTION('',(0.,1.,0.));
#527=DIRECTION('',(0.,0.,1.));
#528=DIRECTION('',(0.,-1.,0.));
#529=DIRECTION('',(0.,0.0157073173118294,-0.99987663248166));
#530=DIRECTION('',(0.,-0.0157073173118294,-0.99987663248166));
#531=DIRECTION('',(0.,0.,1.));
#532=DIRECTION('',(0.,-1.,-3.29697521543694E-15));
#533=DIRECTION('',(0.,0.,-1.));
#534=DIRECTION('',(0.,-1.,0.));
#535=DIRECTION('',(0.,0.,1.));
#536=DIRECTION('',(0.,-1.,-3.29697521543694E-15));
#537=DIRECTION('',(0.,-0.258819045102493,0.965925826289076));
#538=DIRECTION('',(0.,0.,1.));
#539=DIRECTION('',(0.,1.,0.));
#540=DIRECTION('',(0.,0.258819045102493,0.965925826289076));
#541=DIRECTION('',(0.,0.,1.));
#542=DIRECTION('',(0.,-1.,2.52450852478096E-16));
#543=DIRECTION('',(0.,0.,1.));
#544=DIRECTION('',(0.,-1.,0.));
#545=DIRECTION('',(0.,0.,1.));
#546=DIRECTION('',(0.,-1.,2.52450852478096E-16));
#547=DIRECTION('',(0.,0.,-1.));
#548=DIRECTION('',(0.,1.,0.));
#549=DIRECTION('',(0.,-2.163620960801E-14,-1.));
#550=DIRECTION('',(0.,2.146449365874E-14,-1.));
#551=DIRECTION('',(0.,0.,-1.));
#552=DIRECTION('',(0.,1.,0.));
#553=DIRECTION('',(0.,0.,-1.));
#554=DIRECTION('',(0.,-1.,0.));
#555=DIRECTION('',(0.,0.,-1.));
#556=DIRECTION('',(0.,1.,0.));
#557=DIRECTION('',(0.,0.707106781186547,0.707106781186547));
#558=DIRECTION('',(0.,0.,-1.));
#559=DIRECTION('',(0.,-1.,0.));
#560=DIRECTION('',(0.,-0.707106781186547,0.707106781186547));
#561=DIRECTION('',(0.,0.,-1.));
#562=DIRECTION('',(0.,1.,2.75421241534398E-17));
#563=DIRECTION('',(0.,0.,-1.));
#564=DIRECTION('',(0.,1.,0.));
#565=DIRECTION('',(0.,0.,-1.));
#566=DIRECTION('',(0.,1.,2.75421241534398E-17));
#567=DIRECTION('',(0.,0.,-1.));
#568=DIRECTION('',(0.,1.,0.));
#569=CARTESIAN_POINT('',(0.,0.,0.));
#570=CARTESIAN_POINT('CRP',(-5.,0.,0.));
#571=CARTESIAN_POINT('',(0.,0.,0.));
#572=CARTESIAN_POINT('',(-5.,0.,2.));
#573=CARTESIAN_POINT('',(-5.,0.,15.));
#574=CARTESIAN_POINT('',(0.,0.,15.));
#575=CARTESIAN_POINT('',(-3.,0.,2.));
#576=CARTESIAN_POINT('',(0.,0.,0.));
#577=CARTESIAN_POINT('',(0.,0.,0.));
#578=CARTESIAN_POINT('',(0.,0.,0.));
#579=CARTESIAN_POINT('',(0.,0.,130.));
#580=CARTESIAN_POINT('',(0.,0.,98.));
#581=CARTESIAN_POINT('',(0.,0.,0.));
#582=CARTESIAN_POINT('',(0.,0.,0.));
#583=CARTESIAN_POINT('',(0.,0.,0.));
#584=CARTESIAN_POINT('',(0.,0.,0.));
#585=CARTESIAN_POINT('',(0.,0.,0.));
#586=CARTESIAN_POINT('',(0.,-5.,15.));
#587=CARTESIAN_POINT('',(0.,-5.,15.));
#588=CARTESIAN_POINT('',(0.,-5.,2.));
#589=CARTESIAN_POINT('',(0.,0.,2.));
#590=CARTESIAN_POINT('',(0.,5.,2.));
#591=CARTESIAN_POINT('',(0.,5.,15.));
#592=CARTESIAN_POINT('',(0.,5.,15.));
#593=CARTESIAN_POINT('',(0.,2.471106854306E-14,15.));
#594=CARTESIAN_POINT('',(0.,2.471106854306E-14,136.5));
#595=CARTESIAN_POINT('',(0.,2.471106854306E-14,15.));
#596=CARTESIAN_POINT('',(150.,150.,15.));
#597=CARTESIAN_POINT('',(0.,0.,2.));
#598=CARTESIAN_POINT('',(0.,2.471106854306E-14,136.5));
#599=CARTESIAN_POINT('',(0.,0.,0.));
#600=CARTESIAN_POINT('',(0.,3.,0.));
#601=CARTESIAN_POINT('',(0.,-3.,0.));
#602=CARTESIAN_POINT('',(0.,-3.,2.));
#603=CARTESIAN_POINT('',(0.,3.,2.));
#604=CARTESIAN_POINT('',(0.,0.,2.));
#605=CARTESIAN_POINT('',(0.,0.,0.));
#606=CARTESIAN_POINT('',(0.,0.,2.));
#607=CARTESIAN_POINT('',(0.,0.,0.));
#608=CARTESIAN_POINT('',(0.,4.85,15.15));
#609=CARTESIAN_POINT('',(0.,4.85,15.15));
#610=CARTESIAN_POINT('',(0.,5.,15.));
#611=CARTESIAN_POINT('',(0.,0.,15.15));
#612=CARTESIAN_POINT('',(0.,-4.85,15.15));
#613=CARTESIAN_POINT('',(0.,-4.85,15.15));
#614=CARTESIAN_POINT('',(0.,-5.,15.));
#615=CARTESIAN_POINT('',(0.,0.,15.));
#616=CARTESIAN_POINT('',(0.,0.,15.075));
#617=CARTESIAN_POINT('',(0.,0.,15.));
#618=CARTESIAN_POINT('',(-150.,150.,15.));
#619=CARTESIAN_POINT('',(0.,0.,15.15));
#620=CARTESIAN_POINT('',(0.,0.,15.075));
#621=CARTESIAN_POINT('',(0.,-4.85,18.));
#622=CARTESIAN_POINT('',(0.,-4.85,18.));
#623=CARTESIAN_POINT('',(0.,0.,18.));
#624=CARTESIAN_POINT('',(0.,4.85,18.));
#625=CARTESIAN_POINT('',(0.,4.85,18.));
#626=CARTESIAN_POINT('',(0.,2.471106854306E-14,136.5));
#627=CARTESIAN_POINT('',(0.,0.,18.));
#628=CARTESIAN_POINT('',(0.,2.471106854306E-14,136.5));
#629=CARTESIAN_POINT('',(0.,0.,80.));
#630=CARTESIAN_POINT('',(0.,-5.823973830068,80.));
#631=CARTESIAN_POINT('',(0.,5.823973830068,80.));
#632=CARTESIAN_POINT('',(0.,-5.823973830068,80.));
#633=CARTESIAN_POINT('',(0.,5.823973830068,80.));
#634=CARTESIAN_POINT('',(0.,0.,49.));
#635=CARTESIAN_POINT('',(0.,1.507809236407E-14,80.));
#636=CARTESIAN_POINT('',(0.,0.,49.));
#637=CARTESIAN_POINT('',(0.,-8.000000000001,88.12104022479));
#638=CARTESIAN_POINT('',(0.,-8.000000000002,88.12104022479));
#639=CARTESIAN_POINT('',(0.,1.507809236407E-14,88.12104022479));
#640=CARTESIAN_POINT('',(0.,8.000000000001,88.12104022479));
#641=CARTESIAN_POINT('',(0.,8.000000000001,88.12104022479));
#642=CARTESIAN_POINT('',(0.,1.507809236407E-14,84.06052011239));
#643=CARTESIAN_POINT('',(0.,1.507809236407E-14,88.12104022479));
#644=CARTESIAN_POINT('',(0.,1.507809236407E-14,84.06052011239));
#645=CARTESIAN_POINT('',(0.,2.347111365893E-14,129.5));
#646=CARTESIAN_POINT('',(0.,8.,129.5));
#647=CARTESIAN_POINT('',(0.,-8.,129.5));
#648=CARTESIAN_POINT('',(0.,-8.,129.5));
#649=CARTESIAN_POINT('',(0.,8.,129.5));
#650=CARTESIAN_POINT('',(0.,2.471106854306E-14,136.5));
#651=CARTESIAN_POINT('',(0.,2.347111365893E-14,129.5));
#652=CARTESIAN_POINT('',(0.,2.471106854306E-14,136.5));
#653=CARTESIAN_POINT('',(0.,-7.5,130.));
#654=CARTESIAN_POINT('',(0.,-7.5,130.));
#655=CARTESIAN_POINT('',(0.,2.347111365893E-14,130.));
#656=CARTESIAN_POINT('',(0.,7.5,130.));
#657=CARTESIAN_POINT('',(0.,7.5,130.));
#658=CARTESIAN_POINT('',(0.,2.347111365893E-14,129.75));
#659=CARTESIAN_POINT('',(0.,2.347111365893E-14,130.));
#660=CARTESIAN_POINT('',(0.,2.347111365893E-14,129.75));
#661=CARTESIAN_POINT('',(0.,2.351703791389E-14,130.));
#662=MECHANICAL_DESIGN_GEOMETRIC_PRESENTATION_REPRESENTATION('',(#346,#347,
#348,#349,#350,#351,#352,#353,#354,#355,#356,#357,#358,#359,#360,#361,#362,
#363),#663);
#663=(
GEOMETRIC_REPRESENTATION_CONTEXT(3)
GLOBAL_UNCERTAINTY_ASSIGNED_CONTEXT((#664))
GLOBAL_UNIT_ASSIGNED_CONTEXT((#670,#666,#665))
REPRESENTATION_CONTEXT('VFHVRBD100R20N080T09','TOP_LEVEL_ASSEMBLY_PART')
);
#664=UNCERTAINTY_MEASURE_WITH_UNIT(LENGTH_MEASURE(2.E-5),#670,
'DISTANCE_ACCURACY_VALUE','Maximum Tolerance applied to model');
#665=(
NAMED_UNIT(*)
SI_UNIT($,.STERADIAN.)
SOLID_ANGLE_UNIT()
);
#666=(
CONVERSION_BASED_UNIT('DEGREE',#668)
NAMED_UNIT(#667)
PLANE_ANGLE_UNIT()
);
#667=DIMENSIONAL_EXPONENTS(0.,0.,0.,0.,0.,0.,0.);
#668=PLANE_ANGLE_MEASURE_WITH_UNIT(PLANE_ANGLE_MEASURE(0.0174532925),#669);
#669=(
NAMED_UNIT(*)
PLANE_ANGLE_UNIT()
SI_UNIT($,.RADIAN.)
);
#670=(
LENGTH_UNIT()
NAMED_UNIT(*)
SI_UNIT(.MILLI.,.METRE.)
);
ENDSEC;
END-ISO-10303-21;
