ISO-10303-21;
HEADER;
/* Generated by software containing ST-Developer
 * from STEP Tools, Inc. (www.steptools.com) 
 */
/* OPTION: using custom schema-name function */

FILE_DESCRIPTION(
/* description */ (''),
/* implementation_level */ '2;1');

FILE_NAME(
/* name */ 'IMX20C4HV200R05020S.stp',
/* time_stamp */ '2023-10-12T14:23:59+09:00',
/* author */ (''),
/* organization */ (''),
/* preprocessor_version */ 'ST-DEVELOPER v16',
/* originating_system */ 'SIEMENS PLM Software NX 10.0',
/* authorisation */ '');

FILE_SCHEMA (('AUTOMOTIVE_DESIGN { 1 0 10303 214 3 1 1 1 }'));
ENDSEC;

DATA;
#10=CONSTRUCTIVE_GEOMETRY_REPRESENTATION_RELATIONSHIP(
'supplemental geometry','',#26,#11);
#11=CONSTRUCTIVE_GEOMETRY_REPRESENTATION('supplemental geometry',(#409,
#410,#411,#412,#413,#414,#415,#416,#417,#418),#705);
#12=GEOMETRICALLY_BOUNDED_WIREFRAME_SHAPE_REPRESENTATION(
'IMX20C4HV200R05020S-None',(#27),#705);
#13=SHAPE_REPRESENTATION_RELATIONSHIP('None',
'relationship between IMX20C4HV200R05020S-None and IMX20C4HV200R05020S
-None',#26,#15);
#14=SHAPE_REPRESENTATION_RELATIONSHIP('None',
'relationship between IMX20C4HV200R05020S-None and IMX20C4HV200R05020S
-None',#26,#12);
#15=ADVANCED_BREP_SHAPE_REPRESENTATION('IMX20C4HV200R05020S-None',(#50,
#51),#705);
#16=SHAPE_DEFINITION_REPRESENTATION(#17,#26);
#17=PRODUCT_DEFINITION_SHAPE('','SHAPE FOR IMX20C4HV200R05020S_ASM.',#18);
#18=PRODUCT_DEFINITION('part definition','',#20,#19);
#19=PRODUCT_DEFINITION_CONTEXT('part definition',#25,'design');
#20=PRODUCT_DEFINITION_FORMATION_WITH_SPECIFIED_SOURCE(' ',' ',#22,
 .NOT_KNOWN.);
#21=PRODUCT_RELATED_PRODUCT_CATEGORY('part','',(#22));
#22=PRODUCT('IMX20C4HV200R05020S_ASM','IMX20C4HV200R05020S_ASM',
'NOT SPECIFIED',(#23));
#23=PRODUCT_CONTEXT('',#25,'mechanical');
#24=APPLICATION_PROTOCOL_DEFINITION('international standard',
'automotive_design',2010,#25);
#25=APPLICATION_CONTEXT(
'core data for automotive mechanical design processes');
#26=SHAPE_REPRESENTATION('IMX20C4HV200R05020S-None',(#407),#705);
#27=GEOMETRIC_CURVE_SET('None',(#605,#333,#334,#335,#336,#337));
#28=CONICAL_SURFACE('',#453,6.825,1.909152432996);
#29=CONICAL_SURFACE('',#455,6.825,1.909152432996);
#30=CONICAL_SURFACE('',#464,4.625,45.);
#31=CONICAL_SURFACE('',#466,4.625,45.);
#32=FACE_BOUND('',#117,.T.);
#33=FACE_BOUND('',#118,.T.);
#34=FACE_BOUND('',#121,.T.);
#35=FACE_BOUND('',#122,.T.);
#36=FACE_BOUND('',#125,.T.);
#37=FACE_BOUND('',#126,.T.);
#38=SPHERICAL_SURFACE('',#437,10.);
#39=SPHERICAL_SURFACE('',#441,10.);
#40=SURFACE_STYLE_USAGE(.BOTH.,#42);
#41=SURFACE_STYLE_USAGE(.BOTH.,#43);
#42=SURFACE_SIDE_STYLE('',(#44));
#43=SURFACE_SIDE_STYLE('',(#45));
#44=SURFACE_STYLE_FILL_AREA(#46);
#45=SURFACE_STYLE_FILL_AREA(#47);
#46=FILL_AREA_STYLE('',(#48));
#47=FILL_AREA_STYLE('',(#49));
#48=FILL_AREA_STYLE_COLOUR('',#272);
#49=FILL_AREA_STYLE_COLOUR('',#273);
#50=MANIFOLD_SOLID_BREP('CUT',#52);
#51=MANIFOLD_SOLID_BREP('NOCUT',#53);
#52=CLOSED_SHELL('',(#63,#64,#65,#66,#67,#68));
#53=CLOSED_SHELL('',(#69,#70,#71,#72,#73,#74,#75,#76,#77,#78,#79,#80,#81,
#82,#83));
#54=TOROIDAL_SURFACE('',#429,9.5,0.5);
#55=TOROIDAL_SURFACE('',#431,9.5,0.5);
#56=PLANE('',#423);
#57=PLANE('',#432);
#58=PLANE('',#439);
#59=PLANE('',#444);
#60=PLANE('',#451);
#61=PLANE('',#458);
#62=PLANE('',#467);
#63=ADVANCED_FACE('',(#90),#84,.T.);
#64=ADVANCED_FACE('',(#91),#56,.F.);
#65=ADVANCED_FACE('',(#92),#85,.T.);
#66=ADVANCED_FACE('',(#93),#54,.T.);
#67=ADVANCED_FACE('',(#94),#55,.T.);
#68=ADVANCED_FACE('',(#95),#57,.T.);
#69=ADVANCED_FACE('',(#96),#38,.T.);
#70=ADVANCED_FACE('',(#97),#58,.F.);
#71=ADVANCED_FACE('',(#98),#39,.T.);
#72=ADVANCED_FACE('',(#32,#33),#59,.F.);
#73=ADVANCED_FACE('',(#99),#86,.T.);
#74=ADVANCED_FACE('',(#100),#87,.T.);
#75=ADVANCED_FACE('',(#34,#35),#60,.F.);
#76=ADVANCED_FACE('',(#101),#28,.T.);
#77=ADVANCED_FACE('',(#102),#29,.T.);
#78=ADVANCED_FACE('',(#36,#37),#61,.F.);
#79=ADVANCED_FACE('',(#103),#88,.T.);
#80=ADVANCED_FACE('',(#104),#89,.T.);
#81=ADVANCED_FACE('',(#105),#30,.T.);
#82=ADVANCED_FACE('',(#106),#31,.T.);
#83=ADVANCED_FACE('',(#107),#62,.F.);
#84=CYLINDRICAL_SURFACE('',#421,10.);
#85=CYLINDRICAL_SURFACE('',#425,10.);
#86=CYLINDRICAL_SURFACE('',#446,9.75);
#87=CYLINDRICAL_SURFACE('',#448,9.75);
#88=CYLINDRICAL_SURFACE('',#460,5.);
#89=CYLINDRICAL_SURFACE('',#462,5.);
#90=FACE_OUTER_BOUND('',#108,.T.);
#91=FACE_OUTER_BOUND('',#109,.T.);
#92=FACE_OUTER_BOUND('',#110,.T.);
#93=FACE_OUTER_BOUND('',#111,.T.);
#94=FACE_OUTER_BOUND('',#112,.T.);
#95=FACE_OUTER_BOUND('',#113,.T.);
#96=FACE_OUTER_BOUND('',#114,.T.);
#97=FACE_OUTER_BOUND('',#115,.T.);
#98=FACE_OUTER_BOUND('',#116,.T.);
#99=FACE_OUTER_BOUND('',#119,.T.);
#100=FACE_OUTER_BOUND('',#120,.T.);
#101=FACE_OUTER_BOUND('',#123,.T.);
#102=FACE_OUTER_BOUND('',#124,.T.);
#103=FACE_OUTER_BOUND('',#127,.T.);
#104=FACE_OUTER_BOUND('',#128,.T.);
#105=FACE_OUTER_BOUND('',#129,.T.);
#106=FACE_OUTER_BOUND('',#130,.T.);
#107=FACE_OUTER_BOUND('',#131,.T.);
#108=EDGE_LOOP('',(#132,#133,#134,#135));
#109=EDGE_LOOP('',(#136,#137));
#110=EDGE_LOOP('',(#138,#139,#140,#141));
#111=EDGE_LOOP('',(#142,#143,#144,#145));
#112=EDGE_LOOP('',(#146,#147,#148,#149));
#113=EDGE_LOOP('',(#150,#151));
#114=EDGE_LOOP('',(#152,#153,#154,#155));
#115=EDGE_LOOP('',(#156,#157));
#116=EDGE_LOOP('',(#158,#159,#160,#161));
#117=EDGE_LOOP('',(#162,#163));
#118=EDGE_LOOP('',(#164,#165));
#119=EDGE_LOOP('',(#166,#167,#168,#169));
#120=EDGE_LOOP('',(#170,#171,#172,#173));
#121=EDGE_LOOP('',(#174,#175));
#122=EDGE_LOOP('',(#176,#177));
#123=EDGE_LOOP('',(#178,#179,#180,#181));
#124=EDGE_LOOP('',(#182,#183,#184,#185));
#125=EDGE_LOOP('',(#186,#187));
#126=EDGE_LOOP('',(#188,#189));
#127=EDGE_LOOP('',(#190,#191,#192,#193));
#128=EDGE_LOOP('',(#194,#195,#196,#197));
#129=EDGE_LOOP('',(#198,#199,#200,#201));
#130=EDGE_LOOP('',(#202,#203,#204,#205));
#131=EDGE_LOOP('',(#206,#207));
#132=ORIENTED_EDGE('',*,*,#232,.T.);
#133=ORIENTED_EDGE('',*,*,#233,.T.);
#134=ORIENTED_EDGE('',*,*,#234,.F.);
#135=ORIENTED_EDGE('',*,*,#235,.T.);
#136=ORIENTED_EDGE('',*,*,#236,.F.);
#137=ORIENTED_EDGE('',*,*,#235,.F.);
#138=ORIENTED_EDGE('',*,*,#234,.T.);
#139=ORIENTED_EDGE('',*,*,#237,.T.);
#140=ORIENTED_EDGE('',*,*,#232,.F.);
#141=ORIENTED_EDGE('',*,*,#236,.T.);
#142=ORIENTED_EDGE('',*,*,#238,.T.);
#143=ORIENTED_EDGE('',*,*,#239,.T.);
#144=ORIENTED_EDGE('',*,*,#237,.F.);
#145=ORIENTED_EDGE('',*,*,#240,.F.);
#146=ORIENTED_EDGE('',*,*,#233,.F.);
#147=ORIENTED_EDGE('',*,*,#239,.F.);
#148=ORIENTED_EDGE('',*,*,#241,.T.);
#149=ORIENTED_EDGE('',*,*,#240,.T.);
#150=ORIENTED_EDGE('',*,*,#241,.F.);
#151=ORIENTED_EDGE('',*,*,#238,.F.);
#152=ORIENTED_EDGE('',*,*,#242,.F.);
#153=ORIENTED_EDGE('',*,*,#243,.F.);
#154=ORIENTED_EDGE('',*,*,#244,.T.);
#155=ORIENTED_EDGE('',*,*,#245,.F.);
#156=ORIENTED_EDGE('',*,*,#246,.T.);
#157=ORIENTED_EDGE('',*,*,#245,.T.);
#158=ORIENTED_EDGE('',*,*,#244,.F.);
#159=ORIENTED_EDGE('',*,*,#247,.F.);
#160=ORIENTED_EDGE('',*,*,#242,.T.);
#161=ORIENTED_EDGE('',*,*,#246,.F.);
#162=ORIENTED_EDGE('',*,*,#243,.T.);
#163=ORIENTED_EDGE('',*,*,#247,.T.);
#164=ORIENTED_EDGE('',*,*,#248,.F.);
#165=ORIENTED_EDGE('',*,*,#249,.F.);
#166=ORIENTED_EDGE('',*,*,#250,.T.);
#167=ORIENTED_EDGE('',*,*,#251,.T.);
#168=ORIENTED_EDGE('',*,*,#249,.T.);
#169=ORIENTED_EDGE('',*,*,#252,.F.);
#170=ORIENTED_EDGE('',*,*,#248,.T.);
#171=ORIENTED_EDGE('',*,*,#251,.F.);
#172=ORIENTED_EDGE('',*,*,#253,.T.);
#173=ORIENTED_EDGE('',*,*,#252,.T.);
#174=ORIENTED_EDGE('',*,*,#250,.F.);
#175=ORIENTED_EDGE('',*,*,#253,.F.);
#176=ORIENTED_EDGE('',*,*,#254,.F.);
#177=ORIENTED_EDGE('',*,*,#255,.F.);
#178=ORIENTED_EDGE('',*,*,#256,.T.);
#179=ORIENTED_EDGE('',*,*,#257,.T.);
#180=ORIENTED_EDGE('',*,*,#255,.T.);
#181=ORIENTED_EDGE('',*,*,#258,.F.);
#182=ORIENTED_EDGE('',*,*,#254,.T.);
#183=ORIENTED_EDGE('',*,*,#257,.F.);
#184=ORIENTED_EDGE('',*,*,#259,.T.);
#185=ORIENTED_EDGE('',*,*,#258,.T.);
#186=ORIENTED_EDGE('',*,*,#256,.F.);
#187=ORIENTED_EDGE('',*,*,#259,.F.);
#188=ORIENTED_EDGE('',*,*,#260,.F.);
#189=ORIENTED_EDGE('',*,*,#261,.F.);
#190=ORIENTED_EDGE('',*,*,#262,.T.);
#191=ORIENTED_EDGE('',*,*,#263,.T.);
#192=ORIENTED_EDGE('',*,*,#261,.T.);
#193=ORIENTED_EDGE('',*,*,#264,.F.);
#194=ORIENTED_EDGE('',*,*,#260,.T.);
#195=ORIENTED_EDGE('',*,*,#263,.F.);
#196=ORIENTED_EDGE('',*,*,#265,.T.);
#197=ORIENTED_EDGE('',*,*,#264,.T.);
#198=ORIENTED_EDGE('',*,*,#265,.F.);
#199=ORIENTED_EDGE('',*,*,#266,.T.);
#200=ORIENTED_EDGE('',*,*,#267,.T.);
#201=ORIENTED_EDGE('',*,*,#268,.F.);
#202=ORIENTED_EDGE('',*,*,#269,.T.);
#203=ORIENTED_EDGE('',*,*,#266,.F.);
#204=ORIENTED_EDGE('',*,*,#262,.F.);
#205=ORIENTED_EDGE('',*,*,#268,.T.);
#206=ORIENTED_EDGE('',*,*,#269,.F.);
#207=ORIENTED_EDGE('',*,*,#267,.F.);
#208=VERTEX_POINT('',#622);
#209=VERTEX_POINT('',#623);
#210=VERTEX_POINT('',#625);
#211=VERTEX_POINT('',#627);
#212=VERTEX_POINT('',#635);
#213=VERTEX_POINT('',#636);
#214=VERTEX_POINT('',#644);
#215=VERTEX_POINT('',#645);
#216=VERTEX_POINT('',#647);
#217=VERTEX_POINT('',#649);
#218=VERTEX_POINT('',#657);
#219=VERTEX_POINT('',#658);
#220=VERTEX_POINT('',#662);
#221=VERTEX_POINT('',#663);
#222=VERTEX_POINT('',#670);
#223=VERTEX_POINT('',#671);
#224=VERTEX_POINT('',#675);
#225=VERTEX_POINT('',#676);
#226=VERTEX_POINT('',#683);
#227=VERTEX_POINT('',#684);
#228=VERTEX_POINT('',#688);
#229=VERTEX_POINT('',#689);
#230=VERTEX_POINT('',#696);
#231=VERTEX_POINT('',#698);
#232=EDGE_CURVE('',#208,#209,#342,.T.);
#233=EDGE_CURVE('',#209,#210,#275,.T.);
#234=EDGE_CURVE('',#211,#210,#343,.T.);
#235=EDGE_CURVE('',#211,#208,#276,.T.);
#236=EDGE_CURVE('',#208,#211,#277,.T.);
#237=EDGE_CURVE('',#210,#209,#278,.T.);
#238=EDGE_CURVE('',#212,#213,#279,.T.);
#239=EDGE_CURVE('',#213,#209,#280,.T.);
#240=EDGE_CURVE('',#212,#210,#281,.T.);
#241=EDGE_CURVE('',#213,#212,#282,.T.);
#242=EDGE_CURVE('',#214,#215,#283,.T.);
#243=EDGE_CURVE('',#216,#214,#284,.T.);
#244=EDGE_CURVE('',#216,#217,#285,.T.);
#245=EDGE_CURVE('',#215,#217,#286,.T.);
#246=EDGE_CURVE('',#217,#215,#287,.T.);
#247=EDGE_CURVE('',#214,#216,#288,.T.);
#248=EDGE_CURVE('',#218,#219,#289,.T.);
#249=EDGE_CURVE('',#219,#218,#290,.T.);
#250=EDGE_CURVE('',#220,#221,#291,.T.);
#251=EDGE_CURVE('',#221,#219,#344,.T.);
#252=EDGE_CURVE('',#220,#218,#345,.T.);
#253=EDGE_CURVE('',#221,#220,#292,.T.);
#254=EDGE_CURVE('',#222,#223,#293,.T.);
#255=EDGE_CURVE('',#223,#222,#294,.T.);
#256=EDGE_CURVE('',#224,#225,#295,.T.);
#257=EDGE_CURVE('',#225,#223,#346,.T.);
#258=EDGE_CURVE('',#224,#222,#347,.T.);
#259=EDGE_CURVE('',#225,#224,#296,.T.);
#260=EDGE_CURVE('',#226,#227,#297,.T.);
#261=EDGE_CURVE('',#227,#226,#298,.T.);
#262=EDGE_CURVE('',#228,#229,#299,.T.);
#263=EDGE_CURVE('',#229,#227,#348,.T.);
#264=EDGE_CURVE('',#228,#226,#349,.T.);
#265=EDGE_CURVE('',#229,#228,#300,.T.);
#266=EDGE_CURVE('',#229,#230,#350,.T.);
#267=EDGE_CURVE('',#230,#231,#301,.T.);
#268=EDGE_CURVE('',#228,#231,#351,.T.);
#269=EDGE_CURVE('',#231,#230,#302,.T.);
#270=COLOUR_RGB('Strong Stone',0.576470588235294,0.54508278019379,0.392156862745098);
#271=COLOUR_RGB('Medium Umber',0.372533760585946,0.313725490196078,0.270572976272221);
#272=COLOUR_RGB('Light Gray',0.8,0.8,0.8);
#273=COLOUR_RGB('non-cutting part and shank',0.501960784313725,0.501960784313725,
0.501960784313725);
#274=CIRCLE('',#408,0.5);
#275=CIRCLE('',#419,10.);
#276=CIRCLE('',#420,10.);
#277=CIRCLE('',#422,10.);
#278=CIRCLE('',#424,10.);
#279=CIRCLE('',#426,9.5);
#280=CIRCLE('',#427,0.5);
#281=CIRCLE('',#428,0.5);
#282=CIRCLE('',#430,9.5);
#283=CIRCLE('',#433,10.);
#284=CIRCLE('',#434,9.949874371066);
#285=CIRCLE('',#435,10.);
#286=CIRCLE('',#436,10.);
#287=CIRCLE('',#438,10.);
#288=CIRCLE('',#440,9.949874371066);
#289=CIRCLE('',#442,9.75);
#290=CIRCLE('',#443,9.75);
#291=CIRCLE('',#445,9.75);
#292=CIRCLE('',#447,9.75);
#293=CIRCLE('',#449,7.);
#294=CIRCLE('',#450,7.);
#295=CIRCLE('',#452,6.65);
#296=CIRCLE('',#454,6.65);
#297=CIRCLE('',#456,5.);
#298=CIRCLE('',#457,5.);
#299=CIRCLE('',#459,5.);
#300=CIRCLE('',#461,5.);
#301=CIRCLE('',#463,4.25);
#302=CIRCLE('',#465,4.25);
#303=CURVE_STYLE('',#318,POSITIVE_LENGTH_MEASURE(0.18),#406);
#304=CURVE_STYLE('',#319,POSITIVE_LENGTH_MEASURE(0.18),#406);
#305=CURVE_STYLE('',#320,POSITIVE_LENGTH_MEASURE(0.18),#406);
#306=CURVE_STYLE('',#321,POSITIVE_LENGTH_MEASURE(0.18),#406);
#307=CURVE_STYLE('',#322,POSITIVE_LENGTH_MEASURE(0.18),#406);
#308=CURVE_STYLE('',#323,POSITIVE_LENGTH_MEASURE(0.13),#270);
#309=CURVE_STYLE('',#324,POSITIVE_LENGTH_MEASURE(0.13),#270);
#310=CURVE_STYLE('',#325,POSITIVE_LENGTH_MEASURE(0.13),#271);
#311=CURVE_STYLE('',#326,POSITIVE_LENGTH_MEASURE(0.13),#271);
#312=CURVE_STYLE('',#327,POSITIVE_LENGTH_MEASURE(0.13),#270);
#313=CURVE_STYLE('',#328,POSITIVE_LENGTH_MEASURE(0.13),#270);
#314=CURVE_STYLE('',#329,POSITIVE_LENGTH_MEASURE(0.13),#271);
#315=CURVE_STYLE('',#330,POSITIVE_LENGTH_MEASURE(0.13),#270);
#316=CURVE_STYLE('',#331,POSITIVE_LENGTH_MEASURE(0.13),#270);
#317=CURVE_STYLE('',#332,POSITIVE_LENGTH_MEASURE(0.13),#270);
#318=DRAUGHTING_PRE_DEFINED_CURVE_FONT('continuous');
#319=DRAUGHTING_PRE_DEFINED_CURVE_FONT('continuous');
#320=DRAUGHTING_PRE_DEFINED_CURVE_FONT('continuous');
#321=DRAUGHTING_PRE_DEFINED_CURVE_FONT('continuous');
#322=DRAUGHTING_PRE_DEFINED_CURVE_FONT('continuous');
#323=DRAUGHTING_PRE_DEFINED_CURVE_FONT('continuous');
#324=DRAUGHTING_PRE_DEFINED_CURVE_FONT('continuous');
#325=DRAUGHTING_PRE_DEFINED_CURVE_FONT('continuous');
#326=DRAUGHTING_PRE_DEFINED_CURVE_FONT('continuous');
#327=DRAUGHTING_PRE_DEFINED_CURVE_FONT('continuous');
#328=DRAUGHTING_PRE_DEFINED_CURVE_FONT('continuous');
#329=DRAUGHTING_PRE_DEFINED_CURVE_FONT('continuous');
#330=DRAUGHTING_PRE_DEFINED_CURVE_FONT('continuous');
#331=DRAUGHTING_PRE_DEFINED_CURVE_FONT('continuous');
#332=DRAUGHTING_PRE_DEFINED_CURVE_FONT('continuous');
#333=TRIMMED_CURVE('',#338,(PARAMETER_VALUE(0.)),(PARAMETER_VALUE(1.)),
 .T.,.PARAMETER.);
#334=TRIMMED_CURVE('',#339,(PARAMETER_VALUE(0.)),(PARAMETER_VALUE(1.)),
 .T.,.PARAMETER.);
#335=TRIMMED_CURVE('',#340,(PARAMETER_VALUE(0.)),(PARAMETER_VALUE(1.)),
 .T.,.PARAMETER.);
#336=TRIMMED_CURVE('',#341,(PARAMETER_VALUE(0.)),(PARAMETER_VALUE(1.)),
 .T.,.PARAMETER.);
#337=TRIMMED_CURVE('',#274,(PARAMETER_VALUE(0.)),(PARAMETER_VALUE(90.)),
 .T.,.PARAMETER.);
#338=LINE('',#606,#352);
#339=LINE('',#607,#353);
#340=LINE('',#608,#354);
#341=LINE('',#609,#355);
#342=LINE('',#621,#356);
#343=LINE('',#626,#357);
#344=LINE('',#664,#358);
#345=LINE('',#665,#359);
#346=LINE('',#677,#360);
#347=LINE('',#678,#361);
#348=LINE('',#690,#362);
#349=LINE('',#691,#363);
#350=LINE('',#695,#364);
#351=LINE('',#699,#365);
#352=VECTOR('',#470,9.5);
#353=VECTOR('',#471,19.5);
#354=VECTOR('',#472,10.);
#355=VECTOR('',#473,20.);
#356=VECTOR('',#496,1.);
#357=VECTOR('',#499,1.);
#358=VECTOR('',#552,1.);
#359=VECTOR('',#553,1.);
#360=VECTOR('',#568,1.);
#361=VECTOR('',#569,1.);
#362=VECTOR('',#584,1.);
#363=VECTOR('',#585,1.);
#364=VECTOR('',#592,1.);
#365=VECTOR('',#595,1.);
#366=PRESENTATION_LAYER_ASSIGNMENT('1','Layer 1',(#605,#333,#334,#335,#336,
#337,#409,#410,#413,#414,#415,#416,#417,#418,#50,#51));
#367=PRESENTATION_LAYER_ASSIGNMENT('2','Layer 2',(#411,#412));
#368=STYLED_ITEM('',(#386),#605);
#369=STYLED_ITEM('',(#387),#333);
#370=STYLED_ITEM('',(#388),#334);
#371=STYLED_ITEM('',(#389),#335);
#372=STYLED_ITEM('',(#390),#336);
#373=STYLED_ITEM('',(#391),#337);
#374=STYLED_ITEM('',(#392),#409);
#375=STYLED_ITEM('',(#393),#410);
#376=STYLED_ITEM('',(#394),#411);
#377=STYLED_ITEM('',(#395),#412);
#378=STYLED_ITEM('',(#396),#413);
#379=STYLED_ITEM('',(#397),#414);
#380=STYLED_ITEM('',(#398),#415);
#381=STYLED_ITEM('',(#399),#416);
#382=STYLED_ITEM('',(#400),#417);
#383=STYLED_ITEM('',(#401),#418);
#384=STYLED_ITEM('',(#402),#50);
#385=STYLED_ITEM('',(#403),#51);
#386=PRESENTATION_STYLE_ASSIGNMENT((#404));
#387=PRESENTATION_STYLE_ASSIGNMENT((#303));
#388=PRESENTATION_STYLE_ASSIGNMENT((#304));
#389=PRESENTATION_STYLE_ASSIGNMENT((#305));
#390=PRESENTATION_STYLE_ASSIGNMENT((#306));
#391=PRESENTATION_STYLE_ASSIGNMENT((#307));
#392=PRESENTATION_STYLE_ASSIGNMENT((#308));
#393=PRESENTATION_STYLE_ASSIGNMENT((#309));
#394=PRESENTATION_STYLE_ASSIGNMENT((#310));
#395=PRESENTATION_STYLE_ASSIGNMENT((#311));
#396=PRESENTATION_STYLE_ASSIGNMENT((#312));
#397=PRESENTATION_STYLE_ASSIGNMENT((#313));
#398=PRESENTATION_STYLE_ASSIGNMENT((#314));
#399=PRESENTATION_STYLE_ASSIGNMENT((#315));
#400=PRESENTATION_STYLE_ASSIGNMENT((#316));
#401=PRESENTATION_STYLE_ASSIGNMENT((#317));
#402=PRESENTATION_STYLE_ASSIGNMENT((#40));
#403=PRESENTATION_STYLE_ASSIGNMENT((#41));
#404=POINT_STYLE('',#405,POSITIVE_LENGTH_MEASURE(3.),#406);
#405=PRE_DEFINED_POINT_MARKER_SYMBOL('plus');
#406=DRAUGHTING_PRE_DEFINED_COLOUR('blue');
#407=AXIS2_PLACEMENT_3D('',#604,#468,#469);
#408=AXIS2_PLACEMENT_3D('',#610,#474,#475);
#409=AXIS2_PLACEMENT_3D('',#611,#476,#477);
#410=AXIS2_PLACEMENT_3D('',#612,#478,#479);
#411=AXIS2_PLACEMENT_3D('CIP',#613,#480,#481);
#412=AXIS2_PLACEMENT_3D('PCS',#614,#482,#483);
#413=AXIS2_PLACEMENT_3D('MCS',#615,#484,#485);
#414=AXIS2_PLACEMENT_3D('',#616,#486,#487);
#415=AXIS2_PLACEMENT_3D('STEP_TEMP_IMX_3_1',#617,#488,#489);
#416=AXIS2_PLACEMENT_3D('',#618,#490,#491);
#417=AXIS2_PLACEMENT_3D('',#619,#492,#493);
#418=AXIS2_PLACEMENT_3D('',#620,#494,#495);
#419=AXIS2_PLACEMENT_3D('',#624,#497,#498);
#420=AXIS2_PLACEMENT_3D('',#628,#500,#501);
#421=AXIS2_PLACEMENT_3D('',#629,#502,#503);
#422=AXIS2_PLACEMENT_3D('',#630,#504,#505);
#423=AXIS2_PLACEMENT_3D('',#631,#506,#507);
#424=AXIS2_PLACEMENT_3D('',#632,#508,#509);
#425=AXIS2_PLACEMENT_3D('',#633,#510,#511);
#426=AXIS2_PLACEMENT_3D('',#634,#512,#513);
#427=AXIS2_PLACEMENT_3D('',#637,#514,#515);
#428=AXIS2_PLACEMENT_3D('',#638,#516,#517);
#429=AXIS2_PLACEMENT_3D('',#639,#518,#519);
#430=AXIS2_PLACEMENT_3D('',#640,#520,#521);
#431=AXIS2_PLACEMENT_3D('',#641,#522,#523);
#432=AXIS2_PLACEMENT_3D('',#642,#524,#525);
#433=AXIS2_PLACEMENT_3D('',#643,#526,#527);
#434=AXIS2_PLACEMENT_3D('',#646,#528,#529);
#435=AXIS2_PLACEMENT_3D('',#648,#530,#531);
#436=AXIS2_PLACEMENT_3D('',#650,#532,#533);
#437=AXIS2_PLACEMENT_3D('',#651,#534,#535);
#438=AXIS2_PLACEMENT_3D('',#652,#536,#537);
#439=AXIS2_PLACEMENT_3D('',#653,#538,#539);
#440=AXIS2_PLACEMENT_3D('',#654,#540,#541);
#441=AXIS2_PLACEMENT_3D('',#655,#542,#543);
#442=AXIS2_PLACEMENT_3D('',#656,#544,#545);
#443=AXIS2_PLACEMENT_3D('',#659,#546,#547);
#444=AXIS2_PLACEMENT_3D('',#660,#548,#549);
#445=AXIS2_PLACEMENT_3D('',#661,#550,#551);
#446=AXIS2_PLACEMENT_3D('',#666,#554,#555);
#447=AXIS2_PLACEMENT_3D('',#667,#556,#557);
#448=AXIS2_PLACEMENT_3D('',#668,#558,#559);
#449=AXIS2_PLACEMENT_3D('',#669,#560,#561);
#450=AXIS2_PLACEMENT_3D('',#672,#562,#563);
#451=AXIS2_PLACEMENT_3D('',#673,#564,#565);
#452=AXIS2_PLACEMENT_3D('',#674,#566,#567);
#453=AXIS2_PLACEMENT_3D('',#679,#570,#571);
#454=AXIS2_PLACEMENT_3D('',#680,#572,#573);
#455=AXIS2_PLACEMENT_3D('',#681,#574,#575);
#456=AXIS2_PLACEMENT_3D('',#682,#576,#577);
#457=AXIS2_PLACEMENT_3D('',#685,#578,#579);
#458=AXIS2_PLACEMENT_3D('',#686,#580,#581);
#459=AXIS2_PLACEMENT_3D('',#687,#582,#583);
#460=AXIS2_PLACEMENT_3D('',#692,#586,#587);
#461=AXIS2_PLACEMENT_3D('',#693,#588,#589);
#462=AXIS2_PLACEMENT_3D('',#694,#590,#591);
#463=AXIS2_PLACEMENT_3D('',#697,#593,#594);
#464=AXIS2_PLACEMENT_3D('',#700,#596,#597);
#465=AXIS2_PLACEMENT_3D('',#701,#598,#599);
#466=AXIS2_PLACEMENT_3D('',#702,#600,#601);
#467=AXIS2_PLACEMENT_3D('',#703,#602,#603);
#468=DIRECTION('',(0.,0.,1.));
#469=DIRECTION('',(1.,0.,0.));
#470=DIRECTION('',(-1.,0.,0.));
#471=DIRECTION('',(0.,0.,1.));
#472=DIRECTION('',(1.,0.,0.));
#473=DIRECTION('',(0.,0.,-1.));
#474=DIRECTION('',(0.,1.,0.));
#475=DIRECTION('',(0.,0.,-1.));
#476=DIRECTION('',(0.,0.,1.));
#477=DIRECTION('',(1.,0.,0.));
#478=DIRECTION('',(0.,0.,1.));
#479=DIRECTION('',(1.,0.,0.));
#480=DIRECTION('',(0.,0.,1.));
#481=DIRECTION('',(1.,0.,0.));
#482=DIRECTION('',(0.,0.,1.));
#483=DIRECTION('',(1.,0.,0.));
#484=DIRECTION('',(0.,0.,1.));
#485=DIRECTION('',(1.,0.,0.));
#486=DIRECTION('',(0.,0.,1.));
#487=DIRECTION('',(1.,0.,0.));
#488=DIRECTION('',(0.,0.,1.));
#489=DIRECTION('',(1.,0.,0.));
#490=DIRECTION('',(0.,0.,1.));
#491=DIRECTION('',(1.,0.,0.));
#492=DIRECTION('',(0.,0.,1.));
#493=DIRECTION('',(1.,0.,0.));
#494=DIRECTION('',(0.,0.,1.));
#495=DIRECTION('',(1.,0.,0.));
#496=DIRECTION('',(0.,0.,-1.));
#497=DIRECTION('',(0.,0.,1.));
#498=DIRECTION('',(0.,-1.,0.));
#499=DIRECTION('',(0.,0.,-1.));
#500=DIRECTION('',(0.,0.,-1.));
#501=DIRECTION('',(0.,1.,0.));
#502=DIRECTION('',(0.,0.,-1.));
#503=DIRECTION('',(0.,1.,0.));
#504=DIRECTION('',(0.,0.,-1.));
#505=DIRECTION('',(0.,-1.,0.));
#506=DIRECTION('',(0.,0.,-1.));
#507=DIRECTION('',(1.,0.,0.));
#508=DIRECTION('',(0.,0.,1.));
#509=DIRECTION('',(0.,1.,0.));
#510=DIRECTION('',(0.,0.,-1.));
#511=DIRECTION('',(0.,1.,0.));
#512=DIRECTION('',(0.,0.,1.));
#513=DIRECTION('',(0.,1.,0.));
#514=DIRECTION('',(-1.,0.,0.));
#515=DIRECTION('',(0.,-1.,0.));
#516=DIRECTION('',(1.,0.,0.));
#517=DIRECTION('',(0.,1.,0.));
#518=DIRECTION('',(0.,0.,-1.));
#519=DIRECTION('',(0.,1.,0.));
#520=DIRECTION('',(0.,0.,1.));
#521=DIRECTION('',(0.,-1.,0.));
#522=DIRECTION('',(0.,0.,-1.));
#523=DIRECTION('',(0.,1.,0.));
#524=DIRECTION('',(0.,0.,-1.));
#525=DIRECTION('',(0.,1.,0.));
#526=DIRECTION('',(-1.,0.,0.));
#527=DIRECTION('',(0.,0.99498743710662,0.100000000000002));
#528=DIRECTION('',(0.,0.,1.));
#529=DIRECTION('',(0.,-1.,0.));
#530=DIRECTION('',(1.,0.,0.));
#531=DIRECTION('',(0.,-0.99498743710662,0.100000000000002));
#532=DIRECTION('',(0.,0.,-1.));
#533=DIRECTION('',(0.,1.,0.));
#534=DIRECTION('',(0.,-0.99498743710662,0.100000000000002));
#535=DIRECTION('',(0.,-0.100000000000002,-0.99498743710662));
#536=DIRECTION('',(0.,0.,-1.));
#537=DIRECTION('',(0.,-1.,0.));
#538=DIRECTION('',(0.,0.,1.));
#539=DIRECTION('',(-1.,0.,0.));
#540=DIRECTION('',(0.,0.,1.));
#541=DIRECTION('',(0.,1.,0.));
#542=DIRECTION('',(0.,-0.99498743710662,0.100000000000002));
#543=DIRECTION('',(0.,-0.100000000000002,-0.99498743710662));
#544=DIRECTION('',(0.,0.,1.));
#545=DIRECTION('',(0.,1.,0.));
#546=DIRECTION('',(0.,0.,1.));
#547=DIRECTION('',(0.,-1.,0.));
#548=DIRECTION('',(0.,0.,-1.));
#549=DIRECTION('',(0.,1.,0.));
#550=DIRECTION('',(0.,0.,-1.));
#551=DIRECTION('',(0.,1.,0.));
#552=DIRECTION('',(0.,0.,-1.));
#553=DIRECTION('',(0.,0.,-1.));
#554=DIRECTION('',(0.,0.,-1.));
#555=DIRECTION('',(0.,1.,0.));
#556=DIRECTION('',(0.,0.,-1.));
#557=DIRECTION('',(0.,-1.,0.));
#558=DIRECTION('',(0.,0.,-1.));
#559=DIRECTION('',(0.,1.,0.));
#560=DIRECTION('',(0.,0.,1.));
#561=DIRECTION('',(0.,1.,0.));
#562=DIRECTION('',(0.,0.,1.));
#563=DIRECTION('',(0.,-1.,0.));
#564=DIRECTION('',(0.,0.,-1.));
#565=DIRECTION('',(0.,1.,0.));
#566=DIRECTION('',(0.,0.,-1.));
#567=DIRECTION('',(0.,1.,0.));
#568=DIRECTION('',(0.,-0.0333148302326285,-0.999444906979155));
#569=DIRECTION('',(0.,0.0333148302326285,-0.999444906979155));
#570=DIRECTION('',(0.,0.,-1.));
#571=DIRECTION('',(0.,1.,0.));
#572=DIRECTION('',(0.,0.,-1.));
#573=DIRECTION('',(0.,-1.,0.));
#574=DIRECTION('',(0.,0.,-1.));
#575=DIRECTION('',(0.,1.,0.));
#576=DIRECTION('',(0.,0.,1.));
#577=DIRECTION('',(0.,1.,0.));
#578=DIRECTION('',(0.,0.,1.));
#579=DIRECTION('',(0.,-1.,0.));
#580=DIRECTION('',(0.,0.,-1.));
#581=DIRECTION('',(0.,1.,0.));
#582=DIRECTION('',(0.,0.,-1.));
#583=DIRECTION('',(0.,1.,0.));
#584=DIRECTION('',(0.,0.,-1.));
#585=DIRECTION('',(0.,0.,-1.));
#586=DIRECTION('',(0.,0.,-1.));
#587=DIRECTION('',(0.,1.,0.));
#588=DIRECTION('',(0.,0.,-1.));
#589=DIRECTION('',(0.,-1.,0.));
#590=DIRECTION('',(0.,0.,-1.));
#591=DIRECTION('',(0.,1.,0.));
#592=DIRECTION('',(0.,0.707106781186547,0.707106781186547));
#593=DIRECTION('',(0.,0.,-1.));
#594=DIRECTION('',(0.,-1.,0.));
#595=DIRECTION('',(0.,-0.707106781186547,0.707106781186547));
#596=DIRECTION('',(0.,0.,-1.));
#597=DIRECTION('',(0.,1.,2.7627797054253E-17));
#598=DIRECTION('',(0.,0.,-1.));
#599=DIRECTION('',(0.,1.,0.));
#600=DIRECTION('',(0.,0.,-1.));
#601=DIRECTION('',(0.,1.,2.7627797054253E-17));
#602=DIRECTION('',(0.,0.,-1.));
#603=DIRECTION('',(0.,1.,0.));
#604=CARTESIAN_POINT('',(0.,0.,0.));
#605=CARTESIAN_POINT('CRP',(-10.,0.,0.));
#606=CARTESIAN_POINT('',(0.,0.,0.));
#607=CARTESIAN_POINT('',(-10.,0.,0.5));
#608=CARTESIAN_POINT('',(-10.,0.,20.));
#609=CARTESIAN_POINT('',(0.,0.,20.));
#610=CARTESIAN_POINT('',(-9.5,0.,0.5));
#611=CARTESIAN_POINT('',(0.,0.,0.));
#612=CARTESIAN_POINT('',(0.,0.,0.));
#613=CARTESIAN_POINT('',(0.,0.,0.));
#614=CARTESIAN_POINT('',(0.,0.,30.));
#615=CARTESIAN_POINT('',(0.,0.,30.));
#616=CARTESIAN_POINT('',(0.,0.,0.));
#617=CARTESIAN_POINT('',(0.,0.,0.));
#618=CARTESIAN_POINT('',(0.,0.,0.));
#619=CARTESIAN_POINT('',(0.,0.,0.));
#620=CARTESIAN_POINT('',(0.,0.,0.));
#621=CARTESIAN_POINT('',(0.,-10.,20.));
#622=CARTESIAN_POINT('',(0.,-10.,20.));
#623=CARTESIAN_POINT('',(0.,-10.,0.5));
#624=CARTESIAN_POINT('',(0.,0.,0.5));
#625=CARTESIAN_POINT('',(0.,10.,0.5));
#626=CARTESIAN_POINT('',(0.,10.,20.));
#627=CARTESIAN_POINT('',(0.,10.,20.));
#628=CARTESIAN_POINT('',(0.,0.,20.));
#629=CARTESIAN_POINT('',(0.,0.,53.55));
#630=CARTESIAN_POINT('',(0.,0.,20.));
#631=CARTESIAN_POINT('',(150.,150.,20.));
#632=CARTESIAN_POINT('',(0.,0.,0.5));
#633=CARTESIAN_POINT('',(0.,0.,53.55));
#634=CARTESIAN_POINT('',(0.,0.,0.));
#635=CARTESIAN_POINT('',(0.,9.5,0.));
#636=CARTESIAN_POINT('',(0.,-9.5,0.));
#637=CARTESIAN_POINT('',(0.,-9.5,0.5));
#638=CARTESIAN_POINT('',(0.,9.5,0.5));
#639=CARTESIAN_POINT('',(0.,0.,0.5));
#640=CARTESIAN_POINT('',(0.,0.,0.));
#641=CARTESIAN_POINT('',(0.,0.,0.5));
#642=CARTESIAN_POINT('',(0.,0.,0.));
#643=CARTESIAN_POINT('',(0.,0.,20.));
#644=CARTESIAN_POINT('',(0.,9.949874371066,21.));
#645=CARTESIAN_POINT('',(0.,10.,20.));
#646=CARTESIAN_POINT('',(0.,0.,21.));
#647=CARTESIAN_POINT('',(0.,-9.949874371066,21.));
#648=CARTESIAN_POINT('',(0.,0.,20.));
#649=CARTESIAN_POINT('',(0.,-10.,20.));
#650=CARTESIAN_POINT('',(0.,0.,20.));
#651=CARTESIAN_POINT('',(0.,0.,20.));
#652=CARTESIAN_POINT('',(0.,0.,20.));
#653=CARTESIAN_POINT('',(-150.,150.,20.));
#654=CARTESIAN_POINT('',(0.,0.,21.));
#655=CARTESIAN_POINT('',(0.,0.,20.));
#656=CARTESIAN_POINT('',(0.,0.,21.));
#657=CARTESIAN_POINT('',(0.,9.75,21.));
#658=CARTESIAN_POINT('',(0.,-9.75,21.));
#659=CARTESIAN_POINT('',(0.,0.,21.));
#660=CARTESIAN_POINT('',(0.,0.,21.));
#661=CARTESIAN_POINT('',(0.,0.,30.));
#662=CARTESIAN_POINT('',(0.,9.75,30.));
#663=CARTESIAN_POINT('',(0.,-9.75,30.));
#664=CARTESIAN_POINT('',(0.,-9.75,30.));
#665=CARTESIAN_POINT('',(0.,9.75,30.));
#666=CARTESIAN_POINT('',(0.,0.,53.55));
#667=CARTESIAN_POINT('',(0.,0.,30.));
#668=CARTESIAN_POINT('',(0.,0.,53.55));
#669=CARTESIAN_POINT('',(0.,0.,30.));
#670=CARTESIAN_POINT('',(0.,7.,30.));
#671=CARTESIAN_POINT('',(0.,-7.,30.));
#672=CARTESIAN_POINT('',(0.,0.,30.));
#673=CARTESIAN_POINT('',(0.,0.,30.));
#674=CARTESIAN_POINT('',(0.,0.,40.5));
#675=CARTESIAN_POINT('',(0.,6.65,40.5));
#676=CARTESIAN_POINT('',(0.,-6.65,40.5));
#677=CARTESIAN_POINT('',(0.,-6.65,40.5));
#678=CARTESIAN_POINT('',(0.,6.65,40.5));
#679=CARTESIAN_POINT('',(0.,0.,35.25));
#680=CARTESIAN_POINT('',(0.,0.,40.5));
#681=CARTESIAN_POINT('',(0.,0.,35.25));
#682=CARTESIAN_POINT('',(0.,0.,40.5));
#683=CARTESIAN_POINT('',(0.,5.,40.5));
#684=CARTESIAN_POINT('',(0.,-5.,40.5));
#685=CARTESIAN_POINT('',(0.,0.,40.5));
#686=CARTESIAN_POINT('',(0.,0.,40.5));
#687=CARTESIAN_POINT('',(0.,0.,50.25));
#688=CARTESIAN_POINT('',(0.,5.,50.25));
#689=CARTESIAN_POINT('',(0.,-5.,50.25));
#690=CARTESIAN_POINT('',(0.,-5.,50.25));
#691=CARTESIAN_POINT('',(0.,5.,50.25));
#692=CARTESIAN_POINT('',(0.,0.,53.55));
#693=CARTESIAN_POINT('',(0.,0.,50.25));
#694=CARTESIAN_POINT('',(0.,0.,53.55));
#695=CARTESIAN_POINT('',(0.,-4.25,51.));
#696=CARTESIAN_POINT('',(0.,-4.25,51.));
#697=CARTESIAN_POINT('',(0.,0.,51.));
#698=CARTESIAN_POINT('',(0.,4.25,51.));
#699=CARTESIAN_POINT('',(0.,4.25,51.));
#700=CARTESIAN_POINT('',(0.,0.,50.625));
#701=CARTESIAN_POINT('',(0.,0.,51.));
#702=CARTESIAN_POINT('',(0.,0.,50.625));
#703=CARTESIAN_POINT('',(0.,0.,51.));
#704=MECHANICAL_DESIGN_GEOMETRIC_PRESENTATION_REPRESENTATION('',(#368,#369,
#370,#371,#372,#373,#374,#375,#376,#377,#378,#379,#380,#381,#382,#383,#384,
#385),#705);
#705=(
GEOMETRIC_REPRESENTATION_CONTEXT(3)
GLOBAL_UNCERTAINTY_ASSIGNED_CONTEXT((#706))
GLOBAL_UNIT_ASSIGNED_CONTEXT((#712,#708,#707))
REPRESENTATION_CONTEXT('IMX20C4HV200R05020S','TOP_LEVEL_ASSEMBLY_PART')
);
#706=UNCERTAINTY_MEASURE_WITH_UNIT(LENGTH_MEASURE(2.E-5),#712,
'DISTANCE_ACCURACY_VALUE','Maximum Tolerance applied to model');
#707=(
NAMED_UNIT(*)
SI_UNIT($,.STERADIAN.)
SOLID_ANGLE_UNIT()
);
#708=(
CONVERSION_BASED_UNIT('DEGREE',#710)
NAMED_UNIT(#709)
PLANE_ANGLE_UNIT()
);
#709=DIMENSIONAL_EXPONENTS(0.,0.,0.,0.,0.,0.,0.);
#710=PLANE_ANGLE_MEASURE_WITH_UNIT(PLANE_ANGLE_MEASURE(0.0174532925),#711);
#711=(
NAMED_UNIT(*)
PLANE_ANGLE_UNIT()
SI_UNIT($,.RADIAN.)
);
#712=(
LENGTH_UNIT()
NAMED_UNIT(*)
SI_UNIT(.MILLI.,.METRE.)
);
ENDSEC;
END-ISO-10303-21;
