ISO-10303-21;
HEADER;
/* Generated by software containing ST-Developer
 * from STEP Tools, Inc. (www.steptools.com) 
 */
/* OPTION: using custom schema-name function */

FILE_DESCRIPTION(
/* description */ (''),
/* implementation_level */ '2;1');

FILE_NAME(
/* name */ 'MVS0397X15S060.stp',
/* time_stamp */ '2020-08-20T09:25:36+09:00',
/* author */ (''),
/* organization */ (''),
/* preprocessor_version */ 'ST-DEVELOPER v16',
/* originating_system */ 'SIEMENS PLM Software NX 10.0',
/* authorisation */ '');

FILE_SCHEMA (('AUTOMOTIVE_DESIGN { 1 0 10303 214 3 1 1 1 }'));
ENDSEC;

DATA;
#10=CONSTRUCTIVE_GEOMETRY_REPRESENTATION_RELATIONSHIP(
'supplemental geometry','',#26,#11);
#11=CONSTRUCTIVE_GEOMETRY_REPRESENTATION('supplemental geometry',(#345,
#346,#347,#348,#349,#350,#351,#352,#353,#354,#355,#356,#357),#569);
#12=GEOMETRICALLY_BOUNDED_WIREFRAME_SHAPE_REPRESENTATION(
'MVS0397X15S060-None',(#27),#569);
#13=SHAPE_REPRESENTATION_RELATIONSHIP('None',
'relationship between MVS0397X15S060-None and MVS0397X15S060-None',#26,
#15);
#14=SHAPE_REPRESENTATION_RELATIONSHIP('None',
'relationship between MVS0397X15S060-None and MVS0397X15S060-None',#26,
#12);
#15=ADVANCED_BREP_SHAPE_REPRESENTATION('MVS0397X15S060-None',(#38,#39),
#569);
#16=SHAPE_DEFINITION_REPRESENTATION(#17,#26);
#17=PRODUCT_DEFINITION_SHAPE('','SHAPE FOR MVS0397X15S060_ASM.',#18);
#18=PRODUCT_DEFINITION('part definition','',#20,#19);
#19=PRODUCT_DEFINITION_CONTEXT('part definition',#25,'design');
#20=PRODUCT_DEFINITION_FORMATION_WITH_SPECIFIED_SOURCE(' ',' ',#22,
 .NOT_KNOWN.);
#21=PRODUCT_RELATED_PRODUCT_CATEGORY('part','',(#22));
#22=PRODUCT('MVS0397X15S060_ASM','MVS0397X15S060_ASM','NOT SPECIFIED',(#23));
#23=PRODUCT_CONTEXT('',#25,'mechanical');
#24=APPLICATION_PROTOCOL_DEFINITION('international standard',
'automotive_design',2010,#25);
#25=APPLICATION_CONTEXT(
'core data for automotive mechanical design processes');
#26=SHAPE_REPRESENTATION('MVS0397X15S060-None',(#344),#569);
#27=GEOMETRIC_CURVE_SET('None',(#490,#491,#492,#493,#494,#244,#245,#246,
#247));
#28=SURFACE_STYLE_USAGE(.BOTH.,#30);
#29=SURFACE_STYLE_USAGE(.BOTH.,#31);
#30=SURFACE_SIDE_STYLE('',(#32));
#31=SURFACE_SIDE_STYLE('',(#33));
#32=SURFACE_STYLE_FILL_AREA(#34);
#33=SURFACE_STYLE_FILL_AREA(#35);
#34=FILL_AREA_STYLE('',(#36));
#35=FILL_AREA_STYLE('',(#37));
#36=FILL_AREA_STYLE_COLOUR('',#342);
#37=FILL_AREA_STYLE_COLOUR('',#343);
#38=MANIFOLD_SOLID_BREP('CUT',#40);
#39=MANIFOLD_SOLID_BREP('NOCUT',#41);
#40=CLOSED_SHELL('',(#51,#52,#53,#54,#55));
#41=CLOSED_SHELL('',(#56,#57,#58,#59,#60,#61,#62,#63,#64,#65));
#42=CONICAL_SURFACE('',#365,1.026352341442,70.);
#43=CONICAL_SURFACE('',#366,1.026352341442,70.);
#44=CONICAL_SURFACE('',#375,2.49225,25.);
#45=CONICAL_SURFACE('',#377,2.49225,25.);
#46=CONICAL_SURFACE('',#383,2.7,45.);
#47=CONICAL_SURFACE('',#385,2.7,45.);
#48=PLANE('',#362);
#49=PLANE('',#371);
#50=PLANE('',#386);
#51=ADVANCED_FACE('',(#72),#66,.T.);
#52=ADVANCED_FACE('',(#73),#48,.F.);
#53=ADVANCED_FACE('',(#74),#67,.T.);
#54=ADVANCED_FACE('',(#75),#42,.T.);
#55=ADVANCED_FACE('',(#76),#43,.T.);
#56=ADVANCED_FACE('',(#77),#68,.T.);
#57=ADVANCED_FACE('',(#78),#49,.F.);
#58=ADVANCED_FACE('',(#79),#69,.T.);
#59=ADVANCED_FACE('',(#80),#44,.T.);
#60=ADVANCED_FACE('',(#81),#45,.T.);
#61=ADVANCED_FACE('',(#82),#70,.T.);
#62=ADVANCED_FACE('',(#83),#71,.T.);
#63=ADVANCED_FACE('',(#84),#46,.T.);
#64=ADVANCED_FACE('',(#85),#47,.T.);
#65=ADVANCED_FACE('',(#86),#50,.F.);
#66=CYLINDRICAL_SURFACE('',#360,1.9845);
#67=CYLINDRICAL_SURFACE('',#364,1.9845);
#68=CYLINDRICAL_SURFACE('',#369,1.9845);
#69=CYLINDRICAL_SURFACE('',#373,1.9845);
#70=CYLINDRICAL_SURFACE('',#379,3.);
#71=CYLINDRICAL_SURFACE('',#381,3.);
#72=FACE_OUTER_BOUND('',#87,.T.);
#73=FACE_OUTER_BOUND('',#88,.T.);
#74=FACE_OUTER_BOUND('',#89,.T.);
#75=FACE_OUTER_BOUND('',#90,.T.);
#76=FACE_OUTER_BOUND('',#91,.T.);
#77=FACE_OUTER_BOUND('',#92,.T.);
#78=FACE_OUTER_BOUND('',#93,.T.);
#79=FACE_OUTER_BOUND('',#94,.T.);
#80=FACE_OUTER_BOUND('',#95,.T.);
#81=FACE_OUTER_BOUND('',#96,.T.);
#82=FACE_OUTER_BOUND('',#97,.T.);
#83=FACE_OUTER_BOUND('',#98,.T.);
#84=FACE_OUTER_BOUND('',#99,.T.);
#85=FACE_OUTER_BOUND('',#100,.T.);
#86=FACE_OUTER_BOUND('',#101,.T.);
#87=EDGE_LOOP('',(#116,#117,#118,#119));
#88=EDGE_LOOP('',(#120,#121));
#89=EDGE_LOOP('',(#122,#123,#124,#125));
#90=EDGE_LOOP('',(#126,#127,#128));
#91=EDGE_LOOP('',(#129,#130,#131));
#92=EDGE_LOOP('',(#132,#133,#134,#135));
#93=EDGE_LOOP('',(#136,#137));
#94=EDGE_LOOP('',(#138,#139,#140,#141));
#95=EDGE_LOOP('',(#142,#143,#144,#145));
#96=EDGE_LOOP('',(#146,#147,#148,#149));
#97=EDGE_LOOP('',(#150,#151,#152,#153));
#98=EDGE_LOOP('',(#154,#155,#156,#157));
#99=EDGE_LOOP('',(#158,#159,#160,#161));
#100=EDGE_LOOP('',(#162,#163,#164,#165));
#101=EDGE_LOOP('',(#166,#167));
#102=CIRCLE('',#358,1.9845);
#103=CIRCLE('',#359,1.9845);
#104=CIRCLE('',#361,1.9845);
#105=CIRCLE('',#363,1.9845);
#106=CIRCLE('',#367,1.9845);
#107=CIRCLE('',#368,1.9845);
#108=CIRCLE('',#370,1.9845);
#109=CIRCLE('',#372,1.9845);
#110=CIRCLE('',#374,3.);
#111=CIRCLE('',#376,3.);
#112=CIRCLE('',#378,3.);
#113=CIRCLE('',#380,3.);
#114=CIRCLE('',#382,2.4);
#115=CIRCLE('',#384,2.4);
#116=ORIENTED_EDGE('',*,*,#183,.T.);
#117=ORIENTED_EDGE('',*,*,#184,.T.);
#118=ORIENTED_EDGE('',*,*,#185,.F.);
#119=ORIENTED_EDGE('',*,*,#186,.T.);
#120=ORIENTED_EDGE('',*,*,#187,.F.);
#121=ORIENTED_EDGE('',*,*,#186,.F.);
#122=ORIENTED_EDGE('',*,*,#185,.T.);
#123=ORIENTED_EDGE('',*,*,#188,.T.);
#124=ORIENTED_EDGE('',*,*,#183,.F.);
#125=ORIENTED_EDGE('',*,*,#187,.T.);
#126=ORIENTED_EDGE('',*,*,#189,.T.);
#127=ORIENTED_EDGE('',*,*,#188,.F.);
#128=ORIENTED_EDGE('',*,*,#190,.F.);
#129=ORIENTED_EDGE('',*,*,#184,.F.);
#130=ORIENTED_EDGE('',*,*,#189,.F.);
#131=ORIENTED_EDGE('',*,*,#190,.T.);
#132=ORIENTED_EDGE('',*,*,#191,.F.);
#133=ORIENTED_EDGE('',*,*,#192,.T.);
#134=ORIENTED_EDGE('',*,*,#193,.T.);
#135=ORIENTED_EDGE('',*,*,#194,.T.);
#136=ORIENTED_EDGE('',*,*,#195,.F.);
#137=ORIENTED_EDGE('',*,*,#194,.F.);
#138=ORIENTED_EDGE('',*,*,#193,.F.);
#139=ORIENTED_EDGE('',*,*,#196,.T.);
#140=ORIENTED_EDGE('',*,*,#191,.T.);
#141=ORIENTED_EDGE('',*,*,#195,.T.);
#142=ORIENTED_EDGE('',*,*,#196,.F.);
#143=ORIENTED_EDGE('',*,*,#197,.T.);
#144=ORIENTED_EDGE('',*,*,#198,.F.);
#145=ORIENTED_EDGE('',*,*,#199,.F.);
#146=ORIENTED_EDGE('',*,*,#200,.F.);
#147=ORIENTED_EDGE('',*,*,#197,.F.);
#148=ORIENTED_EDGE('',*,*,#192,.F.);
#149=ORIENTED_EDGE('',*,*,#199,.T.);
#150=ORIENTED_EDGE('',*,*,#201,.T.);
#151=ORIENTED_EDGE('',*,*,#202,.T.);
#152=ORIENTED_EDGE('',*,*,#200,.T.);
#153=ORIENTED_EDGE('',*,*,#203,.F.);
#154=ORIENTED_EDGE('',*,*,#198,.T.);
#155=ORIENTED_EDGE('',*,*,#202,.F.);
#156=ORIENTED_EDGE('',*,*,#204,.T.);
#157=ORIENTED_EDGE('',*,*,#203,.T.);
#158=ORIENTED_EDGE('',*,*,#204,.F.);
#159=ORIENTED_EDGE('',*,*,#205,.T.);
#160=ORIENTED_EDGE('',*,*,#206,.T.);
#161=ORIENTED_EDGE('',*,*,#207,.F.);
#162=ORIENTED_EDGE('',*,*,#208,.T.);
#163=ORIENTED_EDGE('',*,*,#205,.F.);
#164=ORIENTED_EDGE('',*,*,#201,.F.);
#165=ORIENTED_EDGE('',*,*,#207,.T.);
#166=ORIENTED_EDGE('',*,*,#208,.F.);
#167=ORIENTED_EDGE('',*,*,#206,.F.);
#168=VERTEX_POINT('',#513);
#169=VERTEX_POINT('',#514);
#170=VERTEX_POINT('',#516);
#171=VERTEX_POINT('',#518);
#172=VERTEX_POINT('',#526);
#173=VERTEX_POINT('',#531);
#174=VERTEX_POINT('',#532);
#175=VERTEX_POINT('',#534);
#176=VERTEX_POINT('',#536);
#177=VERTEX_POINT('',#544);
#178=VERTEX_POINT('',#546);
#179=VERTEX_POINT('',#552);
#180=VERTEX_POINT('',#553);
#181=VERTEX_POINT('',#560);
#182=VERTEX_POINT('',#562);
#183=EDGE_CURVE('',#168,#169,#252,.T.);
#184=EDGE_CURVE('',#169,#170,#102,.T.);
#185=EDGE_CURVE('',#171,#170,#253,.T.);
#186=EDGE_CURVE('',#171,#168,#103,.T.);
#187=EDGE_CURVE('',#168,#171,#104,.T.);
#188=EDGE_CURVE('',#170,#169,#105,.T.);
#189=EDGE_CURVE('',#172,#169,#254,.T.);
#190=EDGE_CURVE('',#172,#170,#255,.T.);
#191=EDGE_CURVE('',#173,#174,#256,.T.);
#192=EDGE_CURVE('',#173,#175,#106,.T.);
#193=EDGE_CURVE('',#175,#176,#257,.T.);
#194=EDGE_CURVE('',#176,#174,#107,.T.);
#195=EDGE_CURVE('',#174,#176,#108,.T.);
#196=EDGE_CURVE('',#175,#173,#109,.T.);
#197=EDGE_CURVE('',#175,#177,#258,.T.);
#198=EDGE_CURVE('',#178,#177,#110,.T.);
#199=EDGE_CURVE('',#173,#178,#259,.T.);
#200=EDGE_CURVE('',#177,#178,#111,.T.);
#201=EDGE_CURVE('',#179,#180,#112,.T.);
#202=EDGE_CURVE('',#180,#177,#260,.T.);
#203=EDGE_CURVE('',#179,#178,#261,.T.);
#204=EDGE_CURVE('',#180,#179,#113,.T.);
#205=EDGE_CURVE('',#180,#181,#262,.T.);
#206=EDGE_CURVE('',#181,#182,#114,.T.);
#207=EDGE_CURVE('',#179,#182,#263,.T.);
#208=EDGE_CURVE('',#182,#181,#115,.T.);
#209=CURVE_STYLE('',#227,POSITIVE_LENGTH_MEASURE(0.18),#226);
#210=CURVE_STYLE('',#228,POSITIVE_LENGTH_MEASURE(0.18),#226);
#211=CURVE_STYLE('',#229,POSITIVE_LENGTH_MEASURE(0.18),#226);
#212=CURVE_STYLE('',#230,POSITIVE_LENGTH_MEASURE(0.18),#226);
#213=CURVE_STYLE('',#231,POSITIVE_LENGTH_MEASURE(0.13),#341);
#214=CURVE_STYLE('',#232,POSITIVE_LENGTH_MEASURE(0.13),#341);
#215=CURVE_STYLE('',#233,POSITIVE_LENGTH_MEASURE(0.13),#341);
#216=CURVE_STYLE('',#234,POSITIVE_LENGTH_MEASURE(0.13),#340);
#217=CURVE_STYLE('',#235,POSITIVE_LENGTH_MEASURE(0.13),#340);
#218=CURVE_STYLE('',#236,POSITIVE_LENGTH_MEASURE(0.18),#341);
#219=CURVE_STYLE('',#237,POSITIVE_LENGTH_MEASURE(0.13),#340);
#220=CURVE_STYLE('',#238,POSITIVE_LENGTH_MEASURE(0.13),#341);
#221=CURVE_STYLE('',#239,POSITIVE_LENGTH_MEASURE(0.13),#341);
#222=CURVE_STYLE('',#240,POSITIVE_LENGTH_MEASURE(0.13),#341);
#223=CURVE_STYLE('',#241,POSITIVE_LENGTH_MEASURE(0.13),#340);
#224=CURVE_STYLE('',#242,POSITIVE_LENGTH_MEASURE(0.13),#341);
#225=CURVE_STYLE('',#243,POSITIVE_LENGTH_MEASURE(0.13),#341);
#226=DRAUGHTING_PRE_DEFINED_COLOUR('blue');
#227=DRAUGHTING_PRE_DEFINED_CURVE_FONT('continuous');
#228=DRAUGHTING_PRE_DEFINED_CURVE_FONT('continuous');
#229=DRAUGHTING_PRE_DEFINED_CURVE_FONT('continuous');
#230=DRAUGHTING_PRE_DEFINED_CURVE_FONT('continuous');
#231=DRAUGHTING_PRE_DEFINED_CURVE_FONT('continuous');
#232=DRAUGHTING_PRE_DEFINED_CURVE_FONT('continuous');
#233=DRAUGHTING_PRE_DEFINED_CURVE_FONT('continuous');
#234=DRAUGHTING_PRE_DEFINED_CURVE_FONT('continuous');
#235=DRAUGHTING_PRE_DEFINED_CURVE_FONT('continuous');
#236=DRAUGHTING_PRE_DEFINED_CURVE_FONT('continuous');
#237=DRAUGHTING_PRE_DEFINED_CURVE_FONT('continuous');
#238=DRAUGHTING_PRE_DEFINED_CURVE_FONT('continuous');
#239=DRAUGHTING_PRE_DEFINED_CURVE_FONT('continuous');
#240=DRAUGHTING_PRE_DEFINED_CURVE_FONT('continuous');
#241=DRAUGHTING_PRE_DEFINED_CURVE_FONT('continuous');
#242=DRAUGHTING_PRE_DEFINED_CURVE_FONT('continuous');
#243=DRAUGHTING_PRE_DEFINED_CURVE_FONT('continuous');
#244=TRIMMED_CURVE('',#248,(PARAMETER_VALUE(0.)),(PARAMETER_VALUE(1.)),
 .T.,.PARAMETER.);
#245=TRIMMED_CURVE('',#249,(PARAMETER_VALUE(0.)),(PARAMETER_VALUE(1.)),
 .T.,.PARAMETER.);
#246=TRIMMED_CURVE('',#250,(PARAMETER_VALUE(0.)),(PARAMETER_VALUE(1.)),
 .T.,.PARAMETER.);
#247=TRIMMED_CURVE('',#251,(PARAMETER_VALUE(0.)),(PARAMETER_VALUE(1.)),
 .T.,.PARAMETER.);
#248=LINE('',#495,#264);
#249=LINE('',#496,#265);
#250=LINE('',#497,#266);
#251=LINE('',#498,#267);
#252=LINE('',#512,#268);
#253=LINE('',#517,#269);
#254=LINE('',#525,#270);
#255=LINE('',#527,#271);
#256=LINE('',#530,#272);
#257=LINE('',#535,#273);
#258=LINE('',#543,#274);
#259=LINE('',#547,#275);
#260=LINE('',#554,#276);
#261=LINE('',#555,#277);
#262=LINE('',#559,#278);
#263=LINE('',#563,#279);
#264=VECTOR('',#389,2.11186078947801);
#265=VECTOR('',#390,59.5011010701);
#266=VECTOR('',#391,1.9845);
#267=VECTOR('',#392,60.2234);
#268=VECTOR('',#419,1.);
#269=VECTOR('',#422,1.);
#270=VECTOR('',#435,1.);
#271=VECTOR('',#436,1.);
#272=VECTOR('',#441,1.);
#273=VECTOR('',#444,1.);
#274=VECTOR('',#457,1.);
#275=VECTOR('',#460,1.);
#276=VECTOR('',#469,1.);
#277=VECTOR('',#470,1.);
#278=VECTOR('',#477,1.);
#279=VECTOR('',#480,1.);
#280=PRESENTATION_LAYER_ASSIGNMENT('2','Layer 2',(#490,#491,#348,#349));
#281=PRESENTATION_LAYER_ASSIGNMENT('1','Layer 1',(#492,#493,#494,#244,#245,
#246,#247,#345,#346,#347,#350,#351,#352,#353,#354,#355,#356,#357,#38,#39));
#282=STYLED_ITEM('',(#306),#490);
#283=STYLED_ITEM('',(#307),#491);
#284=STYLED_ITEM('',(#308),#492);
#285=STYLED_ITEM('',(#309),#493);
#286=STYLED_ITEM('',(#310),#494);
#287=STYLED_ITEM('',(#311),#244);
#288=STYLED_ITEM('',(#312),#245);
#289=STYLED_ITEM('',(#313),#246);
#290=STYLED_ITEM('',(#314),#247);
#291=STYLED_ITEM('',(#315),#345);
#292=STYLED_ITEM('',(#316),#346);
#293=STYLED_ITEM('',(#317),#347);
#294=STYLED_ITEM('',(#318),#348);
#295=STYLED_ITEM('',(#319),#349);
#296=STYLED_ITEM('',(#320),#350);
#297=STYLED_ITEM('',(#321),#351);
#298=STYLED_ITEM('',(#322),#352);
#299=STYLED_ITEM('',(#323),#353);
#300=STYLED_ITEM('',(#324),#354);
#301=STYLED_ITEM('',(#325),#355);
#302=STYLED_ITEM('',(#326),#356);
#303=STYLED_ITEM('',(#327),#357);
#304=STYLED_ITEM('',(#328),#38);
#305=STYLED_ITEM('',(#329),#39);
#306=PRESENTATION_STYLE_ASSIGNMENT((#330));
#307=PRESENTATION_STYLE_ASSIGNMENT((#331));
#308=PRESENTATION_STYLE_ASSIGNMENT((#332));
#309=PRESENTATION_STYLE_ASSIGNMENT((#333));
#310=PRESENTATION_STYLE_ASSIGNMENT((#334));
#311=PRESENTATION_STYLE_ASSIGNMENT((#209));
#312=PRESENTATION_STYLE_ASSIGNMENT((#210));
#313=PRESENTATION_STYLE_ASSIGNMENT((#211));
#314=PRESENTATION_STYLE_ASSIGNMENT((#212));
#315=PRESENTATION_STYLE_ASSIGNMENT((#213));
#316=PRESENTATION_STYLE_ASSIGNMENT((#214));
#317=PRESENTATION_STYLE_ASSIGNMENT((#215));
#318=PRESENTATION_STYLE_ASSIGNMENT((#216));
#319=PRESENTATION_STYLE_ASSIGNMENT((#217));
#320=PRESENTATION_STYLE_ASSIGNMENT((#218));
#321=PRESENTATION_STYLE_ASSIGNMENT((#219));
#322=PRESENTATION_STYLE_ASSIGNMENT((#220));
#323=PRESENTATION_STYLE_ASSIGNMENT((#221));
#324=PRESENTATION_STYLE_ASSIGNMENT((#222));
#325=PRESENTATION_STYLE_ASSIGNMENT((#223));
#326=PRESENTATION_STYLE_ASSIGNMENT((#224));
#327=PRESENTATION_STYLE_ASSIGNMENT((#225));
#328=PRESENTATION_STYLE_ASSIGNMENT((#28));
#329=PRESENTATION_STYLE_ASSIGNMENT((#29));
#330=POINT_STYLE('',#335,POSITIVE_LENGTH_MEASURE(3.),#340);
#331=POINT_STYLE('',#336,POSITIVE_LENGTH_MEASURE(3.),#340);
#332=POINT_STYLE('',#337,POSITIVE_LENGTH_MEASURE(3.),#341);
#333=POINT_STYLE('',#338,POSITIVE_LENGTH_MEASURE(3.),#340);
#334=POINT_STYLE('',#339,POSITIVE_LENGTH_MEASURE(3.),#340);
#335=PRE_DEFINED_POINT_MARKER_SYMBOL('plus');
#336=PRE_DEFINED_POINT_MARKER_SYMBOL('plus');
#337=PRE_DEFINED_POINT_MARKER_SYMBOL('plus');
#338=PRE_DEFINED_POINT_MARKER_SYMBOL('plus');
#339=PRE_DEFINED_POINT_MARKER_SYMBOL('plus');
#340=COLOUR_RGB('Medium Umber',0.372533760585946,0.313725490196078,0.270572976272221);
#341=COLOUR_RGB('Strong Stone',0.576470588235294,0.54508278019379,0.392156862745098);
#342=COLOUR_RGB('Light Gray',0.8,0.8,0.8);
#343=COLOUR_RGB('Medium Gray',0.490196078431373,0.490196078431373,0.490196078431373);
#344=AXIS2_PLACEMENT_3D('',#489,#387,#388);
#345=AXIS2_PLACEMENT_3D('',#499,#393,#394);
#346=AXIS2_PLACEMENT_3D('',#500,#395,#396);
#347=AXIS2_PLACEMENT_3D('',#501,#397,#398);
#348=AXIS2_PLACEMENT_3D('CIP',#502,#399,#400);
#349=AXIS2_PLACEMENT_3D('PCS',#503,#401,#402);
#350=AXIS2_PLACEMENT_3D('MCS',#504,#403,#404);
#351=AXIS2_PLACEMENT_3D('STEP_TEMP_1_INCH_1',#505,#405,#406);
#352=AXIS2_PLACEMENT_3D('',#506,#407,#408);
#353=AXIS2_PLACEMENT_3D('',#507,#409,#410);
#354=AXIS2_PLACEMENT_3D('',#508,#411,#412);
#355=AXIS2_PLACEMENT_3D('STEP_TEMP_1_INCH_2',#509,#413,#414);
#356=AXIS2_PLACEMENT_3D('',#510,#415,#416);
#357=AXIS2_PLACEMENT_3D('',#511,#417,#418);
#358=AXIS2_PLACEMENT_3D('',#515,#420,#421);
#359=AXIS2_PLACEMENT_3D('',#519,#423,#424);
#360=AXIS2_PLACEMENT_3D('',#520,#425,#426);
#361=AXIS2_PLACEMENT_3D('',#521,#427,#428);
#362=AXIS2_PLACEMENT_3D('',#522,#429,#430);
#363=AXIS2_PLACEMENT_3D('',#523,#431,#432);
#364=AXIS2_PLACEMENT_3D('',#524,#433,#434);
#365=AXIS2_PLACEMENT_3D('',#528,#437,#438);
#366=AXIS2_PLACEMENT_3D('',#529,#439,#440);
#367=AXIS2_PLACEMENT_3D('',#533,#442,#443);
#368=AXIS2_PLACEMENT_3D('',#537,#445,#446);
#369=AXIS2_PLACEMENT_3D('',#538,#447,#448);
#370=AXIS2_PLACEMENT_3D('',#539,#449,#450);
#371=AXIS2_PLACEMENT_3D('',#540,#451,#452);
#372=AXIS2_PLACEMENT_3D('',#541,#453,#454);
#373=AXIS2_PLACEMENT_3D('',#542,#455,#456);
#374=AXIS2_PLACEMENT_3D('',#545,#458,#459);
#375=AXIS2_PLACEMENT_3D('',#548,#461,#462);
#376=AXIS2_PLACEMENT_3D('',#549,#463,#464);
#377=AXIS2_PLACEMENT_3D('',#550,#465,#466);
#378=AXIS2_PLACEMENT_3D('',#551,#467,#468);
#379=AXIS2_PLACEMENT_3D('',#556,#471,#472);
#380=AXIS2_PLACEMENT_3D('',#557,#473,#474);
#381=AXIS2_PLACEMENT_3D('',#558,#475,#476);
#382=AXIS2_PLACEMENT_3D('',#561,#478,#479);
#383=AXIS2_PLACEMENT_3D('',#564,#481,#482);
#384=AXIS2_PLACEMENT_3D('',#565,#483,#484);
#385=AXIS2_PLACEMENT_3D('',#566,#485,#486);
#386=AXIS2_PLACEMENT_3D('',#567,#487,#488);
#387=DIRECTION('',(0.,0.,1.));
#388=DIRECTION('',(1.,0.,0.));
#389=DIRECTION('',(-0.939692620785897,0.,0.342020143325699));
#390=DIRECTION('',(0.,0.,1.));
#391=DIRECTION('',(1.,0.,0.));
#392=DIRECTION('',(0.,0.,-1.));
#393=DIRECTION('',(0.,0.,1.));
#394=DIRECTION('',(1.,0.,0.));
#395=DIRECTION('',(0.,0.,1.));
#396=DIRECTION('',(1.,0.,0.));
#397=DIRECTION('',(0.,0.,1.));
#398=DIRECTION('',(1.,0.,0.));
#399=DIRECTION('',(0.,0.,1.));
#400=DIRECTION('',(1.,0.,0.));
#401=DIRECTION('',(0.,0.,1.));
#402=DIRECTION('',(1.,0.,0.));
#403=DIRECTION('',(0.,0.,1.));
#404=DIRECTION('',(1.,0.,0.));
#405=DIRECTION('',(0.,0.,1.));
#406=DIRECTION('',(1.,0.,0.));
#407=DIRECTION('',(0.,0.,1.));
#408=DIRECTION('',(1.,0.,0.));
#409=DIRECTION('',(0.,0.,1.));
#410=DIRECTION('',(1.,0.,0.));
#411=DIRECTION('',(0.,0.,1.));
#412=DIRECTION('',(1.,0.,0.));
#413=DIRECTION('',(0.,0.,1.));
#414=DIRECTION('',(1.,0.,0.));
#415=DIRECTION('',(0.,0.,1.));
#416=DIRECTION('',(1.,0.,0.));
#417=DIRECTION('',(0.,0.,1.));
#418=DIRECTION('',(1.,0.,0.));
#419=DIRECTION('',(0.,0.,-1.));
#420=DIRECTION('',(0.,0.,1.));
#421=DIRECTION('',(0.,-1.,0.));
#422=DIRECTION('',(0.,0.,-1.));
#423=DIRECTION('',(0.,0.,-1.));
#424=DIRECTION('',(0.,1.,0.));
#425=DIRECTION('',(0.,0.,-1.));
#426=DIRECTION('',(0.,1.,0.));
#427=DIRECTION('',(0.,0.,-1.));
#428=DIRECTION('',(0.,-1.,0.));
#429=DIRECTION('',(0.,0.,-1.));
#430=DIRECTION('',(1.,0.,0.));
#431=DIRECTION('',(0.,0.,1.));
#432=DIRECTION('',(0.,1.,0.));
#433=DIRECTION('',(0.,0.,-1.));
#434=DIRECTION('',(0.,1.,0.));
#435=DIRECTION('',(0.,-0.939692620785897,0.342020143325699));
#436=DIRECTION('',(0.,0.939692620785897,0.342020143325699));
#437=DIRECTION('',(0.,0.,1.));
#438=DIRECTION('',(0.,-1.,3.6902664743203E-17));
#439=DIRECTION('',(0.,0.,1.));
#440=DIRECTION('',(0.,-1.,3.6902664743203E-17));
#441=DIRECTION('',(0.,1.582236490179E-14,-1.));
#442=DIRECTION('',(0.,0.,-1.));
#443=DIRECTION('',(0.,1.,0.));
#444=DIRECTION('',(0.,-1.642321420186E-14,-1.));
#445=DIRECTION('',(0.,0.,1.));
#446=DIRECTION('',(0.,-1.,0.));
#447=DIRECTION('',(0.,0.,-1.));
#448=DIRECTION('',(0.,1.,0.));
#449=DIRECTION('',(0.,0.,1.));
#450=DIRECTION('',(0.,1.,0.));
#451=DIRECTION('',(0.,0.,1.));
#452=DIRECTION('',(-1.,0.,0.));
#453=DIRECTION('',(0.,0.,-1.));
#454=DIRECTION('',(0.,-1.,0.));
#455=DIRECTION('',(0.,0.,-1.));
#456=DIRECTION('',(0.,1.,0.));
#457=DIRECTION('',(0.,-0.422618261740516,0.906307787036735));
#458=DIRECTION('',(0.,0.,1.));
#459=DIRECTION('',(0.,1.,0.));
#460=DIRECTION('',(0.,0.422618261740516,0.906307787036735));
#461=DIRECTION('',(0.,0.,1.));
#462=DIRECTION('',(0.,-1.,-1.77616772952431E-16));
#463=DIRECTION('',(0.,0.,1.));
#464=DIRECTION('',(0.,-1.,0.));
#465=DIRECTION('',(0.,0.,1.));
#466=DIRECTION('',(0.,-1.,-1.77616772952431E-16));
#467=DIRECTION('',(0.,0.,-1.));
#468=DIRECTION('',(0.,1.,0.));
#469=DIRECTION('',(0.,0.,-1.));
#470=DIRECTION('',(0.,0.,-1.));
#471=DIRECTION('',(0.,0.,-1.));
#472=DIRECTION('',(0.,1.,0.));
#473=DIRECTION('',(0.,0.,-1.));
#474=DIRECTION('',(0.,-1.,0.));
#475=DIRECTION('',(0.,0.,-1.));
#476=DIRECTION('',(0.,1.,0.));
#477=DIRECTION('',(0.,0.707106781186498,0.707106781186598));
#478=DIRECTION('',(0.,0.,-1.));
#479=DIRECTION('',(0.,-1.,0.));
#480=DIRECTION('',(0.,-0.707106781186498,0.707106781186598));
#481=DIRECTION('',(0.,0.,-1.));
#482=DIRECTION('',(0.,1.,-2.7680837354771E-17));
#483=DIRECTION('',(0.,0.,-1.));
#484=DIRECTION('',(0.,1.,0.));
#485=DIRECTION('',(0.,0.,-1.));
#486=DIRECTION('',(0.,1.,-2.7680837354771E-17));
#487=DIRECTION('',(0.,0.,-1.));
#488=DIRECTION('',(0.,1.,0.));
#489=CARTESIAN_POINT('',(0.,0.,0.));
#490=CARTESIAN_POINT('',(0.,0.,0.));
#491=CARTESIAN_POINT('',(0.,0.,123.7222989299));
#492=CARTESIAN_POINT('',(0.,0.,79.92229893));
#493=CARTESIAN_POINT('',(0.,0.,0.));
#494=CARTESIAN_POINT('',(0.,0.,0.));
#495=CARTESIAN_POINT('',(0.,0.,0.));
#496=CARTESIAN_POINT('',(-1.9845,0.,0.7222989299013));
#497=CARTESIAN_POINT('',(-1.9845,0.,60.2234));
#498=CARTESIAN_POINT('',(0.,0.,60.2234));
#499=CARTESIAN_POINT('',(0.,0.,0.));
#500=CARTESIAN_POINT('',(0.,0.,0.));
#501=CARTESIAN_POINT('',(0.,0.,0.));
#502=CARTESIAN_POINT('',(0.,0.,0.));
#503=CARTESIAN_POINT('',(0.,0.,123.7222989299));
#504=CARTESIAN_POINT('',(0.,0.,79.92229893));
#505=CARTESIAN_POINT('',(0.,0.,0.));
#506=CARTESIAN_POINT('',(0.,0.,0.));
#507=CARTESIAN_POINT('',(0.,0.,0.));
#508=CARTESIAN_POINT('',(0.,0.,0.));
#509=CARTESIAN_POINT('',(0.,0.,0.));
#510=CARTESIAN_POINT('',(0.,0.,0.));
#511=CARTESIAN_POINT('',(0.,0.,0.));
#512=CARTESIAN_POINT('',(0.,-1.9845,60.2234));
#513=CARTESIAN_POINT('',(0.,-1.9845,60.2234));
#514=CARTESIAN_POINT('',(0.,-1.9845,0.7222989299013));
#515=CARTESIAN_POINT('',(0.,-2.265336750534E-14,0.7222989299013));
#516=CARTESIAN_POINT('',(0.,1.9845,0.7222989299014));
#517=CARTESIAN_POINT('',(0.,1.9845,60.2234));
#518=CARTESIAN_POINT('',(0.,1.9845,60.2234));
#519=CARTESIAN_POINT('',(0.,0.,60.2234));
#520=CARTESIAN_POINT('',(0.,0.,129.9084138764));
#521=CARTESIAN_POINT('',(0.,0.,60.2234));
#522=CARTESIAN_POINT('',(150.,150.,60.2234));
#523=CARTESIAN_POINT('',(0.,-2.265336750534E-14,0.7222989299013));
#524=CARTESIAN_POINT('',(0.,0.,129.9084138764));
#525=CARTESIAN_POINT('',(0.,-1.9845,0.7222989299014));
#526=CARTESIAN_POINT('',(0.,-2.264854970235E-14,4.773959005888E-14));
#527=CARTESIAN_POINT('',(0.,1.9845,0.7222989299014));
#528=CARTESIAN_POINT('',(0.,-2.265336750534E-14,0.3735617021542));
#529=CARTESIAN_POINT('',(0.,-2.265336750534E-14,0.3735617021542));
#530=CARTESIAN_POINT('',(0.,1.9845,75.74455215212));
#531=CARTESIAN_POINT('',(0.,1.9845,75.74455215212));
#532=CARTESIAN_POINT('',(0.,1.9845,60.2234));
#533=CARTESIAN_POINT('',(0.,0.,75.74455215212));
#534=CARTESIAN_POINT('',(0.,-1.9845,75.74455215212));
#535=CARTESIAN_POINT('',(0.,-1.9845,75.74455215212));
#536=CARTESIAN_POINT('',(0.,-1.9845,60.2234));
#537=CARTESIAN_POINT('',(0.,0.,60.2234));
#538=CARTESIAN_POINT('',(0.,0.,129.9084138764));
#539=CARTESIAN_POINT('',(0.,0.,60.2234));
#540=CARTESIAN_POINT('',(-150.,150.,60.2234));
#541=CARTESIAN_POINT('',(0.,0.,75.74455215212));
#542=CARTESIAN_POINT('',(0.,0.,129.9084138764));
#543=CARTESIAN_POINT('',(0.,-3.,77.9222989299));
#544=CARTESIAN_POINT('',(0.,-3.,77.9222989299));
#545=CARTESIAN_POINT('',(0.,0.,77.9222989299));
#546=CARTESIAN_POINT('',(0.,3.,77.9222989299));
#547=CARTESIAN_POINT('',(0.,3.,77.9222989299));
#548=CARTESIAN_POINT('',(0.,0.,76.83342554101));
#549=CARTESIAN_POINT('',(0.,0.,77.9222989299));
#550=CARTESIAN_POINT('',(0.,0.,76.83342554101));
#551=CARTESIAN_POINT('',(0.,0.,123.1222989299));
#552=CARTESIAN_POINT('',(0.,3.,123.1222989299));
#553=CARTESIAN_POINT('',(0.,-3.,123.1222989299));
#554=CARTESIAN_POINT('',(0.,-3.,123.1222989299));
#555=CARTESIAN_POINT('',(0.,3.,123.1222989299));
#556=CARTESIAN_POINT('',(0.,0.,129.9084138764));
#557=CARTESIAN_POINT('',(0.,0.,123.1222989299));
#558=CARTESIAN_POINT('',(0.,0.,129.9084138764));
#559=CARTESIAN_POINT('',(0.,-2.4,123.7222989299));
#560=CARTESIAN_POINT('',(0.,-2.4,123.7222989299));
#561=CARTESIAN_POINT('',(0.,0.,123.7222989299));
#562=CARTESIAN_POINT('',(0.,2.4,123.7222989299));
#563=CARTESIAN_POINT('',(0.,2.4,123.7222989299));
#564=CARTESIAN_POINT('',(0.,0.,123.4222989299));
#565=CARTESIAN_POINT('',(0.,0.,123.7222989299));
#566=CARTESIAN_POINT('',(0.,0.,123.4222989299));
#567=CARTESIAN_POINT('',(0.,0.,123.7222989299));
#568=MECHANICAL_DESIGN_GEOMETRIC_PRESENTATION_REPRESENTATION('',(#282,#283,
#284,#285,#286,#287,#288,#289,#290,#291,#292,#293,#294,#295,#296,#297,#298,
#299,#300,#301,#302,#303,#304,#305),#569);
#569=(
GEOMETRIC_REPRESENTATION_CONTEXT(3)
GLOBAL_UNCERTAINTY_ASSIGNED_CONTEXT((#570))
GLOBAL_UNIT_ASSIGNED_CONTEXT((#576,#572,#571))
REPRESENTATION_CONTEXT('MVS0397X15S060','TOP_LEVEL_ASSEMBLY_PART')
);
#570=UNCERTAINTY_MEASURE_WITH_UNIT(LENGTH_MEASURE(2.E-5),#576,
'DISTANCE_ACCURACY_VALUE','Maximum Tolerance applied to model');
#571=(
NAMED_UNIT(*)
SI_UNIT($,.STERADIAN.)
SOLID_ANGLE_UNIT()
);
#572=(
CONVERSION_BASED_UNIT('DEGREE',#574)
NAMED_UNIT(#573)
PLANE_ANGLE_UNIT()
);
#573=DIMENSIONAL_EXPONENTS(0.,0.,0.,0.,0.,0.,0.);
#574=PLANE_ANGLE_MEASURE_WITH_UNIT(PLANE_ANGLE_MEASURE(0.0174532925),#575);
#575=(
NAMED_UNIT(*)
PLANE_ANGLE_UNIT()
SI_UNIT($,.RADIAN.)
);
#576=(
LENGTH_UNIT()
NAMED_UNIT(*)
SI_UNIT(.MILLI.,.METRE.)
);
ENDSEC;
END-ISO-10303-21;
