ISO-10303-21;
HEADER;
/* Generated by software containing ST-Developer
 * from STEP Tools, Inc. (www.steptools.com) 
 */
/* OPTION: using custom schema-name function */

FILE_DESCRIPTION(
/* description */ (''),
/* implementation_level */ '2;1');

FILE_NAME(
/* name */ 'STAWSN0028_ID0_4375.stp',
/* time_stamp */ '2025-06-11T16:54:51+09:00',
/* author */ (''),
/* organization */ (''),
/* preprocessor_version */ 'ST-DEVELOPER v18.101',
/* originating_system */ 'SIEMENS PLM Software NX 2011',
/* authorisation */ '');

FILE_SCHEMA (('AUTOMOTIVE_DESIGN { 1 0 10303 214 3 1 1 1 }'));
ENDSEC;

DATA;
#10=CONSTRUCTIVE_GEOMETRY_REPRESENTATION_RELATIONSHIP(
'supplemental geometry','',#26,#11);
#11=CONSTRUCTIVE_GEOMETRY_REPRESENTATION('supplemental geometry',(#393,
#394,#395,#396,#397,#398,#399),#667);
#12=GEOMETRICALLY_BOUNDED_WIREFRAME_SHAPE_REPRESENTATION(
'STAWSN0028_ID0_4375-None',(#27),#667);
#13=SHAPE_REPRESENTATION_RELATIONSHIP('None',
'relationship between STAWSN0028_ID0_4375-None and STAWSN0028_ID0_4375
-None',#26,#15);
#14=SHAPE_REPRESENTATION_RELATIONSHIP('None',
'relationship between STAWSN0028_ID0_4375-None and STAWSN0028_ID0_4375
-None',#26,#12);
#15=ADVANCED_BREP_SHAPE_REPRESENTATION('STAWSN0028_ID0_4375-None',(#42,
#43),#667);
#16=SHAPE_DEFINITION_REPRESENTATION(#17,#26);
#17=PRODUCT_DEFINITION_SHAPE('','SHAPE FOR STAWSN0028_ID0_4375_ASM.',#18);
#18=PRODUCT_DEFINITION('part definition','',#20,#19);
#19=PRODUCT_DEFINITION_CONTEXT('part definition',#25,'design');
#20=PRODUCT_DEFINITION_FORMATION_WITH_SPECIFIED_SOURCE(' ',' ',#22,
 .NOT_KNOWN.);
#21=PRODUCT_RELATED_PRODUCT_CATEGORY('part','',(#22));
#22=PRODUCT('STAWSN0028_ID0_4375_ASM','STAWSN0028_ID0_4375_ASM',
'NOT SPECIFIED',(#23));
#23=PRODUCT_CONTEXT('',#25,'mechanical');
#24=APPLICATION_PROTOCOL_DEFINITION('international standard',
'automotive_design',2010,#25);
#25=APPLICATION_CONTEXT(
'core data for automotive mechanical design processes');
#26=SHAPE_REPRESENTATION('STAWSN0028_ID0_4375-None',(#392),#667);
#27=GEOMETRIC_CURVE_SET('None',(#570,#313,#314,#315,#316));
#28=TOROIDAL_SURFACE('',#423,8.082335957492,0.4);
#29=TOROIDAL_SURFACE('',#425,8.08233595748,0.4);
#30=TOROIDAL_SURFACE('',#433,5.7,0.4);
#31=TOROIDAL_SURFACE('',#435,5.7,0.4);
#32=SURFACE_STYLE_USAGE(.BOTH.,#34);
#33=SURFACE_STYLE_USAGE(.BOTH.,#35);
#34=SURFACE_SIDE_STYLE('',(#36));
#35=SURFACE_SIDE_STYLE('',(#37));
#36=SURFACE_STYLE_FILL_AREA(#38);
#37=SURFACE_STYLE_FILL_AREA(#39);
#38=FILL_AREA_STYLE('',(#40));
#39=FILL_AREA_STYLE('',(#41));
#40=FILL_AREA_STYLE_COLOUR('',#390);
#41=FILL_AREA_STYLE_COLOUR('',#391);
#42=MANIFOLD_SOLID_BREP('CUT',#44);
#43=MANIFOLD_SOLID_BREP('NOCUT',#45);
#44=CLOSED_SHELL('',(#55,#56,#57,#58,#59));
#45=CLOSED_SHELL('',(#60,#61,#62,#63,#64,#65,#66,#67,#68,#69,#70,#71,#72,
#73));
#46=PLANE('',#408);
#47=PLANE('',#414);
#48=PLANE('',#440);
#49=CYLINDRICAL_SURFACE('',#405,5.55625);
#50=CYLINDRICAL_SURFACE('',#407,5.55625);
#51=CYLINDRICAL_SURFACE('',#411,7.9375);
#52=CYLINDRICAL_SURFACE('',#419,7.9375);
#53=CYLINDRICAL_SURFACE('',#443,5.3);
#54=CYLINDRICAL_SURFACE('',#444,5.3);
#55=ADVANCED_FACE('',(#80),#74,.T.);
#56=ADVANCED_FACE('',(#81),#75,.T.);
#57=ADVANCED_FACE('',(#82),#49,.T.);
#58=ADVANCED_FACE('',(#83),#50,.T.);
#59=ADVANCED_FACE('',(#84),#46,.T.);
#60=ADVANCED_FACE('',(#85),#51,.T.);
#61=ADVANCED_FACE('',(#86),#47,.T.);
#62=ADVANCED_FACE('',(#87),#76,.T.);
#63=ADVANCED_FACE('',(#88),#77,.T.);
#64=ADVANCED_FACE('',(#89),#52,.T.);
#65=ADVANCED_FACE('',(#90),#28,.F.);
#66=ADVANCED_FACE('',(#91),#29,.F.);
#67=ADVANCED_FACE('',(#92),#78,.T.);
#68=ADVANCED_FACE('',(#93),#79,.T.);
#69=ADVANCED_FACE('',(#94),#30,.F.);
#70=ADVANCED_FACE('',(#95),#31,.F.);
#71=ADVANCED_FACE('',(#96),#48,.F.);
#72=ADVANCED_FACE('',(#97),#53,.T.);
#73=ADVANCED_FACE('',(#98),#54,.T.);
#74=CONICAL_SURFACE('',#401,2.8336875,70.0000971436908);
#75=CONICAL_SURFACE('',#403,2.8336875,70.0000971436908);
#76=CONICAL_SURFACE('',#415,7.36014973081,30.0000416330103);
#77=CONICAL_SURFACE('',#417,7.36014973081,30.0000416330103);
#78=CONICAL_SURFACE('',#427,6.601195390102,11.5000159593206);
#79=CONICAL_SURFACE('',#429,6.601195390118,11.5000159593206);
#80=FACE_OUTER_BOUND('',#99,.T.);
#81=FACE_OUTER_BOUND('',#100,.T.);
#82=FACE_OUTER_BOUND('',#101,.T.);
#83=FACE_OUTER_BOUND('',#102,.T.);
#84=FACE_OUTER_BOUND('',#103,.T.);
#85=FACE_OUTER_BOUND('',#104,.T.);
#86=FACE_OUTER_BOUND('',#105,.T.);
#87=FACE_OUTER_BOUND('',#106,.T.);
#88=FACE_OUTER_BOUND('',#107,.T.);
#89=FACE_OUTER_BOUND('',#108,.T.);
#90=FACE_OUTER_BOUND('',#109,.T.);
#91=FACE_OUTER_BOUND('',#110,.T.);
#92=FACE_OUTER_BOUND('',#111,.T.);
#93=FACE_OUTER_BOUND('',#112,.T.);
#94=FACE_OUTER_BOUND('',#113,.T.);
#95=FACE_OUTER_BOUND('',#114,.T.);
#96=FACE_OUTER_BOUND('',#115,.T.);
#97=FACE_OUTER_BOUND('',#116,.T.);
#98=FACE_OUTER_BOUND('',#117,.T.);
#99=EDGE_LOOP('',(#144,#145,#146));
#100=EDGE_LOOP('',(#147,#148,#149));
#101=EDGE_LOOP('',(#150,#151,#152,#153));
#102=EDGE_LOOP('',(#154,#155,#156,#157));
#103=EDGE_LOOP('',(#158,#159));
#104=EDGE_LOOP('',(#160,#161,#162,#163));
#105=EDGE_LOOP('',(#164,#165));
#106=EDGE_LOOP('',(#166,#167,#168,#169));
#107=EDGE_LOOP('',(#170,#171,#172,#173));
#108=EDGE_LOOP('',(#174,#175,#176,#177));
#109=EDGE_LOOP('',(#178,#179,#180,#181));
#110=EDGE_LOOP('',(#182,#183,#184,#185));
#111=EDGE_LOOP('',(#186,#187,#188,#189));
#112=EDGE_LOOP('',(#190,#191,#192,#193));
#113=EDGE_LOOP('',(#194,#195,#196,#197));
#114=EDGE_LOOP('',(#198,#199,#200,#201));
#115=EDGE_LOOP('',(#202,#203,#204,#205));
#116=EDGE_LOOP('',(#206,#207,#208,#209,#210,#211,#212,#213,#214));
#117=EDGE_LOOP('',(#215,#216,#217,#218,#219,#220,#221,#222,#223));
#118=CIRCLE('',#400,5.55625);
#119=CIRCLE('',#402,5.55625);
#120=CIRCLE('',#404,5.55625);
#121=CIRCLE('',#406,5.55625);
#122=CIRCLE('',#409,7.937500000005);
#123=CIRCLE('',#410,7.9375);
#124=CIRCLE('',#412,6.782799461621);
#125=CIRCLE('',#413,6.782799461621);
#126=CIRCLE('',#416,7.9375);
#127=CIRCLE('',#418,7.937499999997);
#128=CIRCLE('',#420,0.4);
#129=CIRCLE('',#421,0.4);
#130=CIRCLE('',#422,7.690366075642);
#131=CIRCLE('',#424,7.690366075632);
#132=CIRCLE('',#426,5.512024704573);
#133=CIRCLE('',#428,5.512024704592);
#134=CIRCLE('',#430,0.4);
#135=CIRCLE('',#431,0.4);
#136=CIRCLE('',#432,5.3);
#137=CIRCLE('',#434,5.3);
#138=CIRCLE('',#436,5.3);
#139=CIRCLE('',#437,5.3);
#140=CIRCLE('',#438,5.3);
#141=CIRCLE('',#439,5.3);
#142=CIRCLE('',#441,5.3);
#143=CIRCLE('',#442,5.3);
#144=ORIENTED_EDGE('',*,*,#249,.F.);
#145=ORIENTED_EDGE('',*,*,#250,.T.);
#146=ORIENTED_EDGE('',*,*,#251,.T.);
#147=ORIENTED_EDGE('',*,*,#252,.T.);
#148=ORIENTED_EDGE('',*,*,#250,.F.);
#149=ORIENTED_EDGE('',*,*,#249,.T.);
#150=ORIENTED_EDGE('',*,*,#252,.F.);
#151=ORIENTED_EDGE('',*,*,#253,.F.);
#152=ORIENTED_EDGE('',*,*,#254,.F.);
#153=ORIENTED_EDGE('',*,*,#255,.T.);
#154=ORIENTED_EDGE('',*,*,#251,.F.);
#155=ORIENTED_EDGE('',*,*,#255,.F.);
#156=ORIENTED_EDGE('',*,*,#256,.F.);
#157=ORIENTED_EDGE('',*,*,#253,.T.);
#158=ORIENTED_EDGE('',*,*,#254,.T.);
#159=ORIENTED_EDGE('',*,*,#256,.T.);
#160=ORIENTED_EDGE('',*,*,#257,.T.);
#161=ORIENTED_EDGE('',*,*,#258,.F.);
#162=ORIENTED_EDGE('',*,*,#259,.F.);
#163=ORIENTED_EDGE('',*,*,#260,.F.);
#164=ORIENTED_EDGE('',*,*,#261,.T.);
#165=ORIENTED_EDGE('',*,*,#262,.T.);
#166=ORIENTED_EDGE('',*,*,#260,.T.);
#167=ORIENTED_EDGE('',*,*,#263,.T.);
#168=ORIENTED_EDGE('',*,*,#262,.F.);
#169=ORIENTED_EDGE('',*,*,#264,.F.);
#170=ORIENTED_EDGE('',*,*,#261,.F.);
#171=ORIENTED_EDGE('',*,*,#263,.F.);
#172=ORIENTED_EDGE('',*,*,#265,.T.);
#173=ORIENTED_EDGE('',*,*,#264,.T.);
#174=ORIENTED_EDGE('',*,*,#259,.T.);
#175=ORIENTED_EDGE('',*,*,#266,.F.);
#176=ORIENTED_EDGE('',*,*,#257,.F.);
#177=ORIENTED_EDGE('',*,*,#265,.F.);
#178=ORIENTED_EDGE('',*,*,#267,.T.);
#179=ORIENTED_EDGE('',*,*,#266,.T.);
#180=ORIENTED_EDGE('',*,*,#268,.F.);
#181=ORIENTED_EDGE('',*,*,#269,.T.);
#182=ORIENTED_EDGE('',*,*,#268,.T.);
#183=ORIENTED_EDGE('',*,*,#258,.T.);
#184=ORIENTED_EDGE('',*,*,#267,.F.);
#185=ORIENTED_EDGE('',*,*,#270,.T.);
#186=ORIENTED_EDGE('',*,*,#271,.T.);
#187=ORIENTED_EDGE('',*,*,#270,.F.);
#188=ORIENTED_EDGE('',*,*,#272,.F.);
#189=ORIENTED_EDGE('',*,*,#273,.F.);
#190=ORIENTED_EDGE('',*,*,#272,.T.);
#191=ORIENTED_EDGE('',*,*,#269,.F.);
#192=ORIENTED_EDGE('',*,*,#271,.F.);
#193=ORIENTED_EDGE('',*,*,#274,.F.);
#194=ORIENTED_EDGE('',*,*,#275,.T.);
#195=ORIENTED_EDGE('',*,*,#274,.T.);
#196=ORIENTED_EDGE('',*,*,#276,.F.);
#197=ORIENTED_EDGE('',*,*,#277,.T.);
#198=ORIENTED_EDGE('',*,*,#276,.T.);
#199=ORIENTED_EDGE('',*,*,#273,.T.);
#200=ORIENTED_EDGE('',*,*,#275,.F.);
#201=ORIENTED_EDGE('',*,*,#278,.T.);
#202=ORIENTED_EDGE('',*,*,#279,.T.);
#203=ORIENTED_EDGE('',*,*,#280,.T.);
#204=ORIENTED_EDGE('',*,*,#281,.T.);
#205=ORIENTED_EDGE('',*,*,#282,.T.);
#206=ORIENTED_EDGE('',*,*,#283,.F.);
#207=ORIENTED_EDGE('',*,*,#284,.T.);
#208=ORIENTED_EDGE('',*,*,#278,.F.);
#209=ORIENTED_EDGE('',*,*,#285,.F.);
#210=ORIENTED_EDGE('',*,*,#286,.T.);
#211=ORIENTED_EDGE('',*,*,#287,.T.);
#212=ORIENTED_EDGE('',*,*,#282,.F.);
#213=ORIENTED_EDGE('',*,*,#281,.F.);
#214=ORIENTED_EDGE('',*,*,#288,.F.);
#215=ORIENTED_EDGE('',*,*,#286,.F.);
#216=ORIENTED_EDGE('',*,*,#285,.T.);
#217=ORIENTED_EDGE('',*,*,#277,.F.);
#218=ORIENTED_EDGE('',*,*,#284,.F.);
#219=ORIENTED_EDGE('',*,*,#283,.T.);
#220=ORIENTED_EDGE('',*,*,#288,.T.);
#221=ORIENTED_EDGE('',*,*,#280,.F.);
#222=ORIENTED_EDGE('',*,*,#279,.F.);
#223=ORIENTED_EDGE('',*,*,#287,.F.);
#224=VERTEX_POINT('',#583);
#225=VERTEX_POINT('',#584);
#226=VERTEX_POINT('',#586);
#227=VERTEX_POINT('',#592);
#228=VERTEX_POINT('',#594);
#229=VERTEX_POINT('',#601);
#230=VERTEX_POINT('',#602);
#231=VERTEX_POINT('',#604);
#232=VERTEX_POINT('',#606);
#233=VERTEX_POINT('',#610);
#234=VERTEX_POINT('',#611);
#235=VERTEX_POINT('',#622);
#236=VERTEX_POINT('',#624);
#237=VERTEX_POINT('',#630);
#238=VERTEX_POINT('',#632);
#239=VERTEX_POINT('',#638);
#240=VERTEX_POINT('',#640);
#241=VERTEX_POINT('',#646);
#242=VERTEX_POINT('',#647);
#243=VERTEX_POINT('',#649);
#244=VERTEX_POINT('',#651);
#245=VERTEX_POINT('',#655);
#246=VERTEX_POINT('',#656);
#247=VERTEX_POINT('',#659);
#248=VERTEX_POINT('',#661);
#249=EDGE_CURVE('',#224,#225,#321,.T.);
#250=EDGE_CURVE('',#224,#226,#322,.T.);
#251=EDGE_CURVE('',#226,#225,#118,.T.);
#252=EDGE_CURVE('',#225,#226,#119,.T.);
#253=EDGE_CURVE('',#227,#225,#323,.T.);
#254=EDGE_CURVE('',#228,#227,#120,.T.);
#255=EDGE_CURVE('',#228,#226,#324,.T.);
#256=EDGE_CURVE('',#227,#228,#121,.T.);
#257=EDGE_CURVE('',#229,#230,#325,.T.);
#258=EDGE_CURVE('',#231,#230,#122,.T.);
#259=EDGE_CURVE('',#232,#231,#326,.T.);
#260=EDGE_CURVE('',#229,#232,#123,.T.);
#261=EDGE_CURVE('',#233,#234,#124,.T.);
#262=EDGE_CURVE('',#234,#233,#125,.T.);
#263=EDGE_CURVE('',#232,#233,#327,.T.);
#264=EDGE_CURVE('',#229,#234,#328,.T.);
#265=EDGE_CURVE('',#232,#229,#126,.T.);
#266=EDGE_CURVE('',#230,#231,#127,.T.);
#267=EDGE_CURVE('',#235,#230,#128,.T.);
#268=EDGE_CURVE('',#236,#231,#129,.T.);
#269=EDGE_CURVE('',#236,#235,#130,.T.);
#270=EDGE_CURVE('',#235,#236,#131,.T.);
#271=EDGE_CURVE('',#237,#236,#329,.T.);
#272=EDGE_CURVE('',#238,#235,#330,.T.);
#273=EDGE_CURVE('',#237,#238,#132,.T.);
#274=EDGE_CURVE('',#238,#237,#133,.T.);
#275=EDGE_CURVE('',#239,#238,#134,.T.);
#276=EDGE_CURVE('',#240,#237,#135,.T.);
#277=EDGE_CURVE('',#240,#239,#136,.T.);
#278=EDGE_CURVE('',#239,#240,#137,.T.);
#279=EDGE_CURVE('',#241,#242,#138,.T.);
#280=EDGE_CURVE('',#242,#243,#139,.T.);
#281=EDGE_CURVE('',#243,#244,#140,.T.);
#282=EDGE_CURVE('',#244,#241,#141,.T.);
#283=EDGE_CURVE('',#245,#246,#142,.T.);
#284=EDGE_CURVE('',#245,#240,#331,.T.);
#285=EDGE_CURVE('',#247,#239,#332,.T.);
#286=EDGE_CURVE('',#247,#248,#143,.T.);
#287=EDGE_CURVE('',#248,#241,#333,.T.);
#288=EDGE_CURVE('',#246,#243,#334,.T.);
#289=CURVE_STYLE('',#302,POSITIVE_LENGTH_MEASURE(0.13),#300);
#290=CURVE_STYLE('',#303,POSITIVE_LENGTH_MEASURE(0.13),#300);
#291=CURVE_STYLE('',#304,POSITIVE_LENGTH_MEASURE(0.13),#300);
#292=CURVE_STYLE('',#305,POSITIVE_LENGTH_MEASURE(0.13),#300);
#293=CURVE_STYLE('',#306,POSITIVE_LENGTH_MEASURE(0.13),#388);
#294=CURVE_STYLE('',#307,POSITIVE_LENGTH_MEASURE(0.13),#388);
#295=CURVE_STYLE('',#308,POSITIVE_LENGTH_MEASURE(0.13),#389);
#296=CURVE_STYLE('',#309,POSITIVE_LENGTH_MEASURE(0.13),#301);
#297=CURVE_STYLE('',#310,POSITIVE_LENGTH_MEASURE(0.13),#301);
#298=CURVE_STYLE('',#311,POSITIVE_LENGTH_MEASURE(0.13),#388);
#299=CURVE_STYLE('',#312,POSITIVE_LENGTH_MEASURE(0.13),#388);
#300=DRAUGHTING_PRE_DEFINED_COLOUR('blue');
#301=DRAUGHTING_PRE_DEFINED_COLOUR('yellow');
#302=DRAUGHTING_PRE_DEFINED_CURVE_FONT('continuous');
#303=DRAUGHTING_PRE_DEFINED_CURVE_FONT('continuous');
#304=DRAUGHTING_PRE_DEFINED_CURVE_FONT('continuous');
#305=DRAUGHTING_PRE_DEFINED_CURVE_FONT('continuous');
#306=DRAUGHTING_PRE_DEFINED_CURVE_FONT('continuous');
#307=DRAUGHTING_PRE_DEFINED_CURVE_FONT('continuous');
#308=DRAUGHTING_PRE_DEFINED_CURVE_FONT('continuous');
#309=DRAUGHTING_PRE_DEFINED_CURVE_FONT('continuous');
#310=DRAUGHTING_PRE_DEFINED_CURVE_FONT('continuous');
#311=DRAUGHTING_PRE_DEFINED_CURVE_FONT('continuous');
#312=DRAUGHTING_PRE_DEFINED_CURVE_FONT('continuous');
#313=TRIMMED_CURVE('',#317,(PARAMETER_VALUE(0.)),(PARAMETER_VALUE(1.)),
 .T.,.PARAMETER.);
#314=TRIMMED_CURVE('',#318,(PARAMETER_VALUE(0.)),(PARAMETER_VALUE(1.)),
 .T.,.PARAMETER.);
#315=TRIMMED_CURVE('',#319,(PARAMETER_VALUE(0.)),(PARAMETER_VALUE(1.)),
 .T.,.PARAMETER.);
#316=TRIMMED_CURVE('',#320,(PARAMETER_VALUE(0.)),(PARAMETER_VALUE(1.)),
 .T.,.PARAMETER.);
#317=LINE('',#571,#335);
#318=LINE('',#572,#336);
#319=LINE('',#573,#337);
#320=LINE('',#574,#338);
#321=LINE('',#582,#339);
#322=LINE('',#585,#340);
#323=LINE('',#591,#341);
#324=LINE('',#595,#342);
#325=LINE('',#600,#343);
#326=LINE('',#605,#344);
#327=LINE('',#614,#345);
#328=LINE('',#615,#346);
#329=LINE('',#629,#347);
#330=LINE('',#631,#348);
#331=LINE('',#657,#349);
#332=LINE('',#658,#350);
#333=LINE('',#662,#351);
#334=LINE('',#663,#352);
#335=VECTOR('',#447,5.91283774831902);
#336=VECTOR('',#448,4.191);
#337=VECTOR('',#449,5.55625);
#338=VECTOR('',#450,6.21330961414201);
#339=VECTOR('',#465,1.);
#340=VECTOR('',#466,1.);
#341=VECTOR('',#475,1.);
#342=VECTOR('',#478,1.);
#343=VECTOR('',#487,1.);
#344=VECTOR('',#490,1.);
#345=VECTOR('',#501,1.);
#346=VECTOR('',#502,1.);
#347=VECTOR('',#525,1.);
#348=VECTOR('',#526,1.);
#349=VECTOR('',#559,1.);
#350=VECTOR('',#560,1.);
#351=VECTOR('',#563,1.);
#352=VECTOR('',#564,1.);
#353=PRESENTATION_LAYER_ASSIGNMENT('2','Layer 2',(#570,#397));
#354=PRESENTATION_LAYER_ASSIGNMENT('5','Layer 5',(#313,#314,#315,#316));
#355=PRESENTATION_LAYER_ASSIGNMENT('1','Layer 1',(#393,#394,#395,#398,#399,
#42,#43));
#356=PRESENTATION_LAYER_ASSIGNMENT('4','Layer 4',(#396));
#357=STYLED_ITEM('',(#371),#570);
#358=STYLED_ITEM('',(#372),#313);
#359=STYLED_ITEM('',(#373),#314);
#360=STYLED_ITEM('',(#374),#315);
#361=STYLED_ITEM('',(#375),#316);
#362=STYLED_ITEM('',(#376),#393);
#363=STYLED_ITEM('',(#377),#394);
#364=STYLED_ITEM('',(#378),#395);
#365=STYLED_ITEM('',(#379),#396);
#366=STYLED_ITEM('',(#380),#397);
#367=STYLED_ITEM('',(#381),#398);
#368=STYLED_ITEM('',(#382),#399);
#369=STYLED_ITEM('',(#383),#42);
#370=STYLED_ITEM('',(#384),#43);
#371=PRESENTATION_STYLE_ASSIGNMENT((#385));
#372=PRESENTATION_STYLE_ASSIGNMENT((#289));
#373=PRESENTATION_STYLE_ASSIGNMENT((#290));
#374=PRESENTATION_STYLE_ASSIGNMENT((#291));
#375=PRESENTATION_STYLE_ASSIGNMENT((#292));
#376=PRESENTATION_STYLE_ASSIGNMENT((#293));
#377=PRESENTATION_STYLE_ASSIGNMENT((#294));
#378=PRESENTATION_STYLE_ASSIGNMENT((#295));
#379=PRESENTATION_STYLE_ASSIGNMENT((#296));
#380=PRESENTATION_STYLE_ASSIGNMENT((#297));
#381=PRESENTATION_STYLE_ASSIGNMENT((#298));
#382=PRESENTATION_STYLE_ASSIGNMENT((#299));
#383=PRESENTATION_STYLE_ASSIGNMENT((#32));
#384=PRESENTATION_STYLE_ASSIGNMENT((#33));
#385=POINT_STYLE('',#386,POSITIVE_LENGTH_MEASURE(3.),#387);
#386=PRE_DEFINED_POINT_MARKER_SYMBOL('plus');
#387=COLOUR_RGB('Medium Royal',0.301960784313725,0.427450980392157,0.701960784313725);
#388=COLOUR_RGB('Medium Maroon',0.6,0.4,0.4);
#389=COLOUR_RGB('Strong Gold',0.611764705882353,0.556862745098039,0.380392156862745);
#390=COLOUR_RGB('light gray',0.8,0.8,0.8);
#391=COLOUR_RGB('medium gray',0.490196078431373,0.490196078431373,0.490196078431373);
#392=AXIS2_PLACEMENT_3D('',#569,#445,#446);
#393=AXIS2_PLACEMENT_3D('',#575,#451,#452);
#394=AXIS2_PLACEMENT_3D('',#576,#453,#454);
#395=AXIS2_PLACEMENT_3D('MCS',#577,#455,#456);
#396=AXIS2_PLACEMENT_3D('CIP',#578,#457,#458);
#397=AXIS2_PLACEMENT_3D('PCS',#579,#459,#460);
#398=AXIS2_PLACEMENT_3D('',#580,#461,#462);
#399=AXIS2_PLACEMENT_3D('',#581,#463,#464);
#400=AXIS2_PLACEMENT_3D('',#587,#467,#468);
#401=AXIS2_PLACEMENT_3D('',#588,#469,#470);
#402=AXIS2_PLACEMENT_3D('',#589,#471,#472);
#403=AXIS2_PLACEMENT_3D('',#590,#473,#474);
#404=AXIS2_PLACEMENT_3D('',#593,#476,#477);
#405=AXIS2_PLACEMENT_3D('',#596,#479,#480);
#406=AXIS2_PLACEMENT_3D('',#597,#481,#482);
#407=AXIS2_PLACEMENT_3D('',#598,#483,#484);
#408=AXIS2_PLACEMENT_3D('',#599,#485,#486);
#409=AXIS2_PLACEMENT_3D('',#603,#488,#489);
#410=AXIS2_PLACEMENT_3D('',#607,#491,#492);
#411=AXIS2_PLACEMENT_3D('',#608,#493,#494);
#412=AXIS2_PLACEMENT_3D('',#609,#495,#496);
#413=AXIS2_PLACEMENT_3D('',#612,#497,#498);
#414=AXIS2_PLACEMENT_3D('',#613,#499,#500);
#415=AXIS2_PLACEMENT_3D('',#616,#503,#504);
#416=AXIS2_PLACEMENT_3D('',#617,#505,#506);
#417=AXIS2_PLACEMENT_3D('',#618,#507,#508);
#418=AXIS2_PLACEMENT_3D('',#619,#509,#510);
#419=AXIS2_PLACEMENT_3D('',#620,#511,#512);
#420=AXIS2_PLACEMENT_3D('',#621,#513,#514);
#421=AXIS2_PLACEMENT_3D('',#623,#515,#516);
#422=AXIS2_PLACEMENT_3D('',#625,#517,#518);
#423=AXIS2_PLACEMENT_3D('',#626,#519,#520);
#424=AXIS2_PLACEMENT_3D('',#627,#521,#522);
#425=AXIS2_PLACEMENT_3D('',#628,#523,#524);
#426=AXIS2_PLACEMENT_3D('',#633,#527,#528);
#427=AXIS2_PLACEMENT_3D('',#634,#529,#530);
#428=AXIS2_PLACEMENT_3D('',#635,#531,#532);
#429=AXIS2_PLACEMENT_3D('',#636,#533,#534);
#430=AXIS2_PLACEMENT_3D('',#637,#535,#536);
#431=AXIS2_PLACEMENT_3D('',#639,#537,#538);
#432=AXIS2_PLACEMENT_3D('',#641,#539,#540);
#433=AXIS2_PLACEMENT_3D('',#642,#541,#542);
#434=AXIS2_PLACEMENT_3D('',#643,#543,#544);
#435=AXIS2_PLACEMENT_3D('',#644,#545,#546);
#436=AXIS2_PLACEMENT_3D('',#645,#547,#548);
#437=AXIS2_PLACEMENT_3D('',#648,#549,#550);
#438=AXIS2_PLACEMENT_3D('',#650,#551,#552);
#439=AXIS2_PLACEMENT_3D('',#652,#553,#554);
#440=AXIS2_PLACEMENT_3D('',#653,#555,#556);
#441=AXIS2_PLACEMENT_3D('',#654,#557,#558);
#442=AXIS2_PLACEMENT_3D('',#660,#561,#562);
#443=AXIS2_PLACEMENT_3D('',#664,#565,#566);
#444=AXIS2_PLACEMENT_3D('',#665,#567,#568);
#445=DIRECTION('',(0.,0.,1.));
#446=DIRECTION('',(1.,0.,0.));
#447=DIRECTION('',(-0.939692620785897,0.,0.342020143325699));
#448=DIRECTION('',(0.,0.,1.));
#449=DIRECTION('',(1.,0.,0.));
#450=DIRECTION('',(0.,0.,1.));
#451=DIRECTION('',(0.,0.,1.));
#452=DIRECTION('',(1.,0.,0.));
#453=DIRECTION('',(0.,0.,1.));
#454=DIRECTION('',(1.,0.,0.));
#455=DIRECTION('',(0.,0.,1.));
#456=DIRECTION('',(1.,0.,0.));
#457=DIRECTION('',(0.,0.,1.));
#458=DIRECTION('',(1.,0.,0.));
#459=DIRECTION('',(0.,0.,1.));
#460=DIRECTION('',(1.,0.,0.));
#461=DIRECTION('',(0.,0.,1.));
#462=DIRECTION('',(1.,0.,0.));
#463=DIRECTION('',(0.,0.,1.));
#464=DIRECTION('',(1.,0.,0.));
#465=DIRECTION('',(0.939692620785897,0.,0.342020143325699));
#466=DIRECTION('',(-0.939692620785897,0.,0.342020143325699));
#467=DIRECTION('',(0.,0.,-1.));
#468=DIRECTION('',(-1.,0.,0.));
#469=DIRECTION('',(0.,0.,1.));
#470=DIRECTION('',(1.,0.,-1.00917417214889E-17));
#471=DIRECTION('',(0.,0.,-1.));
#472=DIRECTION('',(1.,0.,0.));
#473=DIRECTION('',(0.,0.,1.));
#474=DIRECTION('',(1.,0.,-1.00917417214889E-17));
#475=DIRECTION('',(2.458332061208E-14,0.,-1.));
#476=DIRECTION('',(0.,0.,1.));
#477=DIRECTION('',(-1.,0.,0.));
#478=DIRECTION('',(-2.458332061208E-14,0.,-1.));
#479=DIRECTION('',(0.,0.,1.));
#480=DIRECTION('',(1.,0.,0.));
#481=DIRECTION('',(0.,0.,1.));
#482=DIRECTION('',(1.,0.,0.));
#483=DIRECTION('',(0.,0.,1.));
#484=DIRECTION('',(1.,0.,0.));
#485=DIRECTION('',(0.,0.,1.));
#486=DIRECTION('',(1.,0.,0.));
#487=DIRECTION('',(1.399846422226E-14,0.,-1.));
#488=DIRECTION('',(0.,0.,-1.));
#489=DIRECTION('',(-1.,0.,0.));
#490=DIRECTION('',(-1.397915599574E-14,0.,-1.));
#491=DIRECTION('',(0.,0.,1.));
#492=DIRECTION('',(1.,0.,0.));
#493=DIRECTION('',(0.,0.,1.));
#494=DIRECTION('',(-1.,0.,0.));
#495=DIRECTION('',(0.,0.,1.));
#496=DIRECTION('',(-1.,0.,0.));
#497=DIRECTION('',(0.,0.,1.));
#498=DIRECTION('',(1.,0.,0.));
#499=DIRECTION('',(0.,0.,1.));
#500=DIRECTION('',(-1.,0.,0.));
#501=DIRECTION('',(0.500000000000017,0.,0.866025403784429));
#502=DIRECTION('',(-0.500000000000017,0.,0.866025403784429));
#503=DIRECTION('',(0.,0.,-1.));
#504=DIRECTION('',(1.,0.,-5.933605920034E-17));
#505=DIRECTION('',(0.,0.,1.));
#506=DIRECTION('',(-1.,0.,0.));
#507=DIRECTION('',(0.,0.,-1.));
#508=DIRECTION('',(1.,0.,-5.933605920034E-17));
#509=DIRECTION('',(0.,0.,-1.));
#510=DIRECTION('',(1.,0.,0.));
#511=DIRECTION('',(0.,0.,1.));
#512=DIRECTION('',(-1.,0.,0.));
#513=DIRECTION('',(0.,1.,0.));
#514=DIRECTION('',(-0.362089893687486,0.,0.932143180466059));
#515=DIRECTION('',(0.,-1.,0.));
#516=DIRECTION('',(0.362089893737511,0.,0.93214318044663));
#517=DIRECTION('',(0.,0.,1.));
#518=DIRECTION('',(-1.,0.,0.));
#519=DIRECTION('',(0.,0.,1.));
#520=DIRECTION('',(0.999999999709852,2.40893406977188E-5,0.));
#521=DIRECTION('',(0.,0.,1.));
#522=DIRECTION('',(1.,0.,0.));
#523=DIRECTION('',(0.,0.,1.));
#524=DIRECTION('',(-0.999999999701832,-2.44199951894008E-5,0.));
#525=DIRECTION('',(-0.199367934417302,0.,0.979924704620808));
#526=DIRECTION('',(0.199367934417302,0.,0.979924704620808));
#527=DIRECTION('',(0.,0.,-1.));
#528=DIRECTION('',(-1.,0.,0.));
#529=DIRECTION('',(0.,0.,1.));
#530=DIRECTION('',(-1.,0.,3.30338913324846E-17));
#531=DIRECTION('',(0.,0.,-1.));
#532=DIRECTION('',(1.,0.,0.));
#533=DIRECTION('',(0.,0.,1.));
#534=DIRECTION('',(-1.,0.,2.31237239327375E-16));
#535=DIRECTION('',(0.,1.,0.));
#536=DIRECTION('',(-0.469938238567081,0.,0.882699298703961));
#537=DIRECTION('',(0.,-1.,0.));
#538=DIRECTION('',(0.469938238519694,0.,0.882699298729184));
#539=DIRECTION('',(0.,0.,1.));
#540=DIRECTION('',(-1.,0.,0.));
#541=DIRECTION('',(0.,0.,1.));
#542=DIRECTION('',(0.999999999434729,3.3623537579301E-5,0.));
#543=DIRECTION('',(0.,0.,1.));
#544=DIRECTION('',(1.,0.,0.));
#545=DIRECTION('',(0.,0.,1.));
#546=DIRECTION('',(-0.999999999418619,-3.40993055728106E-5,0.));
#547=DIRECTION('',(0.,0.,-1.));
#548=DIRECTION('',(-1.104287197322E-9,-1.,0.));
#549=DIRECTION('',(0.,0.,-1.));
#550=DIRECTION('',(-1.,0.,0.));
#551=DIRECTION('',(0.,0.,-1.));
#552=DIRECTION('',(1.104287248991E-9,1.,0.));
#553=DIRECTION('',(0.,0.,-1.));
#554=DIRECTION('',(1.,0.,0.));
#555=DIRECTION('',(0.,0.,1.));
#556=DIRECTION('',(1.,0.,0.));
#557=DIRECTION('',(0.,0.,-1.));
#558=DIRECTION('',(4.141062664548E-10,1.,0.));
#559=DIRECTION('',(0.,0.,1.));
#560=DIRECTION('',(0.,0.,1.));
#561=DIRECTION('',(0.,0.,-1.));
#562=DIRECTION('',(-4.141052558117E-10,-1.,0.));
#563=DIRECTION('',(-1.126565355849E-10,0.,-1.));
#564=DIRECTION('',(1.126563990437E-10,0.,-1.));
#565=DIRECTION('',(0.,0.,1.));
#566=DIRECTION('',(-1.,0.,0.));
#567=DIRECTION('',(0.,0.,1.));
#568=DIRECTION('',(-1.,0.,0.));
#569=CARTESIAN_POINT('',(0.,0.,0.));
#570=CARTESIAN_POINT('',(-5.55625,0.,-75.51435285187));
#571=CARTESIAN_POINT('',(0.,0.,-77.53666246601));
#572=CARTESIAN_POINT('',(-5.55625,0.,-75.51435285187));
#573=CARTESIAN_POINT('',(-5.55625,0.,-71.32335285187));
#574=CARTESIAN_POINT('',(0.,0.,-77.53666246601));
#575=CARTESIAN_POINT('',(0.,0.,-23.5));
#576=CARTESIAN_POINT('',(0.,0.,-23.5));
#577=CARTESIAN_POINT('',(0.,0.,-23.5));
#578=CARTESIAN_POINT('',(0.,0.,-77.53666246601));
#579=CARTESIAN_POINT('',(0.,0.,0.));
#580=CARTESIAN_POINT('',(0.,0.,-23.5));
#581=CARTESIAN_POINT('',(0.,0.,-23.5));
#582=CARTESIAN_POINT('',(5.55625,0.,-75.51435285187));
#583=CARTESIAN_POINT('',(0.,0.,-77.53666246601));
#584=CARTESIAN_POINT('',(5.55625,0.,-75.51435285187));
#585=CARTESIAN_POINT('',(-5.55625,0.,-75.51435285187));
#586=CARTESIAN_POINT('',(-5.55625,0.,-75.51435285187));
#587=CARTESIAN_POINT('',(0.,0.,-75.51435285187));
#588=CARTESIAN_POINT('',(0.,0.,-76.5052845628));
#589=CARTESIAN_POINT('',(0.,0.,-75.51435285187));
#590=CARTESIAN_POINT('',(0.,0.,-76.5052845628));
#591=CARTESIAN_POINT('',(5.55625,0.,-75.51435285187));
#592=CARTESIAN_POINT('',(5.55625,0.,-71.32335285187));
#593=CARTESIAN_POINT('',(0.,0.,-71.32335285187));
#594=CARTESIAN_POINT('',(-5.55625,0.,-71.32335285187));
#595=CARTESIAN_POINT('',(-5.55625,0.,-75.51435285187));
#596=CARTESIAN_POINT('',(0.,0.,-77.84732794672));
#597=CARTESIAN_POINT('',(0.,0.,-71.32335285187));
#598=CARTESIAN_POINT('',(0.,0.,-77.84732794672));
#599=CARTESIAN_POINT('',(0.,0.,-71.32335285187));
#600=CARTESIAN_POINT('',(7.937500000001,0.,-23.5000000042025));
#601=CARTESIAN_POINT('',(7.9375,0.,22.5));
#602=CARTESIAN_POINT('',(7.937500000005,0.,-23.5000000042336));
#603=CARTESIAN_POINT('',(0.,0.,-23.5000000042336));
#604=CARTESIAN_POINT('',(-7.937499999997,0.,-23.5000000041713));
#605=CARTESIAN_POINT('',(-7.937500000001,0.,-23.5000000042025));
#606=CARTESIAN_POINT('',(-7.9375,0.,22.5));
#607=CARTESIAN_POINT('',(0.,0.,22.5));
#608=CARTESIAN_POINT('',(0.,0.,-94.15));
#609=CARTESIAN_POINT('',(0.,0.,24.5));
#610=CARTESIAN_POINT('',(-6.782799461621,0.,24.5));
#611=CARTESIAN_POINT('',(6.782799461621,0.,24.5));
#612=CARTESIAN_POINT('',(0.,0.,24.5));
#613=CARTESIAN_POINT('',(0.,0.,24.5));
#614=CARTESIAN_POINT('',(-6.782799461621,0.,24.5));
#615=CARTESIAN_POINT('',(6.782799461621,0.,24.5));
#616=CARTESIAN_POINT('',(0.,0.,23.5));
#617=CARTESIAN_POINT('',(0.,0.,22.5));
#618=CARTESIAN_POINT('',(0.,0.,23.5));
#619=CARTESIAN_POINT('',(0.,0.,-23.5000000041713));
#620=CARTESIAN_POINT('',(0.,0.,-94.15));
#621=CARTESIAN_POINT('',(8.08233595748,0.,-23.87285727642));
#622=CARTESIAN_POINT('',(7.690366075637,0.,-23.7931101026201));
#623=CARTESIAN_POINT('',(-8.082335957492,0.,-23.87285727635));
#624=CARTESIAN_POINT('',(-7.690366075642,0.,-23.7931101025901));
#625=CARTESIAN_POINT('',(0.,0.,-23.7931101025901));
#626=CARTESIAN_POINT('',(0.,0.,-23.87285727635));
#627=CARTESIAN_POINT('',(0.,0.,-23.7931101026503));
#628=CARTESIAN_POINT('',(0.,0.,-23.87285727642));
#629=CARTESIAN_POINT('',(-5.512024704583,0.,-34.50000000862));
#630=CARTESIAN_POINT('',(-5.512024704592,-1.346151228467E-14,-34.50000000856));
#631=CARTESIAN_POINT('',(5.512024704583,0.,-34.50000000862));
#632=CARTESIAN_POINT('',(5.512024704573,0.,-34.50000000868));
#633=CARTESIAN_POINT('',(0.,0.,-34.50000000868));
#634=CARTESIAN_POINT('',(0.,0.,-29.146555055665));
#635=CARTESIAN_POINT('',(0.,0.,-34.50000000856));
#636=CARTESIAN_POINT('',(0.,0.,-29.146555055575));
#637=CARTESIAN_POINT('',(5.7,1.836741479397E-14,-34.85307972816));
#638=CARTESIAN_POINT('',(5.3,0.,-34.8530797281));
#639=CARTESIAN_POINT('',(-5.7,-1.392058668857E-14,-34.85307972805));
#640=CARTESIAN_POINT('',(-5.3,0.,-34.85307972805));
#641=CARTESIAN_POINT('',(0.,0.,-34.85307972805));
#642=CARTESIAN_POINT('',(0.,0.,-34.85307972805));
#643=CARTESIAN_POINT('',(0.,0.,-34.85307972816));
#644=CARTESIAN_POINT('',(0.,0.,-34.85307972816));
#645=CARTESIAN_POINT('',(0.,0.,-71.32335280125));
#646=CARTESIAN_POINT('',(-3.414079285805E-9,-5.3,-71.32335280125));
#647=CARTESIAN_POINT('',(-5.3,0.,-71.32335280125));
#648=CARTESIAN_POINT('',(0.,0.,-71.32335280125));
#649=CARTESIAN_POINT('',(3.414082515316E-9,5.3,-71.32335280125));
#650=CARTESIAN_POINT('',(0.,0.,-71.32335280125));
#651=CARTESIAN_POINT('',(5.3,0.,-71.32335280125));
#652=CARTESIAN_POINT('',(0.,0.,-71.32335280125));
#653=CARTESIAN_POINT('',(0.,0.,-71.32335280125));
#654=CARTESIAN_POINT('',(0.,0.,-60.5));
#655=CARTESIAN_POINT('',(-5.3,0.,-60.5));
#656=CARTESIAN_POINT('',(2.194763212211E-9,5.3,-60.5));
#657=CARTESIAN_POINT('',(-5.3,0.,-60.5));
#658=CARTESIAN_POINT('',(5.3,0.,-60.5));
#659=CARTESIAN_POINT('',(5.3,0.,-60.5));
#660=CARTESIAN_POINT('',(0.,0.,-60.5));
#661=CARTESIAN_POINT('',(-2.194757855802E-9,-5.3,-60.5));
#662=CARTESIAN_POINT('',(-2.194757855802E-9,-5.3,-60.5));
#663=CARTESIAN_POINT('',(2.194762563148E-9,5.3,-60.5));
#664=CARTESIAN_POINT('',(0.,0.,-94.15));
#665=CARTESIAN_POINT('',(0.,0.,-94.15));
#666=MECHANICAL_DESIGN_GEOMETRIC_PRESENTATION_REPRESENTATION('',(#357,#358,
#359,#360,#361,#362,#363,#364,#365,#366,#367,#368,#369,#370),#667);
#667=(
GEOMETRIC_REPRESENTATION_CONTEXT(3)
GLOBAL_UNCERTAINTY_ASSIGNED_CONTEXT((#668))
GLOBAL_UNIT_ASSIGNED_CONTEXT((#674,#670,#669))
REPRESENTATION_CONTEXT('STAWSN0028_ID0_4375','TOP_LEVEL_ASSEMBLY_PART')
);
#668=UNCERTAINTY_MEASURE_WITH_UNIT(LENGTH_MEASURE(0.001),#674,
'DISTANCE_ACCURACY_VALUE','Maximum Tolerance applied to model');
#669=(
NAMED_UNIT(*)
SI_UNIT($,.STERADIAN.)
SOLID_ANGLE_UNIT()
);
#670=(
CONVERSION_BASED_UNIT('DEGREE',#672)
NAMED_UNIT(#671)
PLANE_ANGLE_UNIT()
);
#671=DIMENSIONAL_EXPONENTS(0.,0.,0.,0.,0.,0.,0.);
#672=PLANE_ANGLE_MEASURE_WITH_UNIT(PLANE_ANGLE_MEASURE(0.0174532925),#673);
#673=(
NAMED_UNIT(*)
PLANE_ANGLE_UNIT()
SI_UNIT($,.RADIAN.)
);
#674=(
LENGTH_UNIT()
NAMED_UNIT(*)
SI_UNIT(.MILLI.,.METRE.)
);
ENDSEC;
END-ISO-10303-21;
