ISO-10303-21;
HEADER;
/* Generated by software containing ST-Developer
 * from STEP Tools, Inc. (www.steptools.com) 
 */
/* OPTION: using custom schema-name function */

FILE_DESCRIPTION(
/* description */ (''),
/* implementation_level */ '2;1');

FILE_NAME(
/* name */ 'STAWSN0041_ID0_6250.stp',
/* time_stamp */ '2025-06-11T16:54:51+09:00',
/* author */ (''),
/* organization */ (''),
/* preprocessor_version */ 'ST-DEVELOPER v18.101',
/* originating_system */ 'SIEMENS PLM Software NX 2011',
/* authorisation */ '');

FILE_SCHEMA (('AUTOMOTIVE_DESIGN { 1 0 10303 214 3 1 1 1 }'));
ENDSEC;

DATA;
#10=CONSTRUCTIVE_GEOMETRY_REPRESENTATION_RELATIONSHIP(
'supplemental geometry','',#26,#11);
#11=CONSTRUCTIVE_GEOMETRY_REPRESENTATION('supplemental geometry',(#361,
#362,#363,#364,#365,#366,#367),#609);
#12=GEOMETRICALLY_BOUNDED_WIREFRAME_SHAPE_REPRESENTATION(
'STAWSN0041_ID0_6250-None',(#27),#609);
#13=SHAPE_REPRESENTATION_RELATIONSHIP('None',
'relationship between STAWSN0041_ID0_6250-None and STAWSN0041_ID0_6250
-None',#26,#15);
#14=SHAPE_REPRESENTATION_RELATIONSHIP('None',
'relationship between STAWSN0041_ID0_6250-None and STAWSN0041_ID0_6250
-None',#26,#12);
#15=ADVANCED_BREP_SHAPE_REPRESENTATION('STAWSN0041_ID0_6250-None',(#42,
#43),#609);
#16=SHAPE_DEFINITION_REPRESENTATION(#17,#26);
#17=PRODUCT_DEFINITION_SHAPE('','SHAPE FOR STAWSN0041_ID0_6250_ASM.',#18);
#18=PRODUCT_DEFINITION('part definition','',#20,#19);
#19=PRODUCT_DEFINITION_CONTEXT('part definition',#25,'design');
#20=PRODUCT_DEFINITION_FORMATION_WITH_SPECIFIED_SOURCE(' ',' ',#22,
 .NOT_KNOWN.);
#21=PRODUCT_RELATED_PRODUCT_CATEGORY('part','',(#22));
#22=PRODUCT('STAWSN0041_ID0_6250_ASM','STAWSN0041_ID0_6250_ASM',
'NOT SPECIFIED',(#23));
#23=PRODUCT_CONTEXT('',#25,'mechanical');
#24=APPLICATION_PROTOCOL_DEFINITION('international standard',
'automotive_design',2010,#25);
#25=APPLICATION_CONTEXT(
'core data for automotive mechanical design processes');
#26=SHAPE_REPRESENTATION('STAWSN0041_ID0_6250-None',(#360),#609);
#27=GEOMETRIC_CURVE_SET('None',(#524,#285,#286,#287,#288));
#28=TOROIDAL_SURFACE('',#391,9.62387401356,0.4);
#29=TOROIDAL_SURFACE('',#393,9.623874013562,0.4);
#30=TOROIDAL_SURFACE('',#405,7.95,0.4);
#31=TOROIDAL_SURFACE('',#407,7.95,0.4);
#32=SURFACE_STYLE_USAGE(.BOTH.,#34);
#33=SURFACE_STYLE_USAGE(.BOTH.,#35);
#34=SURFACE_SIDE_STYLE('',(#36));
#35=SURFACE_SIDE_STYLE('',(#37));
#36=SURFACE_STYLE_FILL_AREA(#38);
#37=SURFACE_STYLE_FILL_AREA(#39);
#38=FILL_AREA_STYLE('',(#40));
#39=FILL_AREA_STYLE('',(#41));
#40=FILL_AREA_STYLE_COLOUR('',#358);
#41=FILL_AREA_STYLE_COLOUR('',#359);
#42=MANIFOLD_SOLID_BREP('CUT',#44);
#43=MANIFOLD_SOLID_BREP('NOCUT',#45);
#44=CLOSED_SHELL('',(#55,#56,#57,#58,#59));
#45=CLOSED_SHELL('',(#60,#61,#62,#63,#64,#65,#66,#67,#68,#69,#70,#71,#72,
#73));
#46=PLANE('',#376);
#47=PLANE('',#379);
#48=PLANE('',#400);
#49=CYLINDRICAL_SURFACE('',#373,7.9375);
#50=CYLINDRICAL_SURFACE('',#375,7.9375);
#51=CYLINDRICAL_SURFACE('',#382,9.525);
#52=CYLINDRICAL_SURFACE('',#387,9.525);
#53=CYLINDRICAL_SURFACE('',#402,7.55);
#54=CYLINDRICAL_SURFACE('',#408,7.55);
#55=ADVANCED_FACE('',(#80),#74,.T.);
#56=ADVANCED_FACE('',(#81),#75,.T.);
#57=ADVANCED_FACE('',(#82),#49,.T.);
#58=ADVANCED_FACE('',(#83),#50,.T.);
#59=ADVANCED_FACE('',(#84),#46,.T.);
#60=ADVANCED_FACE('',(#85),#47,.T.);
#61=ADVANCED_FACE('',(#86),#51,.T.);
#62=ADVANCED_FACE('',(#87),#76,.T.);
#63=ADVANCED_FACE('',(#88),#77,.T.);
#64=ADVANCED_FACE('',(#89),#52,.T.);
#65=ADVANCED_FACE('',(#90),#28,.F.);
#66=ADVANCED_FACE('',(#91),#29,.F.);
#67=ADVANCED_FACE('',(#92),#78,.T.);
#68=ADVANCED_FACE('',(#93),#79,.T.);
#69=ADVANCED_FACE('',(#94),#48,.F.);
#70=ADVANCED_FACE('',(#95),#53,.T.);
#71=ADVANCED_FACE('',(#96),#30,.F.);
#72=ADVANCED_FACE('',(#97),#31,.F.);
#73=ADVANCED_FACE('',(#98),#54,.T.);
#74=CONICAL_SURFACE('',#369,4.048125,70.0000971436908);
#75=CONICAL_SURFACE('',#371,4.048125,70.0000971436908);
#76=CONICAL_SURFACE('',#383,8.94764973081,30.0000416330103);
#77=CONICAL_SURFACE('',#385,8.94764973081,30.0000416330103);
#78=CONICAL_SURFACE('',#395,8.538156077212,4.00000555106804);
#79=CONICAL_SURFACE('',#397,8.538156077209,4.00000555106804);
#80=FACE_OUTER_BOUND('',#99,.T.);
#81=FACE_OUTER_BOUND('',#100,.T.);
#82=FACE_OUTER_BOUND('',#101,.T.);
#83=FACE_OUTER_BOUND('',#102,.T.);
#84=FACE_OUTER_BOUND('',#103,.T.);
#85=FACE_OUTER_BOUND('',#104,.T.);
#86=FACE_OUTER_BOUND('',#105,.T.);
#87=FACE_OUTER_BOUND('',#106,.T.);
#88=FACE_OUTER_BOUND('',#107,.T.);
#89=FACE_OUTER_BOUND('',#108,.T.);
#90=FACE_OUTER_BOUND('',#109,.T.);
#91=FACE_OUTER_BOUND('',#110,.T.);
#92=FACE_OUTER_BOUND('',#111,.T.);
#93=FACE_OUTER_BOUND('',#112,.T.);
#94=FACE_OUTER_BOUND('',#113,.T.);
#95=FACE_OUTER_BOUND('',#114,.T.);
#96=FACE_OUTER_BOUND('',#115,.T.);
#97=FACE_OUTER_BOUND('',#116,.T.);
#98=FACE_OUTER_BOUND('',#117,.T.);
#99=EDGE_LOOP('',(#140,#141,#142));
#100=EDGE_LOOP('',(#143,#144,#145));
#101=EDGE_LOOP('',(#146,#147,#148,#149));
#102=EDGE_LOOP('',(#150,#151,#152,#153));
#103=EDGE_LOOP('',(#154,#155));
#104=EDGE_LOOP('',(#156,#157));
#105=EDGE_LOOP('',(#158,#159,#160,#161));
#106=EDGE_LOOP('',(#162,#163,#164,#165));
#107=EDGE_LOOP('',(#166,#167,#168,#169));
#108=EDGE_LOOP('',(#170,#171,#172,#173));
#109=EDGE_LOOP('',(#174,#175,#176,#177));
#110=EDGE_LOOP('',(#178,#179,#180,#181));
#111=EDGE_LOOP('',(#182,#183,#184,#185));
#112=EDGE_LOOP('',(#186,#187,#188,#189));
#113=EDGE_LOOP('',(#190,#191));
#114=EDGE_LOOP('',(#192,#193,#194,#195));
#115=EDGE_LOOP('',(#196,#197,#198,#199));
#116=EDGE_LOOP('',(#200,#201,#202,#203));
#117=EDGE_LOOP('',(#204,#205,#206,#207));
#118=CIRCLE('',#368,7.9375);
#119=CIRCLE('',#370,7.9375);
#120=CIRCLE('',#372,7.9375);
#121=CIRCLE('',#374,7.9375);
#122=CIRCLE('',#377,8.370299461621);
#123=CIRCLE('',#378,8.370299461621);
#124=CIRCLE('',#380,9.524999999998);
#125=CIRCLE('',#381,9.525);
#126=CIRCLE('',#384,9.525);
#127=CIRCLE('',#386,9.525000000002);
#128=CIRCLE('',#388,0.4);
#129=CIRCLE('',#389,0.4);
#130=CIRCLE('',#390,9.224848393456);
#131=CIRCLE('',#392,9.224848393458);
#132=CIRCLE('',#394,7.851463760969);
#133=CIRCLE('',#396,7.851463760967);
#134=CIRCLE('',#398,7.55);
#135=CIRCLE('',#399,7.55);
#136=CIRCLE('',#401,7.55);
#137=CIRCLE('',#403,0.4);
#138=CIRCLE('',#404,0.4);
#139=CIRCLE('',#406,7.55);
#140=ORIENTED_EDGE('',*,*,#227,.F.);
#141=ORIENTED_EDGE('',*,*,#228,.T.);
#142=ORIENTED_EDGE('',*,*,#229,.T.);
#143=ORIENTED_EDGE('',*,*,#230,.T.);
#144=ORIENTED_EDGE('',*,*,#228,.F.);
#145=ORIENTED_EDGE('',*,*,#227,.T.);
#146=ORIENTED_EDGE('',*,*,#230,.F.);
#147=ORIENTED_EDGE('',*,*,#231,.F.);
#148=ORIENTED_EDGE('',*,*,#232,.F.);
#149=ORIENTED_EDGE('',*,*,#233,.T.);
#150=ORIENTED_EDGE('',*,*,#229,.F.);
#151=ORIENTED_EDGE('',*,*,#233,.F.);
#152=ORIENTED_EDGE('',*,*,#234,.F.);
#153=ORIENTED_EDGE('',*,*,#231,.T.);
#154=ORIENTED_EDGE('',*,*,#232,.T.);
#155=ORIENTED_EDGE('',*,*,#234,.T.);
#156=ORIENTED_EDGE('',*,*,#235,.T.);
#157=ORIENTED_EDGE('',*,*,#236,.T.);
#158=ORIENTED_EDGE('',*,*,#237,.F.);
#159=ORIENTED_EDGE('',*,*,#238,.F.);
#160=ORIENTED_EDGE('',*,*,#239,.T.);
#161=ORIENTED_EDGE('',*,*,#240,.F.);
#162=ORIENTED_EDGE('',*,*,#235,.F.);
#163=ORIENTED_EDGE('',*,*,#241,.F.);
#164=ORIENTED_EDGE('',*,*,#240,.T.);
#165=ORIENTED_EDGE('',*,*,#242,.T.);
#166=ORIENTED_EDGE('',*,*,#243,.T.);
#167=ORIENTED_EDGE('',*,*,#241,.T.);
#168=ORIENTED_EDGE('',*,*,#236,.F.);
#169=ORIENTED_EDGE('',*,*,#242,.F.);
#170=ORIENTED_EDGE('',*,*,#239,.F.);
#171=ORIENTED_EDGE('',*,*,#244,.F.);
#172=ORIENTED_EDGE('',*,*,#237,.T.);
#173=ORIENTED_EDGE('',*,*,#243,.F.);
#174=ORIENTED_EDGE('',*,*,#245,.F.);
#175=ORIENTED_EDGE('',*,*,#244,.T.);
#176=ORIENTED_EDGE('',*,*,#246,.T.);
#177=ORIENTED_EDGE('',*,*,#247,.T.);
#178=ORIENTED_EDGE('',*,*,#246,.F.);
#179=ORIENTED_EDGE('',*,*,#238,.T.);
#180=ORIENTED_EDGE('',*,*,#245,.T.);
#181=ORIENTED_EDGE('',*,*,#248,.T.);
#182=ORIENTED_EDGE('',*,*,#249,.F.);
#183=ORIENTED_EDGE('',*,*,#248,.F.);
#184=ORIENTED_EDGE('',*,*,#250,.T.);
#185=ORIENTED_EDGE('',*,*,#251,.F.);
#186=ORIENTED_EDGE('',*,*,#250,.F.);
#187=ORIENTED_EDGE('',*,*,#247,.F.);
#188=ORIENTED_EDGE('',*,*,#249,.T.);
#189=ORIENTED_EDGE('',*,*,#252,.F.);
#190=ORIENTED_EDGE('',*,*,#253,.T.);
#191=ORIENTED_EDGE('',*,*,#254,.T.);
#192=ORIENTED_EDGE('',*,*,#255,.T.);
#193=ORIENTED_EDGE('',*,*,#253,.F.);
#194=ORIENTED_EDGE('',*,*,#256,.T.);
#195=ORIENTED_EDGE('',*,*,#257,.F.);
#196=ORIENTED_EDGE('',*,*,#258,.F.);
#197=ORIENTED_EDGE('',*,*,#252,.T.);
#198=ORIENTED_EDGE('',*,*,#259,.T.);
#199=ORIENTED_EDGE('',*,*,#257,.T.);
#200=ORIENTED_EDGE('',*,*,#259,.F.);
#201=ORIENTED_EDGE('',*,*,#251,.T.);
#202=ORIENTED_EDGE('',*,*,#258,.T.);
#203=ORIENTED_EDGE('',*,*,#260,.T.);
#204=ORIENTED_EDGE('',*,*,#256,.F.);
#205=ORIENTED_EDGE('',*,*,#254,.F.);
#206=ORIENTED_EDGE('',*,*,#255,.F.);
#207=ORIENTED_EDGE('',*,*,#260,.F.);
#208=VERTEX_POINT('',#537);
#209=VERTEX_POINT('',#538);
#210=VERTEX_POINT('',#540);
#211=VERTEX_POINT('',#546);
#212=VERTEX_POINT('',#548);
#213=VERTEX_POINT('',#555);
#214=VERTEX_POINT('',#556);
#215=VERTEX_POINT('',#560);
#216=VERTEX_POINT('',#561);
#217=VERTEX_POINT('',#563);
#218=VERTEX_POINT('',#565);
#219=VERTEX_POINT('',#576);
#220=VERTEX_POINT('',#578);
#221=VERTEX_POINT('',#584);
#222=VERTEX_POINT('',#586);
#223=VERTEX_POINT('',#592);
#224=VERTEX_POINT('',#593);
#225=VERTEX_POINT('',#597);
#226=VERTEX_POINT('',#599);
#227=EDGE_CURVE('',#208,#209,#293,.T.);
#228=EDGE_CURVE('',#208,#210,#294,.T.);
#229=EDGE_CURVE('',#210,#209,#118,.T.);
#230=EDGE_CURVE('',#209,#210,#119,.T.);
#231=EDGE_CURVE('',#211,#209,#295,.T.);
#232=EDGE_CURVE('',#212,#211,#120,.T.);
#233=EDGE_CURVE('',#212,#210,#296,.T.);
#234=EDGE_CURVE('',#211,#212,#121,.T.);
#235=EDGE_CURVE('',#213,#214,#122,.T.);
#236=EDGE_CURVE('',#214,#213,#123,.T.);
#237=EDGE_CURVE('',#215,#216,#297,.T.);
#238=EDGE_CURVE('',#217,#215,#124,.T.);
#239=EDGE_CURVE('',#217,#218,#298,.T.);
#240=EDGE_CURVE('',#216,#218,#125,.T.);
#241=EDGE_CURVE('',#216,#213,#299,.T.);
#242=EDGE_CURVE('',#218,#214,#300,.T.);
#243=EDGE_CURVE('',#218,#216,#126,.T.);
#244=EDGE_CURVE('',#215,#217,#127,.T.);
#245=EDGE_CURVE('',#215,#219,#128,.T.);
#246=EDGE_CURVE('',#217,#220,#129,.T.);
#247=EDGE_CURVE('',#220,#219,#130,.T.);
#248=EDGE_CURVE('',#219,#220,#131,.T.);
#249=EDGE_CURVE('',#220,#221,#301,.T.);
#250=EDGE_CURVE('',#219,#222,#302,.T.);
#251=EDGE_CURVE('',#221,#222,#132,.T.);
#252=EDGE_CURVE('',#222,#221,#133,.T.);
#253=EDGE_CURVE('',#223,#224,#134,.T.);
#254=EDGE_CURVE('',#224,#223,#135,.T.);
#255=EDGE_CURVE('',#225,#224,#303,.T.);
#256=EDGE_CURVE('',#223,#226,#304,.T.);
#257=EDGE_CURVE('',#225,#226,#136,.T.);
#258=EDGE_CURVE('',#222,#226,#137,.T.);
#259=EDGE_CURVE('',#221,#225,#138,.T.);
#260=EDGE_CURVE('',#226,#225,#139,.T.);
#261=CURVE_STYLE('',#274,POSITIVE_LENGTH_MEASURE(0.13),#272);
#262=CURVE_STYLE('',#275,POSITIVE_LENGTH_MEASURE(0.13),#272);
#263=CURVE_STYLE('',#276,POSITIVE_LENGTH_MEASURE(0.13),#272);
#264=CURVE_STYLE('',#277,POSITIVE_LENGTH_MEASURE(0.13),#272);
#265=CURVE_STYLE('',#278,POSITIVE_LENGTH_MEASURE(0.13),#356);
#266=CURVE_STYLE('',#279,POSITIVE_LENGTH_MEASURE(0.13),#356);
#267=CURVE_STYLE('',#280,POSITIVE_LENGTH_MEASURE(0.13),#357);
#268=CURVE_STYLE('',#281,POSITIVE_LENGTH_MEASURE(0.13),#273);
#269=CURVE_STYLE('',#282,POSITIVE_LENGTH_MEASURE(0.13),#273);
#270=CURVE_STYLE('',#283,POSITIVE_LENGTH_MEASURE(0.13),#356);
#271=CURVE_STYLE('',#284,POSITIVE_LENGTH_MEASURE(0.13),#356);
#272=DRAUGHTING_PRE_DEFINED_COLOUR('blue');
#273=DRAUGHTING_PRE_DEFINED_COLOUR('yellow');
#274=DRAUGHTING_PRE_DEFINED_CURVE_FONT('continuous');
#275=DRAUGHTING_PRE_DEFINED_CURVE_FONT('continuous');
#276=DRAUGHTING_PRE_DEFINED_CURVE_FONT('continuous');
#277=DRAUGHTING_PRE_DEFINED_CURVE_FONT('continuous');
#278=DRAUGHTING_PRE_DEFINED_CURVE_FONT('continuous');
#279=DRAUGHTING_PRE_DEFINED_CURVE_FONT('continuous');
#280=DRAUGHTING_PRE_DEFINED_CURVE_FONT('continuous');
#281=DRAUGHTING_PRE_DEFINED_CURVE_FONT('continuous');
#282=DRAUGHTING_PRE_DEFINED_CURVE_FONT('continuous');
#283=DRAUGHTING_PRE_DEFINED_CURVE_FONT('continuous');
#284=DRAUGHTING_PRE_DEFINED_CURVE_FONT('continuous');
#285=TRIMMED_CURVE('',#289,(PARAMETER_VALUE(0.)),(PARAMETER_VALUE(1.)),
 .T.,.PARAMETER.);
#286=TRIMMED_CURVE('',#290,(PARAMETER_VALUE(0.)),(PARAMETER_VALUE(1.)),
 .T.,.PARAMETER.);
#287=TRIMMED_CURVE('',#291,(PARAMETER_VALUE(0.)),(PARAMETER_VALUE(1.)),
 .T.,.PARAMETER.);
#288=TRIMMED_CURVE('',#292,(PARAMETER_VALUE(0.)),(PARAMETER_VALUE(1.)),
 .T.,.PARAMETER.);
#289=LINE('',#525,#305);
#290=LINE('',#526,#306);
#291=LINE('',#527,#307);
#292=LINE('',#528,#308);
#293=LINE('',#536,#309);
#294=LINE('',#539,#310);
#295=LINE('',#545,#311);
#296=LINE('',#549,#312);
#297=LINE('',#559,#313);
#298=LINE('',#564,#314);
#299=LINE('',#568,#315);
#300=LINE('',#569,#316);
#301=LINE('',#583,#317);
#302=LINE('',#585,#318);
#303=LINE('',#596,#319);
#304=LINE('',#598,#320);
#305=VECTOR('',#411,8.44691106902802);
#306=VECTOR('',#412,5.89279999999999);
#307=VECTOR('',#413,7.9375);
#308=VECTOR('',#414,8.781813734488);
#309=VECTOR('',#429,1.);
#310=VECTOR('',#430,1.);
#311=VECTOR('',#439,1.);
#312=VECTOR('',#442,1.);
#313=VECTOR('',#457,1.);
#314=VECTOR('',#460,1.);
#315=VECTOR('',#465,1.);
#316=VECTOR('',#466,1.);
#317=VECTOR('',#489,1.);
#318=VECTOR('',#490,1.);
#319=VECTOR('',#505,1.);
#320=VECTOR('',#506,1.);
#321=PRESENTATION_LAYER_ASSIGNMENT('2','Layer 2',(#524));
#322=PRESENTATION_LAYER_ASSIGNMENT('3','Layer 3',(#285,#286,#287,#288));
#323=PRESENTATION_LAYER_ASSIGNMENT('1','Layer 1',(#361,#362,#363,#364,#366,
#367,#42,#43));
#324=PRESENTATION_LAYER_ASSIGNMENT('4','Layer 4',(#365));
#325=STYLED_ITEM('',(#339),#524);
#326=STYLED_ITEM('',(#340),#285);
#327=STYLED_ITEM('',(#341),#286);
#328=STYLED_ITEM('',(#342),#287);
#329=STYLED_ITEM('',(#343),#288);
#330=STYLED_ITEM('',(#344),#361);
#331=STYLED_ITEM('',(#345),#362);
#332=STYLED_ITEM('',(#346),#363);
#333=STYLED_ITEM('',(#347),#364);
#334=STYLED_ITEM('',(#348),#365);
#335=STYLED_ITEM('',(#349),#366);
#336=STYLED_ITEM('',(#350),#367);
#337=STYLED_ITEM('',(#351),#42);
#338=STYLED_ITEM('',(#352),#43);
#339=PRESENTATION_STYLE_ASSIGNMENT((#353));
#340=PRESENTATION_STYLE_ASSIGNMENT((#261));
#341=PRESENTATION_STYLE_ASSIGNMENT((#262));
#342=PRESENTATION_STYLE_ASSIGNMENT((#263));
#343=PRESENTATION_STYLE_ASSIGNMENT((#264));
#344=PRESENTATION_STYLE_ASSIGNMENT((#265));
#345=PRESENTATION_STYLE_ASSIGNMENT((#266));
#346=PRESENTATION_STYLE_ASSIGNMENT((#267));
#347=PRESENTATION_STYLE_ASSIGNMENT((#268));
#348=PRESENTATION_STYLE_ASSIGNMENT((#269));
#349=PRESENTATION_STYLE_ASSIGNMENT((#270));
#350=PRESENTATION_STYLE_ASSIGNMENT((#271));
#351=PRESENTATION_STYLE_ASSIGNMENT((#32));
#352=PRESENTATION_STYLE_ASSIGNMENT((#33));
#353=POINT_STYLE('',#354,POSITIVE_LENGTH_MEASURE(3.),#355);
#354=PRE_DEFINED_POINT_MARKER_SYMBOL('plus');
#355=COLOUR_RGB('Medium Royal',0.301960784313725,0.427450980392157,0.701960784313725);
#356=COLOUR_RGB('Medium Maroon',0.6,0.4,0.4);
#357=COLOUR_RGB('Strong Gold',0.611764705882353,0.556862745098039,0.380392156862745);
#358=COLOUR_RGB('light gray',0.8,0.8,0.8);
#359=COLOUR_RGB('medium gray',0.490196078431373,0.490196078431373,0.490196078431373);
#360=AXIS2_PLACEMENT_3D('',#523,#409,#410);
#361=AXIS2_PLACEMENT_3D('',#529,#415,#416);
#362=AXIS2_PLACEMENT_3D('',#530,#417,#418);
#363=AXIS2_PLACEMENT_3D('MCS',#531,#419,#420);
#364=AXIS2_PLACEMENT_3D('CIP',#532,#421,#422);
#365=AXIS2_PLACEMENT_3D('PCS',#533,#423,#424);
#366=AXIS2_PLACEMENT_3D('',#534,#425,#426);
#367=AXIS2_PLACEMENT_3D('',#535,#427,#428);
#368=AXIS2_PLACEMENT_3D('',#541,#431,#432);
#369=AXIS2_PLACEMENT_3D('',#542,#433,#434);
#370=AXIS2_PLACEMENT_3D('',#543,#435,#436);
#371=AXIS2_PLACEMENT_3D('',#544,#437,#438);
#372=AXIS2_PLACEMENT_3D('',#547,#440,#441);
#373=AXIS2_PLACEMENT_3D('',#550,#443,#444);
#374=AXIS2_PLACEMENT_3D('',#551,#445,#446);
#375=AXIS2_PLACEMENT_3D('',#552,#447,#448);
#376=AXIS2_PLACEMENT_3D('',#553,#449,#450);
#377=AXIS2_PLACEMENT_3D('',#554,#451,#452);
#378=AXIS2_PLACEMENT_3D('',#557,#453,#454);
#379=AXIS2_PLACEMENT_3D('',#558,#455,#456);
#380=AXIS2_PLACEMENT_3D('',#562,#458,#459);
#381=AXIS2_PLACEMENT_3D('',#566,#461,#462);
#382=AXIS2_PLACEMENT_3D('',#567,#463,#464);
#383=AXIS2_PLACEMENT_3D('',#570,#467,#468);
#384=AXIS2_PLACEMENT_3D('',#571,#469,#470);
#385=AXIS2_PLACEMENT_3D('',#572,#471,#472);
#386=AXIS2_PLACEMENT_3D('',#573,#473,#474);
#387=AXIS2_PLACEMENT_3D('',#574,#475,#476);
#388=AXIS2_PLACEMENT_3D('',#575,#477,#478);
#389=AXIS2_PLACEMENT_3D('',#577,#479,#480);
#390=AXIS2_PLACEMENT_3D('',#579,#481,#482);
#391=AXIS2_PLACEMENT_3D('',#580,#483,#484);
#392=AXIS2_PLACEMENT_3D('',#581,#485,#486);
#393=AXIS2_PLACEMENT_3D('',#582,#487,#488);
#394=AXIS2_PLACEMENT_3D('',#587,#491,#492);
#395=AXIS2_PLACEMENT_3D('',#588,#493,#494);
#396=AXIS2_PLACEMENT_3D('',#589,#495,#496);
#397=AXIS2_PLACEMENT_3D('',#590,#497,#498);
#398=AXIS2_PLACEMENT_3D('',#591,#499,#500);
#399=AXIS2_PLACEMENT_3D('',#594,#501,#502);
#400=AXIS2_PLACEMENT_3D('',#595,#503,#504);
#401=AXIS2_PLACEMENT_3D('',#600,#507,#508);
#402=AXIS2_PLACEMENT_3D('',#601,#509,#510);
#403=AXIS2_PLACEMENT_3D('',#602,#511,#512);
#404=AXIS2_PLACEMENT_3D('',#603,#513,#514);
#405=AXIS2_PLACEMENT_3D('',#604,#515,#516);
#406=AXIS2_PLACEMENT_3D('',#605,#517,#518);
#407=AXIS2_PLACEMENT_3D('',#606,#519,#520);
#408=AXIS2_PLACEMENT_3D('',#607,#521,#522);
#409=DIRECTION('',(0.,0.,1.));
#410=DIRECTION('',(1.,0.,0.));
#411=DIRECTION('',(-0.939692620785897,0.,0.342020143325699));
#412=DIRECTION('',(0.,0.,1.));
#413=DIRECTION('',(1.,0.,0.));
#414=DIRECTION('',(0.,0.,1.));
#415=DIRECTION('',(0.,0.,1.));
#416=DIRECTION('',(1.,0.,0.));
#417=DIRECTION('',(0.,0.,1.));
#418=DIRECTION('',(1.,0.,0.));
#419=DIRECTION('',(0.,0.,1.));
#420=DIRECTION('',(1.,0.,0.));
#421=DIRECTION('',(0.,0.,1.));
#422=DIRECTION('',(1.,0.,0.));
#423=DIRECTION('',(0.,0.,1.));
#424=DIRECTION('',(1.,0.,0.));
#425=DIRECTION('',(0.,0.,1.));
#426=DIRECTION('',(1.,0.,0.));
#427=DIRECTION('',(0.,0.,1.));
#428=DIRECTION('',(1.,0.,0.));
#429=DIRECTION('',(0.939692620785897,0.,0.342020143325699));
#430=DIRECTION('',(-0.939692620785897,0.,0.342020143325699));
#431=DIRECTION('',(0.,0.,-1.));
#432=DIRECTION('',(-1.,0.,0.));
#433=DIRECTION('',(0.,0.,1.));
#434=DIRECTION('',(1.,0.,-5.04364378256E-18));
#435=DIRECTION('',(0.,0.,-1.));
#436=DIRECTION('',(1.,0.,0.));
#437=DIRECTION('',(0.,0.,1.));
#438=DIRECTION('',(1.,0.,-5.04364378256E-18));
#439=DIRECTION('',(2.456779161199E-14,0.,-1.));
#440=DIRECTION('',(0.,0.,1.));
#441=DIRECTION('',(-1.,0.,0.));
#442=DIRECTION('',(-2.456779161199E-14,0.,-1.));
#443=DIRECTION('',(0.,0.,1.));
#444=DIRECTION('',(1.,0.,0.));
#445=DIRECTION('',(0.,0.,1.));
#446=DIRECTION('',(1.,0.,0.));
#447=DIRECTION('',(0.,0.,1.));
#448=DIRECTION('',(1.,0.,0.));
#449=DIRECTION('',(0.,0.,1.));
#450=DIRECTION('',(1.,0.,0.));
#451=DIRECTION('',(0.,0.,1.));
#452=DIRECTION('',(-1.,0.,0.));
#453=DIRECTION('',(0.,0.,1.));
#454=DIRECTION('',(1.,0.,0.));
#455=DIRECTION('',(0.,0.,1.));
#456=DIRECTION('',(-1.,0.,0.));
#457=DIRECTION('',(0.,0.,1.));
#458=DIRECTION('',(0.,0.,-1.));
#459=DIRECTION('',(1.,0.,0.));
#460=DIRECTION('',(0.,0.,1.));
#461=DIRECTION('',(0.,0.,1.));
#462=DIRECTION('',(-1.,0.,0.));
#463=DIRECTION('',(0.,0.,1.));
#464=DIRECTION('',(-1.,0.,0.));
#465=DIRECTION('',(0.500000000000017,0.,0.866025403784429));
#466=DIRECTION('',(-0.500000000000017,0.,0.866025403784429));
#467=DIRECTION('',(0.,0.,-1.));
#468=DIRECTION('',(1.,0.,-6.50929368414349E-17));
#469=DIRECTION('',(0.,0.,1.));
#470=DIRECTION('',(1.,0.,0.));
#471=DIRECTION('',(0.,0.,-1.));
#472=DIRECTION('',(1.,0.,-6.50929368414349E-17));
#473=DIRECTION('',(0.,0.,-1.));
#474=DIRECTION('',(-1.,0.,0.));
#475=DIRECTION('',(0.,0.,1.));
#476=DIRECTION('',(-1.,0.,0.));
#477=DIRECTION('',(0.,1.,0.));
#478=DIRECTION('',(0.247185033910003,0.,0.968968296184616));
#479=DIRECTION('',(0.,-1.,0.));
#480=DIRECTION('',(-0.247185033895011,0.,0.968968296188441));
#481=DIRECTION('',(0.,0.,1.));
#482=DIRECTION('',(1.,0.,0.));
#483=DIRECTION('',(0.,0.,1.));
#484=DIRECTION('',(-0.999999999784562,-2.07575516984092E-5,0.));
#485=DIRECTION('',(0.,0.,1.));
#486=DIRECTION('',(-1.,0.,0.));
#487=DIRECTION('',(0.,0.,1.));
#488=DIRECTION('',(0.999999999790242,2.04820927182709E-5,0.));
#489=DIRECTION('',(-0.0697564737439923,0.,-0.997564050259834));
#490=DIRECTION('',(0.0697564737439923,0.,-0.997564050259834));
#491=DIRECTION('',(0.,0.,-1.));
#492=DIRECTION('',(1.,0.,0.));
#493=DIRECTION('',(0.,0.,1.));
#494=DIRECTION('',(-1.,0.,1.76865815899136E-16));
#495=DIRECTION('',(0.,0.,-1.));
#496=DIRECTION('',(-1.,0.,0.));
#497=DIRECTION('',(0.,0.,1.));
#498=DIRECTION('',(-1.,0.,4.42164539747857E-16));
#499=DIRECTION('',(0.,0.,-1.));
#500=DIRECTION('',(-1.,0.,0.));
#501=DIRECTION('',(0.,0.,-1.));
#502=DIRECTION('',(1.,0.,0.));
#503=DIRECTION('',(0.,0.,1.));
#504=DIRECTION('',(1.,0.,0.));
#505=DIRECTION('',(0.,0.,-1.));
#506=DIRECTION('',(0.,0.,1.));
#507=DIRECTION('',(0.,0.,1.));
#508=DIRECTION('',(1.,0.,0.));
#509=DIRECTION('',(0.,0.,1.));
#510=DIRECTION('',(-1.,0.,0.));
#511=DIRECTION('',(0.,1.,0.));
#512=DIRECTION('',(0.246340597578592,0.,0.969183321144467));
#513=DIRECTION('',(0.,-1.,0.));
#514=DIRECTION('',(-0.246340597583293,0.,0.96918332114327));
#515=DIRECTION('',(0.,0.,1.));
#516=DIRECTION('',(-0.999999999685425,-2.50828795001806E-5,0.));
#517=DIRECTION('',(0.,0.,1.));
#518=DIRECTION('',(-1.,0.,0.));
#519=DIRECTION('',(0.,0.,1.));
#520=DIRECTION('',(0.999999999693745,2.47489283684411E-5,0.));
#521=DIRECTION('',(0.,0.,1.));
#522=DIRECTION('',(-1.,0.,0.));
#523=CARTESIAN_POINT('',(0.,0.,0.));
#524=CARTESIAN_POINT('',(-7.9375,0.,-105.5096034418));
#525=CARTESIAN_POINT('',(0.,0.,-108.3986171763));
#526=CARTESIAN_POINT('',(-7.9375,0.,-105.5096034418));
#527=CARTESIAN_POINT('',(-7.9375,0.,-99.61680344182));
#528=CARTESIAN_POINT('',(0.,0.,-108.3986171763));
#529=CARTESIAN_POINT('',(0.,0.,-25.50000000202));
#530=CARTESIAN_POINT('',(0.,0.,-25.50000000202));
#531=CARTESIAN_POINT('',(0.,0.,-25.50000000202));
#532=CARTESIAN_POINT('',(0.,0.,-108.3986171763));
#533=CARTESIAN_POINT('',(0.,0.,0.));
#534=CARTESIAN_POINT('',(0.,0.,-25.50000000202));
#535=CARTESIAN_POINT('',(0.,0.,-25.50000000202));
#536=CARTESIAN_POINT('',(7.9375,0.,-105.50960344182));
#537=CARTESIAN_POINT('',(0.,0.,-108.39861717631));
#538=CARTESIAN_POINT('',(7.9375,0.,-105.50960344182));
#539=CARTESIAN_POINT('',(-7.9375,0.,-105.50960344182));
#540=CARTESIAN_POINT('',(-7.9375,0.,-105.50960344182));
#541=CARTESIAN_POINT('',(0.,0.,-105.50960344182));
#542=CARTESIAN_POINT('',(0.,0.,-106.92522017172));
#543=CARTESIAN_POINT('',(0.,0.,-105.50960344182));
#544=CARTESIAN_POINT('',(0.,0.,-106.92522017172));
#545=CARTESIAN_POINT('',(7.9375,0.,-105.50960344182));
#546=CARTESIAN_POINT('',(7.9375,0.,-99.61680344182));
#547=CARTESIAN_POINT('',(0.,0.,-99.61680344182));
#548=CARTESIAN_POINT('',(-7.9375,0.,-99.61680344182));
#549=CARTESIAN_POINT('',(-7.9375,0.,-105.50960344182));
#550=CARTESIAN_POINT('',(0.,0.,-108.83770786303));
#551=CARTESIAN_POINT('',(0.,0.,-99.61680344182));
#552=CARTESIAN_POINT('',(0.,0.,-108.83770786303));
#553=CARTESIAN_POINT('',(0.,0.,-99.61680344182));
#554=CARTESIAN_POINT('',(0.,0.,24.5));
#555=CARTESIAN_POINT('',(-8.370299461621,0.,24.5));
#556=CARTESIAN_POINT('',(8.370299461621,0.,24.5));
#557=CARTESIAN_POINT('',(0.,0.,24.5));
#558=CARTESIAN_POINT('',(0.,0.,24.5));
#559=CARTESIAN_POINT('',(-9.525,-2.022840890979E-14,-25.5000000020058));
#560=CARTESIAN_POINT('',(-9.524999999998,-4.160333360896E-14,-25.5000000019916));
#561=CARTESIAN_POINT('',(-9.525,0.,22.5));
#562=CARTESIAN_POINT('',(0.,0.,-25.5000000019916));
#563=CARTESIAN_POINT('',(9.525000000002,0.,-25.50000000202));
#564=CARTESIAN_POINT('',(9.525,-1.361118752553E-14,-25.5000000020058));
#565=CARTESIAN_POINT('',(9.525,0.,22.5));
#566=CARTESIAN_POINT('',(0.,0.,22.5));
#567=CARTESIAN_POINT('',(0.,0.,-126.70000000002));
#568=CARTESIAN_POINT('',(-8.370299461621,0.,24.5));
#569=CARTESIAN_POINT('',(8.370299461621,0.,24.5));
#570=CARTESIAN_POINT('',(0.,0.,23.5));
#571=CARTESIAN_POINT('',(0.,0.,22.5));
#572=CARTESIAN_POINT('',(0.,0.,23.5));
#573=CARTESIAN_POINT('',(0.,0.,-25.50000000202));
#574=CARTESIAN_POINT('',(0.,0.,-126.70000000002));
#575=CARTESIAN_POINT('',(-9.623874013562,-4.203519585362E-14,-25.8875873204654));
#576=CARTESIAN_POINT('',(-9.224848393458,0.,-25.8596847309654));
#577=CARTESIAN_POINT('',(9.62387401356,-2.512755086469E-14,-25.8875873204954));
#578=CARTESIAN_POINT('',(9.224848393458,-1.318227538771E-14,-25.8596847309805));
#579=CARTESIAN_POINT('',(0.,0.,-25.8596847309954));
#580=CARTESIAN_POINT('',(0.,0.,-25.8875873204954));
#581=CARTESIAN_POINT('',(0.,0.,-25.8596847309654));
#582=CARTESIAN_POINT('',(0.,0.,-25.8875873204654));
#583=CARTESIAN_POINT('',(7.851463760965,1.516241715457E-14,-45.50000000239));
#584=CARTESIAN_POINT('',(7.851463760967,0.,-45.5000000024));
#585=CARTESIAN_POINT('',(-7.851463760965,1.621832395003E-14,-45.50000000239));
#586=CARTESIAN_POINT('',(-7.851463760969,3.006054871114E-14,-45.50000000237));
#587=CARTESIAN_POINT('',(0.,0.,-45.50000000237));
#588=CARTESIAN_POINT('',(0.,0.,-35.67984236667));
#589=CARTESIAN_POINT('',(0.,0.,-45.5000000024));
#590=CARTESIAN_POINT('',(0.,0.,-35.6798423667));
#591=CARTESIAN_POINT('',(0.,0.,-99.61680343979));
#592=CARTESIAN_POINT('',(-7.55,0.,-99.61680343979));
#593=CARTESIAN_POINT('',(7.55,0.,-99.61680343979));
#594=CARTESIAN_POINT('',(0.,0.,-99.61680343979));
#595=CARTESIAN_POINT('',(0.,0.,-99.61680343979));
#596=CARTESIAN_POINT('',(7.55,1.458022848251E-14,-45.88767333084));
#597=CARTESIAN_POINT('',(7.55,0.,-45.88767333083));
#598=CARTESIAN_POINT('',(-7.55,0.,-99.61680343979));
#599=CARTESIAN_POINT('',(-7.55,0.,-45.88767333083));
#600=CARTESIAN_POINT('',(0.,0.,-45.88767333086));
#601=CARTESIAN_POINT('',(0.,0.,-126.70000000002));
#602=CARTESIAN_POINT('',(-7.95,3.04378104752E-14,-45.88767333083));
#603=CARTESIAN_POINT('',(7.95,3.475076671734E-14,-45.88767333086));
#604=CARTESIAN_POINT('',(0.,0.,-45.88767333086));
#605=CARTESIAN_POINT('',(0.,0.,-45.88767333083));
#606=CARTESIAN_POINT('',(0.,0.,-45.88767333083));
#607=CARTESIAN_POINT('',(0.,0.,-126.70000000002));
#608=MECHANICAL_DESIGN_GEOMETRIC_PRESENTATION_REPRESENTATION('',(#325,#326,
#327,#328,#329,#330,#331,#332,#333,#334,#335,#336,#337,#338),#609);
#609=(
GEOMETRIC_REPRESENTATION_CONTEXT(3)
GLOBAL_UNCERTAINTY_ASSIGNED_CONTEXT((#610))
GLOBAL_UNIT_ASSIGNED_CONTEXT((#616,#612,#611))
REPRESENTATION_CONTEXT('STAWSN0041_ID0_6250','TOP_LEVEL_ASSEMBLY_PART')
);
#610=UNCERTAINTY_MEASURE_WITH_UNIT(LENGTH_MEASURE(0.001),#616,
'DISTANCE_ACCURACY_VALUE','Maximum Tolerance applied to model');
#611=(
NAMED_UNIT(*)
SI_UNIT($,.STERADIAN.)
SOLID_ANGLE_UNIT()
);
#612=(
CONVERSION_BASED_UNIT('DEGREE',#614)
NAMED_UNIT(#613)
PLANE_ANGLE_UNIT()
);
#613=DIMENSIONAL_EXPONENTS(0.,0.,0.,0.,0.,0.,0.);
#614=PLANE_ANGLE_MEASURE_WITH_UNIT(PLANE_ANGLE_MEASURE(0.0174532925),#615);
#615=(
NAMED_UNIT(*)
PLANE_ANGLE_UNIT()
SI_UNIT($,.RADIAN.)
);
#616=(
LENGTH_UNIT()
NAMED_UNIT(*)
SI_UNIT(.MILLI.,.METRE.)
);
ENDSEC;
END-ISO-10303-21;
