ISO-10303-21;
HEADER;
/* Generated by software containing ST-Developer
 * from STEP Tools, Inc. (www.steptools.com) 
 */
/* OPTION: using custom schema-name function */

FILE_DESCRIPTION(
/* description */ (''),
/* implementation_level */ '2;1');

FILE_NAME(
/* name */ 'STAWMN0035_ID0_5469.stp',
/* time_stamp */ '2025-06-11T16:54:59+09:00',
/* author */ (''),
/* organization */ (''),
/* preprocessor_version */ 'ST-DEVELOPER v18.101',
/* originating_system */ 'SIEMENS PLM Software NX 2011',
/* authorisation */ '');

FILE_SCHEMA (('AUTOMOTIVE_DESIGN { 1 0 10303 214 3 1 1 1 }'));
ENDSEC;

DATA;
#10=CONSTRUCTIVE_GEOMETRY_REPRESENTATION_RELATIONSHIP(
'supplemental geometry','',#26,#11);
#11=CONSTRUCTIVE_GEOMETRY_REPRESENTATION('supplemental geometry',(#360,
#361,#362,#363,#364,#365,#366),#608);
#12=GEOMETRICALLY_BOUNDED_WIREFRAME_SHAPE_REPRESENTATION(
'STAWMN0035_ID0_5469-None',(#27),#608);
#13=SHAPE_REPRESENTATION_RELATIONSHIP('None',
'relationship between STAWMN0035_ID0_5469-None and STAWMN0035_ID0_5469
-None',#26,#15);
#14=SHAPE_REPRESENTATION_RELATIONSHIP('None',
'relationship between STAWMN0035_ID0_5469-None and STAWMN0035_ID0_5469
-None',#26,#12);
#15=ADVANCED_BREP_SHAPE_REPRESENTATION('STAWMN0035_ID0_5469-None',(#42,
#43),#608);
#16=SHAPE_DEFINITION_REPRESENTATION(#17,#26);
#17=PRODUCT_DEFINITION_SHAPE('','SHAPE FOR STAWMN0035_ID0_5469_ASM.',#18);
#18=PRODUCT_DEFINITION('part definition','',#20,#19);
#19=PRODUCT_DEFINITION_CONTEXT('part definition',#25,'design');
#20=PRODUCT_DEFINITION_FORMATION_WITH_SPECIFIED_SOURCE(' ',' ',#22,
 .NOT_KNOWN.);
#21=PRODUCT_RELATED_PRODUCT_CATEGORY('part','',(#22));
#22=PRODUCT('STAWMN0035_ID0_5469_ASM','STAWMN0035_ID0_5469_ASM',
'NOT SPECIFIED',(#23));
#23=PRODUCT_CONTEXT('',#25,'mechanical');
#24=APPLICATION_PROTOCOL_DEFINITION('international standard',
'automotive_design',2010,#25);
#25=APPLICATION_CONTEXT(
'core data for automotive mechanical design processes');
#26=SHAPE_REPRESENTATION('STAWMN0035_ID0_5469-None',(#359),#608);
#27=GEOMETRIC_CURVE_SET('None',(#523,#285,#286,#287,#288));
#28=TOROIDAL_SURFACE('',#390,8.12631850125,0.4);
#29=TOROIDAL_SURFACE('',#392,8.126318501255,0.4);
#30=TOROIDAL_SURFACE('',#404,6.95,0.4);
#31=TOROIDAL_SURFACE('',#406,6.95,0.4);
#32=SURFACE_STYLE_USAGE(.BOTH.,#34);
#33=SURFACE_STYLE_USAGE(.BOTH.,#35);
#34=SURFACE_SIDE_STYLE('',(#36));
#35=SURFACE_SIDE_STYLE('',(#37));
#36=SURFACE_STYLE_FILL_AREA(#38);
#37=SURFACE_STYLE_FILL_AREA(#39);
#38=FILL_AREA_STYLE('',(#40));
#39=FILL_AREA_STYLE('',(#41));
#40=FILL_AREA_STYLE_COLOUR('',#357);
#41=FILL_AREA_STYLE_COLOUR('',#358);
#42=MANIFOLD_SOLID_BREP('CUT',#44);
#43=MANIFOLD_SOLID_BREP('NOCUT',#45);
#44=CLOSED_SHELL('',(#55,#56,#57,#58,#59));
#45=CLOSED_SHELL('',(#60,#61,#62,#63,#64,#65,#66,#67,#68,#69,#70,#71,#72,
#73));
#46=PLANE('',#375);
#47=PLANE('',#378);
#48=PLANE('',#399);
#49=CYLINDRICAL_SURFACE('',#372,6.94563);
#50=CYLINDRICAL_SURFACE('',#374,6.94563);
#51=CYLINDRICAL_SURFACE('',#381,7.9375);
#52=CYLINDRICAL_SURFACE('',#386,7.9375);
#53=CYLINDRICAL_SURFACE('',#401,6.55);
#54=CYLINDRICAL_SURFACE('',#407,6.55);
#55=ADVANCED_FACE('',(#80),#74,.T.);
#56=ADVANCED_FACE('',(#81),#75,.T.);
#57=ADVANCED_FACE('',(#82),#49,.T.);
#58=ADVANCED_FACE('',(#83),#50,.T.);
#59=ADVANCED_FACE('',(#84),#46,.T.);
#60=ADVANCED_FACE('',(#85),#47,.T.);
#61=ADVANCED_FACE('',(#86),#51,.T.);
#62=ADVANCED_FACE('',(#87),#76,.T.);
#63=ADVANCED_FACE('',(#88),#77,.T.);
#64=ADVANCED_FACE('',(#89),#52,.T.);
#65=ADVANCED_FACE('',(#90),#28,.F.);
#66=ADVANCED_FACE('',(#91),#29,.F.);
#67=ADVANCED_FACE('',(#92),#78,.T.);
#68=ADVANCED_FACE('',(#93),#79,.T.);
#69=ADVANCED_FACE('',(#94),#48,.F.);
#70=ADVANCED_FACE('',(#95),#53,.T.);
#71=ADVANCED_FACE('',(#96),#30,.F.);
#72=ADVANCED_FACE('',(#97),#31,.F.);
#73=ADVANCED_FACE('',(#98),#54,.T.);
#74=CONICAL_SURFACE('',#368,3.5422713,70.0000971436908);
#75=CONICAL_SURFACE('',#370,3.5422713,70.0000971436908);
#76=CONICAL_SURFACE('',#382,7.36014973081,30.0000416330103);
#77=CONICAL_SURFACE('',#384,7.36014973081,30.0000416330103);
#78=CONICAL_SURFACE('',#394,7.284122162839,4.00000555106804);
#79=CONICAL_SURFACE('',#396,7.284122162836,4.00000555106804);
#80=FACE_OUTER_BOUND('',#99,.T.);
#81=FACE_OUTER_BOUND('',#100,.T.);
#82=FACE_OUTER_BOUND('',#101,.T.);
#83=FACE_OUTER_BOUND('',#102,.T.);
#84=FACE_OUTER_BOUND('',#103,.T.);
#85=FACE_OUTER_BOUND('',#104,.T.);
#86=FACE_OUTER_BOUND('',#105,.T.);
#87=FACE_OUTER_BOUND('',#106,.T.);
#88=FACE_OUTER_BOUND('',#107,.T.);
#89=FACE_OUTER_BOUND('',#108,.T.);
#90=FACE_OUTER_BOUND('',#109,.T.);
#91=FACE_OUTER_BOUND('',#110,.T.);
#92=FACE_OUTER_BOUND('',#111,.T.);
#93=FACE_OUTER_BOUND('',#112,.T.);
#94=FACE_OUTER_BOUND('',#113,.T.);
#95=FACE_OUTER_BOUND('',#114,.T.);
#96=FACE_OUTER_BOUND('',#115,.T.);
#97=FACE_OUTER_BOUND('',#116,.T.);
#98=FACE_OUTER_BOUND('',#117,.T.);
#99=EDGE_LOOP('',(#140,#141,#142));
#100=EDGE_LOOP('',(#143,#144,#145));
#101=EDGE_LOOP('',(#146,#147,#148,#149));
#102=EDGE_LOOP('',(#150,#151,#152,#153));
#103=EDGE_LOOP('',(#154,#155));
#104=EDGE_LOOP('',(#156,#157));
#105=EDGE_LOOP('',(#158,#159,#160,#161));
#106=EDGE_LOOP('',(#162,#163,#164,#165));
#107=EDGE_LOOP('',(#166,#167,#168,#169));
#108=EDGE_LOOP('',(#170,#171,#172,#173));
#109=EDGE_LOOP('',(#174,#175,#176,#177));
#110=EDGE_LOOP('',(#178,#179,#180,#181));
#111=EDGE_LOOP('',(#182,#183,#184,#185));
#112=EDGE_LOOP('',(#186,#187,#188,#189));
#113=EDGE_LOOP('',(#190,#191));
#114=EDGE_LOOP('',(#192,#193,#194,#195));
#115=EDGE_LOOP('',(#196,#197,#198,#199));
#116=EDGE_LOOP('',(#200,#201,#202,#203));
#117=EDGE_LOOP('',(#204,#205,#206,#207));
#118=CIRCLE('',#367,6.94563);
#119=CIRCLE('',#369,6.94563);
#120=CIRCLE('',#371,6.94563);
#121=CIRCLE('',#373,6.94563);
#122=CIRCLE('',#376,6.782799461621);
#123=CIRCLE('',#377,6.782799461621);
#124=CIRCLE('',#379,7.937499999994);
#125=CIRCLE('',#380,7.9375);
#126=CIRCLE('',#383,7.9375);
#127=CIRCLE('',#385,7.937500000001);
#128=CIRCLE('',#387,0.4);
#129=CIRCLE('',#388,0.4);
#130=CIRCLE('',#389,7.727292881146);
#131=CIRCLE('',#391,7.727292881151);
#132=CIRCLE('',#393,6.840951444528);
#133=CIRCLE('',#395,6.840951444525);
#134=CIRCLE('',#397,6.55);
#135=CIRCLE('',#398,6.55);
#136=CIRCLE('',#400,6.55);
#137=CIRCLE('',#402,0.4);
#138=CIRCLE('',#403,0.4);
#139=CIRCLE('',#405,6.55);
#140=ORIENTED_EDGE('',*,*,#227,.F.);
#141=ORIENTED_EDGE('',*,*,#228,.T.);
#142=ORIENTED_EDGE('',*,*,#229,.T.);
#143=ORIENTED_EDGE('',*,*,#230,.T.);
#144=ORIENTED_EDGE('',*,*,#228,.F.);
#145=ORIENTED_EDGE('',*,*,#227,.T.);
#146=ORIENTED_EDGE('',*,*,#230,.F.);
#147=ORIENTED_EDGE('',*,*,#231,.F.);
#148=ORIENTED_EDGE('',*,*,#232,.F.);
#149=ORIENTED_EDGE('',*,*,#233,.T.);
#150=ORIENTED_EDGE('',*,*,#229,.F.);
#151=ORIENTED_EDGE('',*,*,#233,.F.);
#152=ORIENTED_EDGE('',*,*,#234,.F.);
#153=ORIENTED_EDGE('',*,*,#231,.T.);
#154=ORIENTED_EDGE('',*,*,#232,.T.);
#155=ORIENTED_EDGE('',*,*,#234,.T.);
#156=ORIENTED_EDGE('',*,*,#235,.T.);
#157=ORIENTED_EDGE('',*,*,#236,.T.);
#158=ORIENTED_EDGE('',*,*,#237,.F.);
#159=ORIENTED_EDGE('',*,*,#238,.F.);
#160=ORIENTED_EDGE('',*,*,#239,.T.);
#161=ORIENTED_EDGE('',*,*,#240,.F.);
#162=ORIENTED_EDGE('',*,*,#235,.F.);
#163=ORIENTED_EDGE('',*,*,#241,.F.);
#164=ORIENTED_EDGE('',*,*,#240,.T.);
#165=ORIENTED_EDGE('',*,*,#242,.T.);
#166=ORIENTED_EDGE('',*,*,#243,.T.);
#167=ORIENTED_EDGE('',*,*,#241,.T.);
#168=ORIENTED_EDGE('',*,*,#236,.F.);
#169=ORIENTED_EDGE('',*,*,#242,.F.);
#170=ORIENTED_EDGE('',*,*,#239,.F.);
#171=ORIENTED_EDGE('',*,*,#244,.F.);
#172=ORIENTED_EDGE('',*,*,#237,.T.);
#173=ORIENTED_EDGE('',*,*,#243,.F.);
#174=ORIENTED_EDGE('',*,*,#245,.F.);
#175=ORIENTED_EDGE('',*,*,#244,.T.);
#176=ORIENTED_EDGE('',*,*,#246,.T.);
#177=ORIENTED_EDGE('',*,*,#247,.T.);
#178=ORIENTED_EDGE('',*,*,#246,.F.);
#179=ORIENTED_EDGE('',*,*,#238,.T.);
#180=ORIENTED_EDGE('',*,*,#245,.T.);
#181=ORIENTED_EDGE('',*,*,#248,.T.);
#182=ORIENTED_EDGE('',*,*,#249,.F.);
#183=ORIENTED_EDGE('',*,*,#248,.F.);
#184=ORIENTED_EDGE('',*,*,#250,.T.);
#185=ORIENTED_EDGE('',*,*,#251,.F.);
#186=ORIENTED_EDGE('',*,*,#250,.F.);
#187=ORIENTED_EDGE('',*,*,#247,.F.);
#188=ORIENTED_EDGE('',*,*,#249,.T.);
#189=ORIENTED_EDGE('',*,*,#252,.F.);
#190=ORIENTED_EDGE('',*,*,#253,.T.);
#191=ORIENTED_EDGE('',*,*,#254,.T.);
#192=ORIENTED_EDGE('',*,*,#255,.T.);
#193=ORIENTED_EDGE('',*,*,#253,.F.);
#194=ORIENTED_EDGE('',*,*,#256,.T.);
#195=ORIENTED_EDGE('',*,*,#257,.F.);
#196=ORIENTED_EDGE('',*,*,#258,.F.);
#197=ORIENTED_EDGE('',*,*,#252,.T.);
#198=ORIENTED_EDGE('',*,*,#259,.T.);
#199=ORIENTED_EDGE('',*,*,#257,.T.);
#200=ORIENTED_EDGE('',*,*,#259,.F.);
#201=ORIENTED_EDGE('',*,*,#251,.T.);
#202=ORIENTED_EDGE('',*,*,#258,.T.);
#203=ORIENTED_EDGE('',*,*,#260,.T.);
#204=ORIENTED_EDGE('',*,*,#256,.F.);
#205=ORIENTED_EDGE('',*,*,#254,.F.);
#206=ORIENTED_EDGE('',*,*,#255,.F.);
#207=ORIENTED_EDGE('',*,*,#260,.F.);
#208=VERTEX_POINT('',#536);
#209=VERTEX_POINT('',#537);
#210=VERTEX_POINT('',#539);
#211=VERTEX_POINT('',#545);
#212=VERTEX_POINT('',#547);
#213=VERTEX_POINT('',#554);
#214=VERTEX_POINT('',#555);
#215=VERTEX_POINT('',#559);
#216=VERTEX_POINT('',#560);
#217=VERTEX_POINT('',#562);
#218=VERTEX_POINT('',#564);
#219=VERTEX_POINT('',#575);
#220=VERTEX_POINT('',#577);
#221=VERTEX_POINT('',#583);
#222=VERTEX_POINT('',#585);
#223=VERTEX_POINT('',#591);
#224=VERTEX_POINT('',#592);
#225=VERTEX_POINT('',#596);
#226=VERTEX_POINT('',#598);
#227=EDGE_CURVE('',#208,#209,#293,.T.);
#228=EDGE_CURVE('',#208,#210,#294,.T.);
#229=EDGE_CURVE('',#210,#209,#118,.T.);
#230=EDGE_CURVE('',#209,#210,#119,.T.);
#231=EDGE_CURVE('',#211,#209,#295,.T.);
#232=EDGE_CURVE('',#212,#211,#120,.T.);
#233=EDGE_CURVE('',#212,#210,#296,.T.);
#234=EDGE_CURVE('',#211,#212,#121,.T.);
#235=EDGE_CURVE('',#213,#214,#122,.T.);
#236=EDGE_CURVE('',#214,#213,#123,.T.);
#237=EDGE_CURVE('',#215,#216,#297,.T.);
#238=EDGE_CURVE('',#217,#215,#124,.T.);
#239=EDGE_CURVE('',#217,#218,#298,.T.);
#240=EDGE_CURVE('',#216,#218,#125,.T.);
#241=EDGE_CURVE('',#216,#213,#299,.T.);
#242=EDGE_CURVE('',#218,#214,#300,.T.);
#243=EDGE_CURVE('',#218,#216,#126,.T.);
#244=EDGE_CURVE('',#215,#217,#127,.T.);
#245=EDGE_CURVE('',#215,#219,#128,.T.);
#246=EDGE_CURVE('',#217,#220,#129,.T.);
#247=EDGE_CURVE('',#220,#219,#130,.T.);
#248=EDGE_CURVE('',#219,#220,#131,.T.);
#249=EDGE_CURVE('',#220,#221,#301,.T.);
#250=EDGE_CURVE('',#219,#222,#302,.T.);
#251=EDGE_CURVE('',#221,#222,#132,.T.);
#252=EDGE_CURVE('',#222,#221,#133,.T.);
#253=EDGE_CURVE('',#223,#224,#134,.T.);
#254=EDGE_CURVE('',#224,#223,#135,.T.);
#255=EDGE_CURVE('',#225,#224,#303,.T.);
#256=EDGE_CURVE('',#223,#226,#304,.T.);
#257=EDGE_CURVE('',#225,#226,#136,.T.);
#258=EDGE_CURVE('',#222,#226,#137,.T.);
#259=EDGE_CURVE('',#221,#225,#138,.T.);
#260=EDGE_CURVE('',#226,#225,#139,.T.);
#261=CURVE_STYLE('',#274,POSITIVE_LENGTH_MEASURE(0.13),#272);
#262=CURVE_STYLE('',#275,POSITIVE_LENGTH_MEASURE(0.13),#272);
#263=CURVE_STYLE('',#276,POSITIVE_LENGTH_MEASURE(0.13),#272);
#264=CURVE_STYLE('',#277,POSITIVE_LENGTH_MEASURE(0.13),#272);
#265=CURVE_STYLE('',#278,POSITIVE_LENGTH_MEASURE(0.13),#355);
#266=CURVE_STYLE('',#279,POSITIVE_LENGTH_MEASURE(0.13),#355);
#267=CURVE_STYLE('',#280,POSITIVE_LENGTH_MEASURE(0.13),#356);
#268=CURVE_STYLE('',#281,POSITIVE_LENGTH_MEASURE(0.13),#273);
#269=CURVE_STYLE('',#282,POSITIVE_LENGTH_MEASURE(0.13),#273);
#270=CURVE_STYLE('',#283,POSITIVE_LENGTH_MEASURE(0.13),#355);
#271=CURVE_STYLE('',#284,POSITIVE_LENGTH_MEASURE(0.13),#355);
#272=DRAUGHTING_PRE_DEFINED_COLOUR('blue');
#273=DRAUGHTING_PRE_DEFINED_COLOUR('yellow');
#274=DRAUGHTING_PRE_DEFINED_CURVE_FONT('continuous');
#275=DRAUGHTING_PRE_DEFINED_CURVE_FONT('continuous');
#276=DRAUGHTING_PRE_DEFINED_CURVE_FONT('continuous');
#277=DRAUGHTING_PRE_DEFINED_CURVE_FONT('continuous');
#278=DRAUGHTING_PRE_DEFINED_CURVE_FONT('continuous');
#279=DRAUGHTING_PRE_DEFINED_CURVE_FONT('continuous');
#280=DRAUGHTING_PRE_DEFINED_CURVE_FONT('continuous');
#281=DRAUGHTING_PRE_DEFINED_CURVE_FONT('continuous');
#282=DRAUGHTING_PRE_DEFINED_CURVE_FONT('continuous');
#283=DRAUGHTING_PRE_DEFINED_CURVE_FONT('continuous');
#284=DRAUGHTING_PRE_DEFINED_CURVE_FONT('continuous');
#285=TRIMMED_CURVE('',#289,(PARAMETER_VALUE(0.)),(PARAMETER_VALUE(1.)),
 .T.,.PARAMETER.);
#286=TRIMMED_CURVE('',#290,(PARAMETER_VALUE(0.)),(PARAMETER_VALUE(1.)),
 .T.,.PARAMETER.);
#287=TRIMMED_CURVE('',#291,(PARAMETER_VALUE(0.)),(PARAMETER_VALUE(1.)),
 .T.,.PARAMETER.);
#288=TRIMMED_CURVE('',#292,(PARAMETER_VALUE(0.)),(PARAMETER_VALUE(1.)),
 .T.,.PARAMETER.);
#289=LINE('',#524,#305);
#290=LINE('',#525,#306);
#291=LINE('',#526,#307);
#292=LINE('',#527,#308);
#293=LINE('',#535,#309);
#294=LINE('',#538,#310);
#295=LINE('',#544,#311);
#296=LINE('',#548,#312);
#297=LINE('',#558,#313);
#298=LINE('',#563,#314);
#299=LINE('',#567,#315);
#300=LINE('',#568,#316);
#301=LINE('',#582,#317);
#302=LINE('',#584,#318);
#303=LINE('',#595,#319);
#304=LINE('',#597,#320);
#305=VECTOR('',#410,7.39138506184202);
#306=VECTOR('',#411,5.13079999999999);
#307=VECTOR('',#412,6.94563);
#308=VECTOR('',#413,7.658802578226);
#309=VECTOR('',#428,1.);
#310=VECTOR('',#429,1.);
#311=VECTOR('',#438,1.);
#312=VECTOR('',#441,1.);
#313=VECTOR('',#456,1.);
#314=VECTOR('',#459,1.);
#315=VECTOR('',#464,1.);
#316=VECTOR('',#465,1.);
#317=VECTOR('',#488,1.);
#318=VECTOR('',#489,1.);
#319=VECTOR('',#504,1.);
#320=VECTOR('',#505,1.);
#321=PRESENTATION_LAYER_ASSIGNMENT('1','Layer 1',(#523,#360,#361,#362,#363,
#365,#366,#42,#43));
#322=PRESENTATION_LAYER_ASSIGNMENT('2','Layer 2',(#285,#286,#287,#288));
#323=PRESENTATION_LAYER_ASSIGNMENT('3','Layer 3',(#364));
#324=STYLED_ITEM('',(#338),#523);
#325=STYLED_ITEM('',(#339),#285);
#326=STYLED_ITEM('',(#340),#286);
#327=STYLED_ITEM('',(#341),#287);
#328=STYLED_ITEM('',(#342),#288);
#329=STYLED_ITEM('',(#343),#360);
#330=STYLED_ITEM('',(#344),#361);
#331=STYLED_ITEM('',(#345),#362);
#332=STYLED_ITEM('',(#346),#363);
#333=STYLED_ITEM('',(#347),#364);
#334=STYLED_ITEM('',(#348),#365);
#335=STYLED_ITEM('',(#349),#366);
#336=STYLED_ITEM('',(#350),#42);
#337=STYLED_ITEM('',(#351),#43);
#338=PRESENTATION_STYLE_ASSIGNMENT((#352));
#339=PRESENTATION_STYLE_ASSIGNMENT((#261));
#340=PRESENTATION_STYLE_ASSIGNMENT((#262));
#341=PRESENTATION_STYLE_ASSIGNMENT((#263));
#342=PRESENTATION_STYLE_ASSIGNMENT((#264));
#343=PRESENTATION_STYLE_ASSIGNMENT((#265));
#344=PRESENTATION_STYLE_ASSIGNMENT((#266));
#345=PRESENTATION_STYLE_ASSIGNMENT((#267));
#346=PRESENTATION_STYLE_ASSIGNMENT((#268));
#347=PRESENTATION_STYLE_ASSIGNMENT((#269));
#348=PRESENTATION_STYLE_ASSIGNMENT((#270));
#349=PRESENTATION_STYLE_ASSIGNMENT((#271));
#350=PRESENTATION_STYLE_ASSIGNMENT((#32));
#351=PRESENTATION_STYLE_ASSIGNMENT((#33));
#352=POINT_STYLE('',#353,POSITIVE_LENGTH_MEASURE(3.),#354);
#353=PRE_DEFINED_POINT_MARKER_SYMBOL('plus');
#354=COLOUR_RGB('Medium Royal',0.301960784313725,0.427450980392157,0.701960784313725);
#355=COLOUR_RGB('Medium Maroon',0.6,0.4,0.4);
#356=COLOUR_RGB('Strong Gold',0.611764705882353,0.556862745098039,0.380392156862745);
#357=COLOUR_RGB('light gray',0.8,0.8,0.8);
#358=COLOUR_RGB('medium gray',0.490196078431373,0.490196078431373,0.490196078431373);
#359=AXIS2_PLACEMENT_3D('',#522,#408,#409);
#360=AXIS2_PLACEMENT_3D('',#528,#414,#415);
#361=AXIS2_PLACEMENT_3D('',#529,#416,#417);
#362=AXIS2_PLACEMENT_3D('MCS',#530,#418,#419);
#363=AXIS2_PLACEMENT_3D('CIP',#531,#420,#421);
#364=AXIS2_PLACEMENT_3D('PCS',#532,#422,#423);
#365=AXIS2_PLACEMENT_3D('',#533,#424,#425);
#366=AXIS2_PLACEMENT_3D('',#534,#426,#427);
#367=AXIS2_PLACEMENT_3D('',#540,#430,#431);
#368=AXIS2_PLACEMENT_3D('',#541,#432,#433);
#369=AXIS2_PLACEMENT_3D('',#542,#434,#435);
#370=AXIS2_PLACEMENT_3D('',#543,#436,#437);
#371=AXIS2_PLACEMENT_3D('',#546,#439,#440);
#372=AXIS2_PLACEMENT_3D('',#549,#442,#443);
#373=AXIS2_PLACEMENT_3D('',#550,#444,#445);
#374=AXIS2_PLACEMENT_3D('',#551,#446,#447);
#375=AXIS2_PLACEMENT_3D('',#552,#448,#449);
#376=AXIS2_PLACEMENT_3D('',#553,#450,#451);
#377=AXIS2_PLACEMENT_3D('',#556,#452,#453);
#378=AXIS2_PLACEMENT_3D('',#557,#454,#455);
#379=AXIS2_PLACEMENT_3D('',#561,#457,#458);
#380=AXIS2_PLACEMENT_3D('',#565,#460,#461);
#381=AXIS2_PLACEMENT_3D('',#566,#462,#463);
#382=AXIS2_PLACEMENT_3D('',#569,#466,#467);
#383=AXIS2_PLACEMENT_3D('',#570,#468,#469);
#384=AXIS2_PLACEMENT_3D('',#571,#470,#471);
#385=AXIS2_PLACEMENT_3D('',#572,#472,#473);
#386=AXIS2_PLACEMENT_3D('',#573,#474,#475);
#387=AXIS2_PLACEMENT_3D('',#574,#476,#477);
#388=AXIS2_PLACEMENT_3D('',#576,#478,#479);
#389=AXIS2_PLACEMENT_3D('',#578,#480,#481);
#390=AXIS2_PLACEMENT_3D('',#579,#482,#483);
#391=AXIS2_PLACEMENT_3D('',#580,#484,#485);
#392=AXIS2_PLACEMENT_3D('',#581,#486,#487);
#393=AXIS2_PLACEMENT_3D('',#586,#490,#491);
#394=AXIS2_PLACEMENT_3D('',#587,#492,#493);
#395=AXIS2_PLACEMENT_3D('',#588,#494,#495);
#396=AXIS2_PLACEMENT_3D('',#589,#496,#497);
#397=AXIS2_PLACEMENT_3D('',#590,#498,#499);
#398=AXIS2_PLACEMENT_3D('',#593,#500,#501);
#399=AXIS2_PLACEMENT_3D('',#594,#502,#503);
#400=AXIS2_PLACEMENT_3D('',#599,#506,#507);
#401=AXIS2_PLACEMENT_3D('',#600,#508,#509);
#402=AXIS2_PLACEMENT_3D('',#601,#510,#511);
#403=AXIS2_PLACEMENT_3D('',#602,#512,#513);
#404=AXIS2_PLACEMENT_3D('',#603,#514,#515);
#405=AXIS2_PLACEMENT_3D('',#604,#516,#517);
#406=AXIS2_PLACEMENT_3D('',#605,#518,#519);
#407=AXIS2_PLACEMENT_3D('',#606,#520,#521);
#408=DIRECTION('',(0.,0.,1.));
#409=DIRECTION('',(1.,0.,0.));
#410=DIRECTION('',(-0.939692620785898,0.,0.342020143325698));
#411=DIRECTION('',(0.,0.,1.));
#412=DIRECTION('',(1.,0.,0.));
#413=DIRECTION('',(0.,0.,1.));
#414=DIRECTION('',(0.,0.,1.));
#415=DIRECTION('',(1.,0.,0.));
#416=DIRECTION('',(0.,0.,1.));
#417=DIRECTION('',(1.,0.,0.));
#418=DIRECTION('',(0.,0.,1.));
#419=DIRECTION('',(1.,0.,0.));
#420=DIRECTION('',(0.,0.,1.));
#421=DIRECTION('',(1.,0.,0.));
#422=DIRECTION('',(0.,0.,1.));
#423=DIRECTION('',(1.,0.,0.));
#424=DIRECTION('',(0.,0.,1.));
#425=DIRECTION('',(1.,0.,0.));
#426=DIRECTION('',(0.,0.,1.));
#427=DIRECTION('',(1.,0.,0.));
#428=DIRECTION('',(0.93969262078593,0.,0.342020143325611));
#429=DIRECTION('',(-0.93969262078593,0.,0.342020143325611));
#430=DIRECTION('',(0.,0.,-1.));
#431=DIRECTION('',(-1.,0.,0.));
#432=DIRECTION('',(0.,0.,1.));
#433=DIRECTION('',(1.,0.,1.00891423918488E-17));
#434=DIRECTION('',(0.,0.,-1.));
#435=DIRECTION('',(1.,0.,0.));
#436=DIRECTION('',(0.,0.,1.));
#437=DIRECTION('',(1.,0.,1.00891423918488E-17));
#438=DIRECTION('',(-2.769715193577E-14,0.,-1.));
#439=DIRECTION('',(0.,0.,1.));
#440=DIRECTION('',(-1.,0.,0.));
#441=DIRECTION('',(2.769715193577E-14,0.,-1.));
#442=DIRECTION('',(0.,0.,1.));
#443=DIRECTION('',(1.,0.,0.));
#444=DIRECTION('',(0.,0.,1.));
#445=DIRECTION('',(1.,0.,0.));
#446=DIRECTION('',(0.,0.,1.));
#447=DIRECTION('',(1.,0.,0.));
#448=DIRECTION('',(0.,0.,1.));
#449=DIRECTION('',(1.,0.,0.));
#450=DIRECTION('',(0.,0.,1.));
#451=DIRECTION('',(-1.,0.,0.));
#452=DIRECTION('',(0.,0.,1.));
#453=DIRECTION('',(1.,0.,0.));
#454=DIRECTION('',(0.,0.,1.));
#455=DIRECTION('',(-1.,0.,0.));
#456=DIRECTION('',(-2.392289264995E-14,0.,1.));
#457=DIRECTION('',(0.,0.,-1.));
#458=DIRECTION('',(1.,0.,0.));
#459=DIRECTION('',(2.394220087646E-14,0.,1.));
#460=DIRECTION('',(0.,0.,1.));
#461=DIRECTION('',(-1.,0.,0.));
#462=DIRECTION('',(0.,0.,1.));
#463=DIRECTION('',(-1.,0.,0.));
#464=DIRECTION('',(0.500000000000017,0.,0.866025403784429));
#465=DIRECTION('',(-0.500000000000017,0.,0.866025403784429));
#466=DIRECTION('',(0.,0.,-1.));
#467=DIRECTION('',(1.,0.,-5.933605920034E-17));
#468=DIRECTION('',(0.,0.,1.));
#469=DIRECTION('',(1.,0.,0.));
#470=DIRECTION('',(0.,0.,-1.));
#471=DIRECTION('',(1.,0.,-5.933605920034E-17));
#472=DIRECTION('',(0.,0.,-1.));
#473=DIRECTION('',(-1.,0.,0.));
#474=DIRECTION('',(0.,0.,1.));
#475=DIRECTION('',(-1.,0.,0.));
#476=DIRECTION('',(0.,1.,0.));
#477=DIRECTION('',(0.472046253152409,0.,0.881573783006713));
#478=DIRECTION('',(0.,-1.,0.));
#479=DIRECTION('',(-0.472046253122472,0.,0.881573783022742));
#480=DIRECTION('',(0.,0.,1.));
#481=DIRECTION('',(1.,0.,0.));
#482=DIRECTION('',(0.,0.,1.));
#483=DIRECTION('',(-0.999999999702917,-2.43755061551904E-5,0.));
#484=DIRECTION('',(0.,0.,1.));
#485=DIRECTION('',(-1.,0.,0.));
#486=DIRECTION('',(0.,0.,1.));
#487=DIRECTION('',(0.999999999710921,2.40449378275305E-5,0.));
#488=DIRECTION('',(-0.0697564737441516,0.,-0.997564050259823));
#489=DIRECTION('',(0.0697564737441516,0.,-0.997564050259823));
#490=DIRECTION('',(0.,0.,-1.));
#491=DIRECTION('',(1.,0.,0.));
#492=DIRECTION('',(0.,0.,1.));
#493=DIRECTION('',(-1.,0.,6.7401902671418E-16));
#494=DIRECTION('',(0.,0.,-1.));
#495=DIRECTION('',(-1.,0.,0.));
#496=DIRECTION('',(0.,0.,1.));
#497=DIRECTION('',(-1.,0.,-1.79738407123788E-16));
#498=DIRECTION('',(0.,0.,-1.));
#499=DIRECTION('',(-1.,0.,0.));
#500=DIRECTION('',(0.,0.,-1.));
#501=DIRECTION('',(1.,0.,0.));
#502=DIRECTION('',(0.,0.,1.));
#503=DIRECTION('',(1.,0.,0.));
#504=DIRECTION('',(0.,0.,-1.));
#505=DIRECTION('',(0.,0.,1.));
#506=DIRECTION('',(0.,0.,1.));
#507=DIRECTION('',(1.,0.,0.));
#508=DIRECTION('',(0.,0.,1.));
#509=DIRECTION('',(-1.,0.,0.));
#510=DIRECTION('',(0.,1.,0.));
#511=DIRECTION('',(0.272621388680808,0.,0.962121394852931));
#512=DIRECTION('',(0.,-1.,0.));
#513=DIRECTION('',(-0.272621388687786,0.,0.962121394850954));
#514=DIRECTION('',(0.,0.,1.));
#515=DIRECTION('',(-0.999999999590005,-2.86354786525401E-5,0.));
#516=DIRECTION('',(0.,0.,1.));
#517=DIRECTION('',(-1.,0.,0.));
#518=DIRECTION('',(0.,0.,1.));
#519=DIRECTION('',(0.999999999600907,2.82521808441202E-5,0.));
#520=DIRECTION('',(0.,0.,1.));
#521=DIRECTION('',(-1.,0.,0.));
#522=CARTESIAN_POINT('',(0.,0.,0.));
#523=CARTESIAN_POINT('',(-6.94563,0.,-110.5045536817));
#524=CARTESIAN_POINT('',(0.,0.,-113.03255626));
#525=CARTESIAN_POINT('',(-6.94563,0.,-110.5045536817));
#526=CARTESIAN_POINT('',(-6.94563,0.,-105.3737536818));
#527=CARTESIAN_POINT('',(0.,0.,-113.03255626));
#528=CARTESIAN_POINT('',(0.,0.,-23.5));
#529=CARTESIAN_POINT('',(0.,0.,-23.5));
#530=CARTESIAN_POINT('',(0.,0.,-23.5));
#531=CARTESIAN_POINT('',(0.,0.,-113.03255626));
#532=CARTESIAN_POINT('',(0.,0.,0.));
#533=CARTESIAN_POINT('',(0.,0.,-23.5));
#534=CARTESIAN_POINT('',(0.,0.,-23.5));
#535=CARTESIAN_POINT('',(6.94563,0.,-110.50455368175));
#536=CARTESIAN_POINT('',(0.,0.,-113.03255625998));
#537=CARTESIAN_POINT('',(6.94563,0.,-110.50455368175));
#538=CARTESIAN_POINT('',(-6.94563,0.,-110.50455368175));
#539=CARTESIAN_POINT('',(-6.94563,0.,-110.50455368175));
#540=CARTESIAN_POINT('',(0.,0.,-110.50455368175));
#541=CARTESIAN_POINT('',(0.,0.,-111.74327494508));
#542=CARTESIAN_POINT('',(0.,0.,-110.50455368175));
#543=CARTESIAN_POINT('',(0.,0.,-111.74327494508));
#544=CARTESIAN_POINT('',(6.94563,0.,-110.50455368175));
#545=CARTESIAN_POINT('',(6.94563,0.,-105.37375368175));
#546=CARTESIAN_POINT('',(0.,0.,-105.37375368175));
#547=CARTESIAN_POINT('',(-6.94563,0.,-105.37375368175));
#548=CARTESIAN_POINT('',(-6.94563,0.,-110.50455368175));
#549=CARTESIAN_POINT('',(0.,0.,-113.41549638889));
#550=CARTESIAN_POINT('',(0.,0.,-105.37375368175));
#551=CARTESIAN_POINT('',(0.,0.,-113.41549638889));
#552=CARTESIAN_POINT('',(0.,0.,-105.37375368175));
#553=CARTESIAN_POINT('',(0.,0.,24.5));
#554=CARTESIAN_POINT('',(-6.782799461621,0.,24.5));
#555=CARTESIAN_POINT('',(6.782799461621,0.,24.5));
#556=CARTESIAN_POINT('',(0.,0.,24.5));
#557=CARTESIAN_POINT('',(0.,0.,24.5));
#558=CARTESIAN_POINT('',(-7.937499999999,-1.156354052484E-14,-23.5000000046391));
#559=CARTESIAN_POINT('',(-7.937499999994,-2.13193327431E-14,-23.5000000046073));
#560=CARTESIAN_POINT('',(-7.9375,0.,22.5));
#561=CARTESIAN_POINT('',(0.,0.,-23.5000000046073));
#562=CARTESIAN_POINT('',(7.937500000001,0.,-23.5000000046709));
#563=CARTESIAN_POINT('',(7.937499999999,1.596973815382E-14,-23.5000000046391));
#564=CARTESIAN_POINT('',(7.9375,0.,22.5));
#565=CARTESIAN_POINT('',(0.,0.,22.5));
#566=CARTESIAN_POINT('',(0.,0.,-130.9));
#567=CARTESIAN_POINT('',(-6.782799461621,0.,24.5));
#568=CARTESIAN_POINT('',(6.782799461621,0.,24.5));
#569=CARTESIAN_POINT('',(0.,0.,23.5));
#570=CARTESIAN_POINT('',(0.,0.,22.5));
#571=CARTESIAN_POINT('',(0.,0.,23.5));
#572=CARTESIAN_POINT('',(0.,0.,-23.5000000046709));
#573=CARTESIAN_POINT('',(0.,0.,-130.9));
#574=CARTESIAN_POINT('',(-8.126318501255,-2.182648051012E-14,-23.85262951781));
#575=CARTESIAN_POINT('',(-7.727292881151,0.,-23.82472692831));
#576=CARTESIAN_POINT('',(8.12631850125,2.851362266958E-14,-23.85262951788));
#577=CARTESIAN_POINT('',(7.727292881149,2.241003612036E-14,-23.824726928345));
#578=CARTESIAN_POINT('',(0.,0.,-23.82472692838));
#579=CARTESIAN_POINT('',(0.,0.,-23.85262951788));
#580=CARTESIAN_POINT('',(0.,0.,-23.82472692831));
#581=CARTESIAN_POINT('',(0.,0.,-23.85262951781));
#582=CARTESIAN_POINT('',(6.840951444526,1.858202793102E-14,-36.50000000297));
#583=CARTESIAN_POINT('',(6.840951444525,1.131419595752E-14,-36.50000000299));
#584=CARTESIAN_POINT('',(-6.840951444526,0.,-36.50000000297));
#585=CARTESIAN_POINT('',(-6.840951444528,0.,-36.50000000295));
#586=CARTESIAN_POINT('',(0.,0.,-36.50000000295));
#587=CARTESIAN_POINT('',(0.,0.,-30.16236346563));
#588=CARTESIAN_POINT('',(0.,0.,-36.50000000299));
#589=CARTESIAN_POINT('',(0.,0.,-30.162363465685));
#590=CARTESIAN_POINT('',(0.,0.,-105.37375368175));
#591=CARTESIAN_POINT('',(-6.55,0.,-105.37375368175));
#592=CARTESIAN_POINT('',(6.55,0.,-105.37375368175));
#593=CARTESIAN_POINT('',(0.,0.,-105.37375368175));
#594=CARTESIAN_POINT('',(0.,0.,-105.37375368175));
#595=CARTESIAN_POINT('',(6.55,1.197414051904E-14,-36.88484856091));
#596=CARTESIAN_POINT('',(6.55,0.,-36.88484856089));
#597=CARTESIAN_POINT('',(-6.55,0.,-105.37375368175));
#598=CARTESIAN_POINT('',(-6.55,0.,-36.88484856089));
#599=CARTESIAN_POINT('',(0.,0.,-36.88484856093));
#600=CARTESIAN_POINT('',(0.,0.,-130.9));
#601=CARTESIAN_POINT('',(-6.95,0.,-36.88484856089));
#602=CARTESIAN_POINT('',(6.95,2.504398598224E-14,-36.88484856093));
#603=CARTESIAN_POINT('',(0.,0.,-36.88484856093));
#604=CARTESIAN_POINT('',(0.,0.,-36.88484856089));
#605=CARTESIAN_POINT('',(0.,0.,-36.88484856089));
#606=CARTESIAN_POINT('',(0.,0.,-130.9));
#607=MECHANICAL_DESIGN_GEOMETRIC_PRESENTATION_REPRESENTATION('',(#324,#325,
#326,#327,#328,#329,#330,#331,#332,#333,#334,#335,#336,#337),#608);
#608=(
GEOMETRIC_REPRESENTATION_CONTEXT(3)
GLOBAL_UNCERTAINTY_ASSIGNED_CONTEXT((#609))
GLOBAL_UNIT_ASSIGNED_CONTEXT((#615,#611,#610))
REPRESENTATION_CONTEXT('STAWMN0035_ID0_5469','TOP_LEVEL_ASSEMBLY_PART')
);
#609=UNCERTAINTY_MEASURE_WITH_UNIT(LENGTH_MEASURE(0.001),#615,
'DISTANCE_ACCURACY_VALUE','Maximum Tolerance applied to model');
#610=(
NAMED_UNIT(*)
SI_UNIT($,.STERADIAN.)
SOLID_ANGLE_UNIT()
);
#611=(
CONVERSION_BASED_UNIT('DEGREE',#613)
NAMED_UNIT(#612)
PLANE_ANGLE_UNIT()
);
#612=DIMENSIONAL_EXPONENTS(0.,0.,0.,0.,0.,0.,0.);
#613=PLANE_ANGLE_MEASURE_WITH_UNIT(PLANE_ANGLE_MEASURE(0.0174532925),#614);
#614=(
NAMED_UNIT(*)
PLANE_ANGLE_UNIT()
SI_UNIT($,.RADIAN.)
);
#615=(
LENGTH_UNIT()
NAMED_UNIT(*)
SI_UNIT(.MILLI.,.METRE.)
);
ENDSEC;
END-ISO-10303-21;
