ISO-10303-21;
HEADER;
/* Generated by software containing ST-Developer
 * from STEP Tools, Inc. (www.steptools.com) 
 */
/* OPTION: using custom schema-name function */

FILE_DESCRIPTION(
/* description */ (''),
/* implementation_level */ '2;1');

FILE_NAME(
/* name */ 'STAWMN0027_ID0_4219.stp',
/* time_stamp */ '2025-06-11T16:55:00+09:00',
/* author */ (''),
/* organization */ (''),
/* preprocessor_version */ 'ST-DEVELOPER v18.101',
/* originating_system */ 'SIEMENS PLM Software NX 2011',
/* authorisation */ '');

FILE_SCHEMA (('AUTOMOTIVE_DESIGN { 1 0 10303 214 3 1 1 1 }'));
ENDSEC;

DATA;
#10=CONSTRUCTIVE_GEOMETRY_REPRESENTATION_RELATIONSHIP(
'supplemental geometry','',#26,#11);
#11=CONSTRUCTIVE_GEOMETRY_REPRESENTATION('supplemental geometry',(#360,
#361,#362,#363,#364,#365,#366),#608);
#12=GEOMETRICALLY_BOUNDED_WIREFRAME_SHAPE_REPRESENTATION(
'STAWMN0027_ID0_4219-None',(#27),#608);
#13=SHAPE_REPRESENTATION_RELATIONSHIP('None',
'relationship between STAWMN0027_ID0_4219-None and STAWMN0027_ID0_4219
-None',#26,#15);
#14=SHAPE_REPRESENTATION_RELATIONSHIP('None',
'relationship between STAWMN0027_ID0_4219-None and STAWMN0027_ID0_4219
-None',#26,#12);
#15=ADVANCED_BREP_SHAPE_REPRESENTATION('STAWMN0027_ID0_4219-None',(#42,
#43),#608);
#16=SHAPE_DEFINITION_REPRESENTATION(#17,#26);
#17=PRODUCT_DEFINITION_SHAPE('','SHAPE FOR STAWMN0027_ID0_4219_ASM.',#18);
#18=PRODUCT_DEFINITION('part definition','',#20,#19);
#19=PRODUCT_DEFINITION_CONTEXT('part definition',#25,'design');
#20=PRODUCT_DEFINITION_FORMATION_WITH_SPECIFIED_SOURCE(' ',' ',#22,
 .NOT_KNOWN.);
#21=PRODUCT_RELATED_PRODUCT_CATEGORY('part','',(#22));
#22=PRODUCT('STAWMN0027_ID0_4219_ASM','STAWMN0027_ID0_4219_ASM',
'NOT SPECIFIED',(#23));
#23=PRODUCT_CONTEXT('',#25,'mechanical');
#24=APPLICATION_PROTOCOL_DEFINITION('international standard',
'automotive_design',2010,#25);
#25=APPLICATION_CONTEXT(
'core data for automotive mechanical design processes');
#26=SHAPE_REPRESENTATION('STAWMN0027_ID0_4219-None',(#359),#608);
#27=GEOMETRIC_CURVE_SET('None',(#523,#285,#286,#287,#288));
#28=TOROIDAL_SURFACE('',#393,8.067968477581,0.4);
#29=TOROIDAL_SURFACE('',#395,8.067968477568,0.4);
#30=TOROIDAL_SURFACE('',#403,5.45,0.4);
#31=TOROIDAL_SURFACE('',#405,5.45,0.4);
#32=SURFACE_STYLE_USAGE(.BOTH.,#34);
#33=SURFACE_STYLE_USAGE(.BOTH.,#35);
#34=SURFACE_SIDE_STYLE('',(#36));
#35=SURFACE_SIDE_STYLE('',(#37));
#36=SURFACE_STYLE_FILL_AREA(#38);
#37=SURFACE_STYLE_FILL_AREA(#39);
#38=FILL_AREA_STYLE('',(#40));
#39=FILL_AREA_STYLE('',(#41));
#40=FILL_AREA_STYLE_COLOUR('',#357);
#41=FILL_AREA_STYLE_COLOUR('',#358);
#42=MANIFOLD_SOLID_BREP('CUT',#44);
#43=MANIFOLD_SOLID_BREP('NOCUT',#45);
#44=CLOSED_SHELL('',(#55,#56,#57,#58,#59));
#45=CLOSED_SHELL('',(#60,#61,#62,#63,#64,#65,#66,#67,#68,#69,#70,#71,#72,
#73));
#46=PLANE('',#375);
#47=PLANE('',#378);
#48=PLANE('',#384);
#49=CYLINDRICAL_SURFACE('',#372,5.35813);
#50=CYLINDRICAL_SURFACE('',#374,5.35813);
#51=CYLINDRICAL_SURFACE('',#381,7.9375);
#52=CYLINDRICAL_SURFACE('',#389,7.9375);
#53=CYLINDRICAL_SURFACE('',#406,5.05);
#54=CYLINDRICAL_SURFACE('',#407,5.05);
#55=ADVANCED_FACE('',(#80),#74,.T.);
#56=ADVANCED_FACE('',(#81),#75,.T.);
#57=ADVANCED_FACE('',(#82),#49,.T.);
#58=ADVANCED_FACE('',(#83),#50,.T.);
#59=ADVANCED_FACE('',(#84),#46,.T.);
#60=ADVANCED_FACE('',(#85),#47,.F.);
#61=ADVANCED_FACE('',(#86),#51,.T.);
#62=ADVANCED_FACE('',(#87),#48,.T.);
#63=ADVANCED_FACE('',(#88),#76,.T.);
#64=ADVANCED_FACE('',(#89),#77,.T.);
#65=ADVANCED_FACE('',(#90),#52,.T.);
#66=ADVANCED_FACE('',(#91),#28,.F.);
#67=ADVANCED_FACE('',(#92),#29,.F.);
#68=ADVANCED_FACE('',(#93),#78,.T.);
#69=ADVANCED_FACE('',(#94),#79,.T.);
#70=ADVANCED_FACE('',(#95),#30,.F.);
#71=ADVANCED_FACE('',(#96),#31,.F.);
#72=ADVANCED_FACE('',(#97),#53,.T.);
#73=ADVANCED_FACE('',(#98),#54,.T.);
#74=CONICAL_SURFACE('',#368,2.7326463,70.0000971436908);
#75=CONICAL_SURFACE('',#370,2.7326463,70.0000971436908);
#76=CONICAL_SURFACE('',#385,7.36014973081,30.0000416330103);
#77=CONICAL_SURFACE('',#387,7.36014973081,30.0000416330103);
#78=CONICAL_SURFACE('',#397,6.468285078219,14.0000194287382);
#79=CONICAL_SURFACE('',#399,6.468285078243,14.0000194287382);
#80=FACE_OUTER_BOUND('',#99,.T.);
#81=FACE_OUTER_BOUND('',#100,.T.);
#82=FACE_OUTER_BOUND('',#101,.T.);
#83=FACE_OUTER_BOUND('',#102,.T.);
#84=FACE_OUTER_BOUND('',#103,.T.);
#85=FACE_OUTER_BOUND('',#104,.T.);
#86=FACE_OUTER_BOUND('',#105,.T.);
#87=FACE_OUTER_BOUND('',#106,.T.);
#88=FACE_OUTER_BOUND('',#107,.T.);
#89=FACE_OUTER_BOUND('',#108,.T.);
#90=FACE_OUTER_BOUND('',#109,.T.);
#91=FACE_OUTER_BOUND('',#110,.T.);
#92=FACE_OUTER_BOUND('',#111,.T.);
#93=FACE_OUTER_BOUND('',#112,.T.);
#94=FACE_OUTER_BOUND('',#113,.T.);
#95=FACE_OUTER_BOUND('',#114,.T.);
#96=FACE_OUTER_BOUND('',#115,.T.);
#97=FACE_OUTER_BOUND('',#116,.T.);
#98=FACE_OUTER_BOUND('',#117,.T.);
#99=EDGE_LOOP('',(#140,#141,#142));
#100=EDGE_LOOP('',(#143,#144,#145));
#101=EDGE_LOOP('',(#146,#147,#148,#149));
#102=EDGE_LOOP('',(#150,#151,#152,#153));
#103=EDGE_LOOP('',(#154,#155));
#104=EDGE_LOOP('',(#156,#157));
#105=EDGE_LOOP('',(#158,#159,#160,#161));
#106=EDGE_LOOP('',(#162,#163));
#107=EDGE_LOOP('',(#164,#165,#166,#167));
#108=EDGE_LOOP('',(#168,#169,#170,#171));
#109=EDGE_LOOP('',(#172,#173,#174,#175));
#110=EDGE_LOOP('',(#176,#177,#178,#179));
#111=EDGE_LOOP('',(#180,#181,#182,#183));
#112=EDGE_LOOP('',(#184,#185,#186,#187));
#113=EDGE_LOOP('',(#188,#189,#190,#191));
#114=EDGE_LOOP('',(#192,#193,#194,#195));
#115=EDGE_LOOP('',(#196,#197,#198,#199));
#116=EDGE_LOOP('',(#200,#201,#202,#203));
#117=EDGE_LOOP('',(#204,#205,#206,#207));
#118=CIRCLE('',#367,5.35813);
#119=CIRCLE('',#369,5.35813);
#120=CIRCLE('',#371,5.35813);
#121=CIRCLE('',#373,5.35813);
#122=CIRCLE('',#376,5.05);
#123=CIRCLE('',#377,5.05);
#124=CIRCLE('',#379,7.937499999997);
#125=CIRCLE('',#380,7.9375);
#126=CIRCLE('',#382,6.782799461621);
#127=CIRCLE('',#383,6.782799461621);
#128=CIRCLE('',#386,7.9375);
#129=CIRCLE('',#388,7.9375);
#130=CIRCLE('',#390,0.4);
#131=CIRCLE('',#391,0.4);
#132=CIRCLE('',#392,7.679850187071);
#133=CIRCLE('',#394,7.679850187058);
#134=CIRCLE('',#396,5.256719969386);
#135=CIRCLE('',#398,5.256719969419);
#136=CIRCLE('',#400,0.4);
#137=CIRCLE('',#401,0.4);
#138=CIRCLE('',#402,5.05);
#139=CIRCLE('',#404,5.05);
#140=ORIENTED_EDGE('',*,*,#227,.F.);
#141=ORIENTED_EDGE('',*,*,#228,.T.);
#142=ORIENTED_EDGE('',*,*,#229,.T.);
#143=ORIENTED_EDGE('',*,*,#230,.T.);
#144=ORIENTED_EDGE('',*,*,#228,.F.);
#145=ORIENTED_EDGE('',*,*,#227,.T.);
#146=ORIENTED_EDGE('',*,*,#230,.F.);
#147=ORIENTED_EDGE('',*,*,#231,.F.);
#148=ORIENTED_EDGE('',*,*,#232,.F.);
#149=ORIENTED_EDGE('',*,*,#233,.T.);
#150=ORIENTED_EDGE('',*,*,#229,.F.);
#151=ORIENTED_EDGE('',*,*,#233,.F.);
#152=ORIENTED_EDGE('',*,*,#234,.F.);
#153=ORIENTED_EDGE('',*,*,#231,.T.);
#154=ORIENTED_EDGE('',*,*,#232,.T.);
#155=ORIENTED_EDGE('',*,*,#234,.T.);
#156=ORIENTED_EDGE('',*,*,#235,.T.);
#157=ORIENTED_EDGE('',*,*,#236,.T.);
#158=ORIENTED_EDGE('',*,*,#237,.F.);
#159=ORIENTED_EDGE('',*,*,#238,.F.);
#160=ORIENTED_EDGE('',*,*,#239,.T.);
#161=ORIENTED_EDGE('',*,*,#240,.F.);
#162=ORIENTED_EDGE('',*,*,#241,.T.);
#163=ORIENTED_EDGE('',*,*,#242,.T.);
#164=ORIENTED_EDGE('',*,*,#240,.T.);
#165=ORIENTED_EDGE('',*,*,#243,.F.);
#166=ORIENTED_EDGE('',*,*,#242,.F.);
#167=ORIENTED_EDGE('',*,*,#244,.T.);
#168=ORIENTED_EDGE('',*,*,#241,.F.);
#169=ORIENTED_EDGE('',*,*,#243,.T.);
#170=ORIENTED_EDGE('',*,*,#245,.T.);
#171=ORIENTED_EDGE('',*,*,#244,.F.);
#172=ORIENTED_EDGE('',*,*,#239,.F.);
#173=ORIENTED_EDGE('',*,*,#246,.F.);
#174=ORIENTED_EDGE('',*,*,#237,.T.);
#175=ORIENTED_EDGE('',*,*,#245,.F.);
#176=ORIENTED_EDGE('',*,*,#247,.F.);
#177=ORIENTED_EDGE('',*,*,#246,.T.);
#178=ORIENTED_EDGE('',*,*,#248,.T.);
#179=ORIENTED_EDGE('',*,*,#249,.T.);
#180=ORIENTED_EDGE('',*,*,#248,.F.);
#181=ORIENTED_EDGE('',*,*,#238,.T.);
#182=ORIENTED_EDGE('',*,*,#247,.T.);
#183=ORIENTED_EDGE('',*,*,#250,.T.);
#184=ORIENTED_EDGE('',*,*,#251,.F.);
#185=ORIENTED_EDGE('',*,*,#250,.F.);
#186=ORIENTED_EDGE('',*,*,#252,.T.);
#187=ORIENTED_EDGE('',*,*,#253,.F.);
#188=ORIENTED_EDGE('',*,*,#252,.F.);
#189=ORIENTED_EDGE('',*,*,#249,.F.);
#190=ORIENTED_EDGE('',*,*,#251,.T.);
#191=ORIENTED_EDGE('',*,*,#254,.F.);
#192=ORIENTED_EDGE('',*,*,#255,.F.);
#193=ORIENTED_EDGE('',*,*,#254,.T.);
#194=ORIENTED_EDGE('',*,*,#256,.T.);
#195=ORIENTED_EDGE('',*,*,#257,.T.);
#196=ORIENTED_EDGE('',*,*,#256,.F.);
#197=ORIENTED_EDGE('',*,*,#253,.T.);
#198=ORIENTED_EDGE('',*,*,#255,.T.);
#199=ORIENTED_EDGE('',*,*,#258,.T.);
#200=ORIENTED_EDGE('',*,*,#236,.F.);
#201=ORIENTED_EDGE('',*,*,#259,.F.);
#202=ORIENTED_EDGE('',*,*,#258,.F.);
#203=ORIENTED_EDGE('',*,*,#260,.F.);
#204=ORIENTED_EDGE('',*,*,#235,.F.);
#205=ORIENTED_EDGE('',*,*,#260,.T.);
#206=ORIENTED_EDGE('',*,*,#257,.F.);
#207=ORIENTED_EDGE('',*,*,#259,.T.);
#208=VERTEX_POINT('',#536);
#209=VERTEX_POINT('',#537);
#210=VERTEX_POINT('',#539);
#211=VERTEX_POINT('',#545);
#212=VERTEX_POINT('',#547);
#213=VERTEX_POINT('',#554);
#214=VERTEX_POINT('',#555);
#215=VERTEX_POINT('',#559);
#216=VERTEX_POINT('',#560);
#217=VERTEX_POINT('',#562);
#218=VERTEX_POINT('',#564);
#219=VERTEX_POINT('',#568);
#220=VERTEX_POINT('',#569);
#221=VERTEX_POINT('',#580);
#222=VERTEX_POINT('',#582);
#223=VERTEX_POINT('',#588);
#224=VERTEX_POINT('',#590);
#225=VERTEX_POINT('',#596);
#226=VERTEX_POINT('',#598);
#227=EDGE_CURVE('',#208,#209,#293,.T.);
#228=EDGE_CURVE('',#208,#210,#294,.T.);
#229=EDGE_CURVE('',#210,#209,#118,.T.);
#230=EDGE_CURVE('',#209,#210,#119,.T.);
#231=EDGE_CURVE('',#211,#209,#295,.T.);
#232=EDGE_CURVE('',#212,#211,#120,.T.);
#233=EDGE_CURVE('',#212,#210,#296,.T.);
#234=EDGE_CURVE('',#211,#212,#121,.T.);
#235=EDGE_CURVE('',#213,#214,#122,.T.);
#236=EDGE_CURVE('',#214,#213,#123,.T.);
#237=EDGE_CURVE('',#215,#216,#297,.T.);
#238=EDGE_CURVE('',#217,#215,#124,.T.);
#239=EDGE_CURVE('',#217,#218,#298,.T.);
#240=EDGE_CURVE('',#216,#218,#125,.T.);
#241=EDGE_CURVE('',#219,#220,#126,.T.);
#242=EDGE_CURVE('',#220,#219,#127,.T.);
#243=EDGE_CURVE('',#219,#218,#299,.T.);
#244=EDGE_CURVE('',#220,#216,#300,.T.);
#245=EDGE_CURVE('',#218,#216,#128,.T.);
#246=EDGE_CURVE('',#215,#217,#129,.T.);
#247=EDGE_CURVE('',#215,#221,#130,.T.);
#248=EDGE_CURVE('',#217,#222,#131,.T.);
#249=EDGE_CURVE('',#222,#221,#132,.T.);
#250=EDGE_CURVE('',#221,#222,#133,.T.);
#251=EDGE_CURVE('',#222,#223,#301,.T.);
#252=EDGE_CURVE('',#221,#224,#302,.T.);
#253=EDGE_CURVE('',#223,#224,#134,.T.);
#254=EDGE_CURVE('',#224,#223,#135,.T.);
#255=EDGE_CURVE('',#224,#225,#136,.T.);
#256=EDGE_CURVE('',#223,#226,#137,.T.);
#257=EDGE_CURVE('',#226,#225,#138,.T.);
#258=EDGE_CURVE('',#225,#226,#139,.T.);
#259=EDGE_CURVE('',#226,#214,#303,.T.);
#260=EDGE_CURVE('',#213,#225,#304,.T.);
#261=CURVE_STYLE('',#274,POSITIVE_LENGTH_MEASURE(0.13),#272);
#262=CURVE_STYLE('',#275,POSITIVE_LENGTH_MEASURE(0.13),#272);
#263=CURVE_STYLE('',#276,POSITIVE_LENGTH_MEASURE(0.13),#272);
#264=CURVE_STYLE('',#277,POSITIVE_LENGTH_MEASURE(0.13),#272);
#265=CURVE_STYLE('',#278,POSITIVE_LENGTH_MEASURE(0.13),#355);
#266=CURVE_STYLE('',#279,POSITIVE_LENGTH_MEASURE(0.13),#355);
#267=CURVE_STYLE('',#280,POSITIVE_LENGTH_MEASURE(0.13),#356);
#268=CURVE_STYLE('',#281,POSITIVE_LENGTH_MEASURE(0.13),#273);
#269=CURVE_STYLE('',#282,POSITIVE_LENGTH_MEASURE(0.13),#273);
#270=CURVE_STYLE('',#283,POSITIVE_LENGTH_MEASURE(0.13),#355);
#271=CURVE_STYLE('',#284,POSITIVE_LENGTH_MEASURE(0.13),#355);
#272=DRAUGHTING_PRE_DEFINED_COLOUR('blue');
#273=DRAUGHTING_PRE_DEFINED_COLOUR('yellow');
#274=DRAUGHTING_PRE_DEFINED_CURVE_FONT('continuous');
#275=DRAUGHTING_PRE_DEFINED_CURVE_FONT('continuous');
#276=DRAUGHTING_PRE_DEFINED_CURVE_FONT('continuous');
#277=DRAUGHTING_PRE_DEFINED_CURVE_FONT('continuous');
#278=DRAUGHTING_PRE_DEFINED_CURVE_FONT('continuous');
#279=DRAUGHTING_PRE_DEFINED_CURVE_FONT('continuous');
#280=DRAUGHTING_PRE_DEFINED_CURVE_FONT('continuous');
#281=DRAUGHTING_PRE_DEFINED_CURVE_FONT('continuous');
#282=DRAUGHTING_PRE_DEFINED_CURVE_FONT('continuous');
#283=DRAUGHTING_PRE_DEFINED_CURVE_FONT('continuous');
#284=DRAUGHTING_PRE_DEFINED_CURVE_FONT('continuous');
#285=TRIMMED_CURVE('',#289,(PARAMETER_VALUE(0.)),(PARAMETER_VALUE(1.)),
 .T.,.PARAMETER.);
#286=TRIMMED_CURVE('',#290,(PARAMETER_VALUE(0.)),(PARAMETER_VALUE(1.)),
 .T.,.PARAMETER.);
#287=TRIMMED_CURVE('',#291,(PARAMETER_VALUE(0.)),(PARAMETER_VALUE(1.)),
 .T.,.PARAMETER.);
#288=TRIMMED_CURVE('',#292,(PARAMETER_VALUE(0.)),(PARAMETER_VALUE(1.)),
 .T.,.PARAMETER.);
#289=LINE('',#524,#305);
#290=LINE('',#525,#306);
#291=LINE('',#526,#307);
#292=LINE('',#527,#308);
#293=LINE('',#535,#309);
#294=LINE('',#538,#310);
#295=LINE('',#544,#311);
#296=LINE('',#548,#312);
#297=LINE('',#558,#313);
#298=LINE('',#563,#314);
#299=LINE('',#572,#315);
#300=LINE('',#573,#316);
#301=LINE('',#587,#317);
#302=LINE('',#589,#318);
#303=LINE('',#603,#319);
#304=LINE('',#604,#320);
#305=VECTOR('',#410,5.70200284803601);
#306=VECTOR('',#411,3.98779999999999);
#307=VECTOR('',#412,5.35813);
#308=VECTOR('',#413,5.93799983132899);
#309=VECTOR('',#428,1.);
#310=VECTOR('',#429,1.);
#311=VECTOR('',#438,1.);
#312=VECTOR('',#441,1.);
#313=VECTOR('',#456,1.);
#314=VECTOR('',#459,1.);
#315=VECTOR('',#470,1.);
#316=VECTOR('',#471,1.);
#317=VECTOR('',#494,1.);
#318=VECTOR('',#495,1.);
#319=VECTOR('',#516,1.);
#320=VECTOR('',#517,1.);
#321=PRESENTATION_LAYER_ASSIGNMENT('1','Layer 1',(#523,#360,#361,#362,#363,
#365,#366,#42,#43));
#322=PRESENTATION_LAYER_ASSIGNMENT('2','Layer 2',(#285,#286,#287,#288));
#323=PRESENTATION_LAYER_ASSIGNMENT('3','Layer 3',(#364));
#324=STYLED_ITEM('',(#338),#523);
#325=STYLED_ITEM('',(#339),#285);
#326=STYLED_ITEM('',(#340),#286);
#327=STYLED_ITEM('',(#341),#287);
#328=STYLED_ITEM('',(#342),#288);
#329=STYLED_ITEM('',(#343),#360);
#330=STYLED_ITEM('',(#344),#361);
#331=STYLED_ITEM('',(#345),#362);
#332=STYLED_ITEM('',(#346),#363);
#333=STYLED_ITEM('',(#347),#364);
#334=STYLED_ITEM('',(#348),#365);
#335=STYLED_ITEM('',(#349),#366);
#336=STYLED_ITEM('',(#350),#42);
#337=STYLED_ITEM('',(#351),#43);
#338=PRESENTATION_STYLE_ASSIGNMENT((#352));
#339=PRESENTATION_STYLE_ASSIGNMENT((#261));
#340=PRESENTATION_STYLE_ASSIGNMENT((#262));
#341=PRESENTATION_STYLE_ASSIGNMENT((#263));
#342=PRESENTATION_STYLE_ASSIGNMENT((#264));
#343=PRESENTATION_STYLE_ASSIGNMENT((#265));
#344=PRESENTATION_STYLE_ASSIGNMENT((#266));
#345=PRESENTATION_STYLE_ASSIGNMENT((#267));
#346=PRESENTATION_STYLE_ASSIGNMENT((#268));
#347=PRESENTATION_STYLE_ASSIGNMENT((#269));
#348=PRESENTATION_STYLE_ASSIGNMENT((#270));
#349=PRESENTATION_STYLE_ASSIGNMENT((#271));
#350=PRESENTATION_STYLE_ASSIGNMENT((#32));
#351=PRESENTATION_STYLE_ASSIGNMENT((#33));
#352=POINT_STYLE('',#353,POSITIVE_LENGTH_MEASURE(3.),#354);
#353=PRE_DEFINED_POINT_MARKER_SYMBOL('plus');
#354=COLOUR_RGB('Medium Royal',0.301960784313725,0.427450980392157,0.701960784313725);
#355=COLOUR_RGB('Medium Maroon',0.6,0.4,0.4);
#356=COLOUR_RGB('Strong Gold',0.611764705882353,0.556862745098039,0.380392156862745);
#357=COLOUR_RGB('light gray',0.8,0.8,0.8);
#358=COLOUR_RGB('medium gray',0.490196078431373,0.490196078431373,0.490196078431373);
#359=AXIS2_PLACEMENT_3D('',#522,#408,#409);
#360=AXIS2_PLACEMENT_3D('',#528,#414,#415);
#361=AXIS2_PLACEMENT_3D('',#529,#416,#417);
#362=AXIS2_PLACEMENT_3D('MCS',#530,#418,#419);
#363=AXIS2_PLACEMENT_3D('CIP',#531,#420,#421);
#364=AXIS2_PLACEMENT_3D('PCS',#532,#422,#423);
#365=AXIS2_PLACEMENT_3D('',#533,#424,#425);
#366=AXIS2_PLACEMENT_3D('',#534,#426,#427);
#367=AXIS2_PLACEMENT_3D('',#540,#430,#431);
#368=AXIS2_PLACEMENT_3D('',#541,#432,#433);
#369=AXIS2_PLACEMENT_3D('',#542,#434,#435);
#370=AXIS2_PLACEMENT_3D('',#543,#436,#437);
#371=AXIS2_PLACEMENT_3D('',#546,#439,#440);
#372=AXIS2_PLACEMENT_3D('',#549,#442,#443);
#373=AXIS2_PLACEMENT_3D('',#550,#444,#445);
#374=AXIS2_PLACEMENT_3D('',#551,#446,#447);
#375=AXIS2_PLACEMENT_3D('',#552,#448,#449);
#376=AXIS2_PLACEMENT_3D('',#553,#450,#451);
#377=AXIS2_PLACEMENT_3D('',#556,#452,#453);
#378=AXIS2_PLACEMENT_3D('',#557,#454,#455);
#379=AXIS2_PLACEMENT_3D('',#561,#457,#458);
#380=AXIS2_PLACEMENT_3D('',#565,#460,#461);
#381=AXIS2_PLACEMENT_3D('',#566,#462,#463);
#382=AXIS2_PLACEMENT_3D('',#567,#464,#465);
#383=AXIS2_PLACEMENT_3D('',#570,#466,#467);
#384=AXIS2_PLACEMENT_3D('',#571,#468,#469);
#385=AXIS2_PLACEMENT_3D('',#574,#472,#473);
#386=AXIS2_PLACEMENT_3D('',#575,#474,#475);
#387=AXIS2_PLACEMENT_3D('',#576,#476,#477);
#388=AXIS2_PLACEMENT_3D('',#577,#478,#479);
#389=AXIS2_PLACEMENT_3D('',#578,#480,#481);
#390=AXIS2_PLACEMENT_3D('',#579,#482,#483);
#391=AXIS2_PLACEMENT_3D('',#581,#484,#485);
#392=AXIS2_PLACEMENT_3D('',#583,#486,#487);
#393=AXIS2_PLACEMENT_3D('',#584,#488,#489);
#394=AXIS2_PLACEMENT_3D('',#585,#490,#491);
#395=AXIS2_PLACEMENT_3D('',#586,#492,#493);
#396=AXIS2_PLACEMENT_3D('',#591,#496,#497);
#397=AXIS2_PLACEMENT_3D('',#592,#498,#499);
#398=AXIS2_PLACEMENT_3D('',#593,#500,#501);
#399=AXIS2_PLACEMENT_3D('',#594,#502,#503);
#400=AXIS2_PLACEMENT_3D('',#595,#504,#505);
#401=AXIS2_PLACEMENT_3D('',#597,#506,#507);
#402=AXIS2_PLACEMENT_3D('',#599,#508,#509);
#403=AXIS2_PLACEMENT_3D('',#600,#510,#511);
#404=AXIS2_PLACEMENT_3D('',#601,#512,#513);
#405=AXIS2_PLACEMENT_3D('',#602,#514,#515);
#406=AXIS2_PLACEMENT_3D('',#605,#518,#519);
#407=AXIS2_PLACEMENT_3D('',#606,#520,#521);
#408=DIRECTION('',(0.,0.,1.));
#409=DIRECTION('',(1.,0.,0.));
#410=DIRECTION('',(-0.939692620785898,0.,0.342020143325698));
#411=DIRECTION('',(0.,0.,1.));
#412=DIRECTION('',(1.,0.,0.));
#413=DIRECTION('',(0.,0.,1.));
#414=DIRECTION('',(0.,0.,1.));
#415=DIRECTION('',(1.,0.,0.));
#416=DIRECTION('',(0.,0.,1.));
#417=DIRECTION('',(1.,0.,0.));
#418=DIRECTION('',(0.,0.,1.));
#419=DIRECTION('',(1.,0.,0.));
#420=DIRECTION('',(0.,0.,1.));
#421=DIRECTION('',(1.,0.,0.));
#422=DIRECTION('',(0.,0.,1.));
#423=DIRECTION('',(1.,0.,0.));
#424=DIRECTION('',(0.,0.,1.));
#425=DIRECTION('',(1.,0.,0.));
#426=DIRECTION('',(0.,0.,1.));
#427=DIRECTION('',(1.,0.,0.));
#428=DIRECTION('',(0.93969262078593,0.,0.342020143325611));
#429=DIRECTION('',(-0.93969262078593,0.,0.342020143325611));
#430=DIRECTION('',(0.,0.,-1.));
#431=DIRECTION('',(-1.,0.,0.));
#432=DIRECTION('',(0.,0.,1.));
#433=DIRECTION('',(1.,0.,-1.00921124845562E-17));
#434=DIRECTION('',(0.,0.,-1.));
#435=DIRECTION('',(1.,0.,0.));
#436=DIRECTION('',(0.,0.,1.));
#437=DIRECTION('',(1.,0.,-1.00921124845562E-17));
#438=DIRECTION('',(-4.32084390947E-14,0.,-1.));
#439=DIRECTION('',(0.,0.,1.));
#440=DIRECTION('',(-1.,0.,0.));
#441=DIRECTION('',(4.32084390947E-14,0.,-1.));
#442=DIRECTION('',(0.,0.,1.));
#443=DIRECTION('',(1.,0.,0.));
#444=DIRECTION('',(0.,0.,1.));
#445=DIRECTION('',(1.,0.,0.));
#446=DIRECTION('',(0.,0.,1.));
#447=DIRECTION('',(1.,0.,0.));
#448=DIRECTION('',(0.,0.,1.));
#449=DIRECTION('',(1.,0.,0.));
#450=DIRECTION('',(0.,0.,-1.));
#451=DIRECTION('',(1.,0.,0.));
#452=DIRECTION('',(0.,0.,-1.));
#453=DIRECTION('',(-1.,0.,0.));
#454=DIRECTION('',(0.,0.,1.));
#455=DIRECTION('',(-1.,0.,0.));
#456=DIRECTION('',(1.322613516191E-14,0.,1.));
#457=DIRECTION('',(0.,0.,-1.));
#458=DIRECTION('',(-1.,0.,0.));
#459=DIRECTION('',(-1.322613516191E-14,0.,1.));
#460=DIRECTION('',(0.,0.,1.));
#461=DIRECTION('',(1.,0.,0.));
#462=DIRECTION('',(0.,0.,1.));
#463=DIRECTION('',(-1.,0.,0.));
#464=DIRECTION('',(0.,0.,1.));
#465=DIRECTION('',(-1.,0.,0.));
#466=DIRECTION('',(0.,0.,1.));
#467=DIRECTION('',(1.,0.,0.));
#468=DIRECTION('',(0.,0.,1.));
#469=DIRECTION('',(-1.,0.,0.));
#470=DIRECTION('',(-0.500000000000017,0.,-0.866025403784429));
#471=DIRECTION('',(0.500000000000017,0.,-0.866025403784429));
#472=DIRECTION('',(0.,0.,-1.));
#473=DIRECTION('',(1.,0.,-5.933605920034E-17));
#474=DIRECTION('',(0.,0.,1.));
#475=DIRECTION('',(-1.,0.,0.));
#476=DIRECTION('',(0.,0.,-1.));
#477=DIRECTION('',(1.,0.,-5.933605920034E-17));
#478=DIRECTION('',(0.,0.,-1.));
#479=DIRECTION('',(1.,0.,0.));
#480=DIRECTION('',(0.,0.,1.));
#481=DIRECTION('',(-1.,0.,0.));
#482=DIRECTION('',(0.,-1.,0.));
#483=DIRECTION('',(-0.970295726275736,0.,0.241921895600709));
#484=DIRECTION('',(0.,1.,0.));
#485=DIRECTION('',(0.970295726275736,0.,0.241921895600709));
#486=DIRECTION('',(0.,0.,1.));
#487=DIRECTION('',(-1.,0.,0.));
#488=DIRECTION('',(0.,0.,1.));
#489=DIRECTION('',(0.999999999706902,2.421149860303E-5,0.));
#490=DIRECTION('',(0.,0.,1.));
#491=DIRECTION('',(1.,0.,0.));
#492=DIRECTION('',(0.,0.,1.));
#493=DIRECTION('',(-0.999999999698849,-2.45418438733012E-5,0.));
#494=DIRECTION('',(0.241921895599603,0.,-0.970295726276013));
#495=DIRECTION('',(-0.241921895599603,0.,-0.970295726276013));
#496=DIRECTION('',(0.,0.,-1.));
#497=DIRECTION('',(-1.,0.,0.));
#498=DIRECTION('',(0.,0.,1.));
#499=DIRECTION('',(-1.,0.,1.89886215041467E-16));
#500=DIRECTION('',(0.,0.,-1.));
#501=DIRECTION('',(1.,0.,0.));
#502=DIRECTION('',(0.,0.,1.));
#503=DIRECTION('',(-1.,0.,-6.78165053719462E-17));
#504=DIRECTION('',(0.,-1.,0.));
#505=DIRECTION('',(-1.,0.,0.));
#506=DIRECTION('',(0.,1.,0.));
#507=DIRECTION('',(1.,0.,0.));
#508=DIRECTION('',(0.,0.,1.));
#509=DIRECTION('',(-1.,0.,0.));
#510=DIRECTION('',(0.,0.,1.));
#511=DIRECTION('',(0.999999999373749,3.53907081885717E-5,0.));
#512=DIRECTION('',(0.,0.,1.));
#513=DIRECTION('',(1.,0.,0.));
#514=DIRECTION('',(0.,0.,1.));
#515=DIRECTION('',(-0.999999999355951,-3.58900916585082E-5,0.));
#516=DIRECTION('',(0.,0.,-1.));
#517=DIRECTION('',(0.,0.,1.));
#518=DIRECTION('',(0.,0.,1.));
#519=DIRECTION('',(-1.,0.,0.));
#520=DIRECTION('',(0.,0.,1.));
#521=DIRECTION('',(-1.,0.,0.));
#522=CARTESIAN_POINT('',(0.,0.,0.));
#523=CARTESIAN_POINT('',(-5.35813,0.,-90.49658920015));
#524=CARTESIAN_POINT('',(0.,0.,-92.44678903148));
#525=CARTESIAN_POINT('',(-5.35813,0.,-90.49658920015));
#526=CARTESIAN_POINT('',(-5.35813,0.,-86.50878920015));
#527=CARTESIAN_POINT('',(0.,0.,-92.44678903148));
#528=CARTESIAN_POINT('',(0.,0.,-23.5));
#529=CARTESIAN_POINT('',(0.,0.,-23.5));
#530=CARTESIAN_POINT('',(0.,0.,-23.5));
#531=CARTESIAN_POINT('',(0.,0.,-92.44678903148));
#532=CARTESIAN_POINT('',(0.,0.,0.));
#533=CARTESIAN_POINT('',(0.,0.,-23.5));
#534=CARTESIAN_POINT('',(0.,0.,-23.5));
#535=CARTESIAN_POINT('',(5.35813,0.,-90.49658920015));
#536=CARTESIAN_POINT('',(0.,0.,-92.44678903148));
#537=CARTESIAN_POINT('',(5.35813,0.,-90.49658920015));
#538=CARTESIAN_POINT('',(-5.35813,0.,-90.49658920015));
#539=CARTESIAN_POINT('',(-5.35813,0.,-90.49658920015));
#540=CARTESIAN_POINT('',(0.,0.,-90.49658920015));
#541=CARTESIAN_POINT('',(0.,0.,-91.4521871175));
#542=CARTESIAN_POINT('',(0.,0.,-90.49658920015));
#543=CARTESIAN_POINT('',(0.,0.,-91.4521871175));
#544=CARTESIAN_POINT('',(5.35813,0.,-90.49658920015));
#545=CARTESIAN_POINT('',(5.35813,0.,-86.50878920015));
#546=CARTESIAN_POINT('',(0.,0.,-86.50878920015));
#547=CARTESIAN_POINT('',(-5.35813,0.,-86.50878920015));
#548=CARTESIAN_POINT('',(-5.35813,0.,-90.49658920015));
#549=CARTESIAN_POINT('',(0.,0.,-92.74368902305));
#550=CARTESIAN_POINT('',(0.,0.,-86.50878920015));
#551=CARTESIAN_POINT('',(0.,0.,-92.74368902305));
#552=CARTESIAN_POINT('',(3.192559890357E-14,0.,-86.50878920015));
#553=CARTESIAN_POINT('',(0.,0.,-86.51));
#554=CARTESIAN_POINT('',(5.05,0.,-86.51));
#555=CARTESIAN_POINT('',(-5.05,0.,-86.51));
#556=CARTESIAN_POINT('',(0.,0.,-86.51));
#557=CARTESIAN_POINT('',(0.,0.,-86.51));
#558=CARTESIAN_POINT('',(7.9375,0.,22.5));
#559=CARTESIAN_POINT('',(7.9375,0.,-23.5000000035114));
#560=CARTESIAN_POINT('',(7.9375,0.,22.5));
#561=CARTESIAN_POINT('',(0.,0.,-23.500000003558));
#562=CARTESIAN_POINT('',(-7.9375,0.,-23.5000000035114));
#563=CARTESIAN_POINT('',(-7.9375,0.,22.5));
#564=CARTESIAN_POINT('',(-7.9375,0.,22.5));
#565=CARTESIAN_POINT('',(0.,0.,22.5));
#566=CARTESIAN_POINT('',(0.,0.,-108.85));
#567=CARTESIAN_POINT('',(0.,0.,24.5));
#568=CARTESIAN_POINT('',(-6.782799461621,0.,24.5));
#569=CARTESIAN_POINT('',(6.782799461621,0.,24.5));
#570=CARTESIAN_POINT('',(0.,0.,24.5));
#571=CARTESIAN_POINT('',(0.,0.,24.5));
#572=CARTESIAN_POINT('',(-7.9375,0.,22.5));
#573=CARTESIAN_POINT('',(7.9375,0.,22.5));
#574=CARTESIAN_POINT('',(0.,0.,23.5));
#575=CARTESIAN_POINT('',(0.,0.,22.5));
#576=CARTESIAN_POINT('',(0.,0.,23.5));
#577=CARTESIAN_POINT('',(0.,0.,-23.5000000035114));
#578=CARTESIAN_POINT('',(0.,0.,-108.85));
#579=CARTESIAN_POINT('',(8.067968477581,0.,-23.87812429043));
#580=CARTESIAN_POINT('',(7.679850187058,0.,-23.7813555322397));
#581=CARTESIAN_POINT('',(-8.067968477568,0.,-23.87812429048));
#582=CARTESIAN_POINT('',(-7.679850187063,0.,-23.7813555322145));
#583=CARTESIAN_POINT('',(0.,0.,-23.7813555321897));
#584=CARTESIAN_POINT('',(0.,0.,-23.87812429043));
#585=CARTESIAN_POINT('',(0.,0.,-23.7813555322397));
#586=CARTESIAN_POINT('',(0.,0.,-23.87812429048));
#587=CARTESIAN_POINT('',(-7.679850187063,0.,-23.7813555322145));
#588=CARTESIAN_POINT('',(-5.256719969419,0.,-33.50000000863));
#589=CARTESIAN_POINT('',(7.679850187063,0.,-23.7813555322145));
#590=CARTESIAN_POINT('',(5.256719969419,-2.031184651357E-14,-33.50000000863));
#591=CARTESIAN_POINT('',(0.,0.,-33.50000000875));
#592=CARTESIAN_POINT('',(0.,0.,-28.640677770494));
#593=CARTESIAN_POINT('',(0.,0.,-33.50000000863));
#594=CARTESIAN_POINT('',(0.,0.,-28.640677770409));
#595=CARTESIAN_POINT('',(5.45,-2.105867563662E-14,-33.85020399173));
#596=CARTESIAN_POINT('',(5.05,0.,-33.85020399178));
#597=CARTESIAN_POINT('',(-5.45,0.,-33.85020399183));
#598=CARTESIAN_POINT('',(-5.05,0.,-33.85020399178));
#599=CARTESIAN_POINT('',(0.,0.,-33.85020399173));
#600=CARTESIAN_POINT('',(0.,0.,-33.85020399173));
#601=CARTESIAN_POINT('',(0.,0.,-33.85020399183));
#602=CARTESIAN_POINT('',(0.,0.,-33.85020399183));
#603=CARTESIAN_POINT('',(-5.05,0.,-33.85020399178));
#604=CARTESIAN_POINT('',(5.05,0.,-86.51));
#605=CARTESIAN_POINT('',(0.,0.,-108.85));
#606=CARTESIAN_POINT('',(0.,0.,-108.85));
#607=MECHANICAL_DESIGN_GEOMETRIC_PRESENTATION_REPRESENTATION('',(#324,#325,
#326,#327,#328,#329,#330,#331,#332,#333,#334,#335,#336,#337),#608);
#608=(
GEOMETRIC_REPRESENTATION_CONTEXT(3)
GLOBAL_UNCERTAINTY_ASSIGNED_CONTEXT((#609))
GLOBAL_UNIT_ASSIGNED_CONTEXT((#615,#611,#610))
REPRESENTATION_CONTEXT('STAWMN0027_ID0_4219','TOP_LEVEL_ASSEMBLY_PART')
);
#609=UNCERTAINTY_MEASURE_WITH_UNIT(LENGTH_MEASURE(0.001),#615,
'DISTANCE_ACCURACY_VALUE','Maximum Tolerance applied to model');
#610=(
NAMED_UNIT(*)
SI_UNIT($,.STERADIAN.)
SOLID_ANGLE_UNIT()
);
#611=(
CONVERSION_BASED_UNIT('DEGREE',#613)
NAMED_UNIT(#612)
PLANE_ANGLE_UNIT()
);
#612=DIMENSIONAL_EXPONENTS(0.,0.,0.,0.,0.,0.,0.);
#613=PLANE_ANGLE_MEASURE_WITH_UNIT(PLANE_ANGLE_MEASURE(0.0174532925),#614);
#614=(
NAMED_UNIT(*)
PLANE_ANGLE_UNIT()
SI_UNIT($,.RADIAN.)
);
#615=(
LENGTH_UNIT()
NAMED_UNIT(*)
SI_UNIT(.MILLI.,.METRE.)
);
ENDSEC;
END-ISO-10303-21;
