ISO-10303-21;
HEADER;
/* Generated by software containing ST-Developer
 * from STEP Tools, Inc. (www.steptools.com) 
 */
/* OPTION: using custom schema-name function */

FILE_DESCRIPTION(
/* description */ (''),
/* implementation_level */ '2;1');

FILE_NAME(
/* name */ 'IMX10B4WH12008S.stp',
/* time_stamp */ '2023-10-12T14:11:44+09:00',
/* author */ (''),
/* organization */ (''),
/* preprocessor_version */ 'ST-DEVELOPER v16',
/* originating_system */ 'SIEMENS PLM Software NX 10.0',
/* authorisation */ '');

FILE_SCHEMA (('AUTOMOTIVE_DESIGN { 1 0 10303 214 3 1 1 1 }'));
ENDSEC;

DATA;
#10=CONSTRUCTIVE_GEOMETRY_REPRESENTATION_RELATIONSHIP(
'supplemental geometry','',#26,#11);
#11=CONSTRUCTIVE_GEOMETRY_REPRESENTATION('supplemental geometry',(#340,
#341,#342,#343,#344,#345,#346,#347,#348,#349),#579);
#12=GEOMETRICALLY_BOUNDED_WIREFRAME_SHAPE_REPRESENTATION(
'IMX10B4WH12008S-None',(#27),#579);
#13=SHAPE_REPRESENTATION_RELATIONSHIP('None',
'relationship between IMX10B4WH12008S-None and IMX10B4WH12008S-None',#26,
#15);
#14=SHAPE_REPRESENTATION_RELATIONSHIP('None',
'relationship between IMX10B4WH12008S-None and IMX10B4WH12008S-None',#26,
#12);
#15=ADVANCED_BREP_SHAPE_REPRESENTATION('IMX10B4WH12008S-None',(#52,#53),
#579);
#16=SHAPE_DEFINITION_REPRESENTATION(#17,#26);
#17=PRODUCT_DEFINITION_SHAPE('','SHAPE FOR IMX10B4WH12008S_ASM.',#18);
#18=PRODUCT_DEFINITION('part definition','',#20,#19);
#19=PRODUCT_DEFINITION_CONTEXT('part definition',#25,'design');
#20=PRODUCT_DEFINITION_FORMATION_WITH_SPECIFIED_SOURCE(' ',' ',#22,
 .NOT_KNOWN.);
#21=PRODUCT_RELATED_PRODUCT_CATEGORY('part','',(#22));
#22=PRODUCT('IMX10B4WH12008S_ASM','IMX10B4WH12008S_ASM','NOT SPECIFIED',
(#23));
#23=PRODUCT_CONTEXT('',#25,'mechanical');
#24=APPLICATION_PROTOCOL_DEFINITION('international standard',
'automotive_design',2010,#25);
#25=APPLICATION_CONTEXT(
'core data for automotive mechanical design processes');
#26=SHAPE_REPRESENTATION('IMX10B4WH12008S-None',(#338),#579);
#27=GEOMETRIC_CURVE_SET('None',(#498,#274,#275,#276));
#28=FACE_BOUND('',#103,.T.);
#29=FACE_BOUND('',#104,.T.);
#30=FACE_BOUND('',#107,.T.);
#31=FACE_BOUND('',#108,.T.);
#32=CONICAL_SURFACE('',#364,2.3,45.);
#33=CONICAL_SURFACE('',#366,2.3,45.);
#34=CONICAL_SURFACE('',#372,3.375,1.909152432996);
#35=CONICAL_SURFACE('',#374,3.375,1.909152432996);
#36=CONICAL_SURFACE('',#383,5.023076211353,30.);
#37=CONICAL_SURFACE('',#386,5.023076211353,30.);
#38=CYLINDRICAL_SURFACE('',#359,2.5);
#39=CYLINDRICAL_SURFACE('',#362,2.5);
#40=CYLINDRICAL_SURFACE('',#379,4.85);
#41=CYLINDRICAL_SURFACE('',#381,4.85);
#42=SURFACE_STYLE_USAGE(.BOTH.,#44);
#43=SURFACE_STYLE_USAGE(.BOTH.,#45);
#44=SURFACE_SIDE_STYLE('',(#46));
#45=SURFACE_SIDE_STYLE('',(#47));
#46=SURFACE_STYLE_FILL_AREA(#48);
#47=SURFACE_STYLE_FILL_AREA(#49);
#48=FILL_AREA_STYLE('',(#50));
#49=FILL_AREA_STYLE('',(#51));
#50=FILL_AREA_STYLE_COLOUR('',#225);
#51=FILL_AREA_STYLE_COLOUR('',#226);
#52=MANIFOLD_SOLID_BREP('CUT',#54);
#53=MANIFOLD_SOLID_BREP('NOCUT',#55);
#54=CLOSED_SHELL('',(#61,#62,#63));
#55=CLOSED_SHELL('',(#64,#65,#66,#67,#68,#69,#70,#71,#72,#73,#74,#75,#76,
#77));
#56=PLANE('',#355);
#57=PLANE('',#367);
#58=PLANE('',#370);
#59=PLANE('',#377);
#60=PLANE('',#385);
#61=ADVANCED_FACE('',(#80),#78,.T.);
#62=ADVANCED_FACE('',(#81),#56,.F.);
#63=ADVANCED_FACE('',(#82),#79,.T.);
#64=ADVANCED_FACE('',(#83),#38,.T.);
#65=ADVANCED_FACE('',(#84),#39,.T.);
#66=ADVANCED_FACE('',(#85),#32,.T.);
#67=ADVANCED_FACE('',(#86),#33,.T.);
#68=ADVANCED_FACE('',(#87),#57,.F.);
#69=ADVANCED_FACE('',(#28,#29),#58,.F.);
#70=ADVANCED_FACE('',(#88),#34,.T.);
#71=ADVANCED_FACE('',(#89),#35,.T.);
#72=ADVANCED_FACE('',(#30,#31),#59,.F.);
#73=ADVANCED_FACE('',(#90),#40,.T.);
#74=ADVANCED_FACE('',(#91),#41,.T.);
#75=ADVANCED_FACE('',(#92),#36,.T.);
#76=ADVANCED_FACE('',(#93),#60,.F.);
#77=ADVANCED_FACE('',(#94),#37,.T.);
#78=SPHERICAL_SURFACE('',#353,6.);
#79=SPHERICAL_SURFACE('',#356,6.);
#80=FACE_OUTER_BOUND('',#95,.T.);
#81=FACE_OUTER_BOUND('',#96,.T.);
#82=FACE_OUTER_BOUND('',#97,.T.);
#83=FACE_OUTER_BOUND('',#98,.T.);
#84=FACE_OUTER_BOUND('',#99,.T.);
#85=FACE_OUTER_BOUND('',#100,.T.);
#86=FACE_OUTER_BOUND('',#101,.T.);
#87=FACE_OUTER_BOUND('',#102,.T.);
#88=FACE_OUTER_BOUND('',#105,.T.);
#89=FACE_OUTER_BOUND('',#106,.T.);
#90=FACE_OUTER_BOUND('',#109,.T.);
#91=FACE_OUTER_BOUND('',#110,.T.);
#92=FACE_OUTER_BOUND('',#111,.T.);
#93=FACE_OUTER_BOUND('',#112,.T.);
#94=FACE_OUTER_BOUND('',#113,.T.);
#95=EDGE_LOOP('',(#114,#115,#116));
#96=EDGE_LOOP('',(#117,#118));
#97=EDGE_LOOP('',(#119,#120,#121));
#98=EDGE_LOOP('',(#122,#123,#124,#125));
#99=EDGE_LOOP('',(#126,#127,#128,#129));
#100=EDGE_LOOP('',(#130,#131,#132,#133));
#101=EDGE_LOOP('',(#134,#135,#136,#137));
#102=EDGE_LOOP('',(#138,#139));
#103=EDGE_LOOP('',(#140,#141));
#104=EDGE_LOOP('',(#142,#143));
#105=EDGE_LOOP('',(#144,#145,#146,#147));
#106=EDGE_LOOP('',(#148,#149,#150,#151));
#107=EDGE_LOOP('',(#152,#153));
#108=EDGE_LOOP('',(#154,#155));
#109=EDGE_LOOP('',(#156,#157,#158,#159));
#110=EDGE_LOOP('',(#160,#161,#162,#163));
#111=EDGE_LOOP('',(#164,#165,#166,#167));
#112=EDGE_LOOP('',(#168,#169));
#113=EDGE_LOOP('',(#170,#171,#172,#173));
#114=ORIENTED_EDGE('',*,*,#193,.T.);
#115=ORIENTED_EDGE('',*,*,#194,.F.);
#116=ORIENTED_EDGE('',*,*,#195,.T.);
#117=ORIENTED_EDGE('',*,*,#196,.F.);
#118=ORIENTED_EDGE('',*,*,#195,.F.);
#119=ORIENTED_EDGE('',*,*,#194,.T.);
#120=ORIENTED_EDGE('',*,*,#193,.F.);
#121=ORIENTED_EDGE('',*,*,#196,.T.);
#122=ORIENTED_EDGE('',*,*,#197,.T.);
#123=ORIENTED_EDGE('',*,*,#198,.T.);
#124=ORIENTED_EDGE('',*,*,#199,.T.);
#125=ORIENTED_EDGE('',*,*,#200,.F.);
#126=ORIENTED_EDGE('',*,*,#201,.T.);
#127=ORIENTED_EDGE('',*,*,#198,.F.);
#128=ORIENTED_EDGE('',*,*,#202,.T.);
#129=ORIENTED_EDGE('',*,*,#200,.T.);
#130=ORIENTED_EDGE('',*,*,#202,.F.);
#131=ORIENTED_EDGE('',*,*,#203,.T.);
#132=ORIENTED_EDGE('',*,*,#204,.T.);
#133=ORIENTED_EDGE('',*,*,#205,.F.);
#134=ORIENTED_EDGE('',*,*,#206,.T.);
#135=ORIENTED_EDGE('',*,*,#203,.F.);
#136=ORIENTED_EDGE('',*,*,#197,.F.);
#137=ORIENTED_EDGE('',*,*,#205,.T.);
#138=ORIENTED_EDGE('',*,*,#206,.F.);
#139=ORIENTED_EDGE('',*,*,#204,.F.);
#140=ORIENTED_EDGE('',*,*,#207,.F.);
#141=ORIENTED_EDGE('',*,*,#208,.F.);
#142=ORIENTED_EDGE('',*,*,#199,.F.);
#143=ORIENTED_EDGE('',*,*,#201,.F.);
#144=ORIENTED_EDGE('',*,*,#208,.T.);
#145=ORIENTED_EDGE('',*,*,#209,.T.);
#146=ORIENTED_EDGE('',*,*,#210,.T.);
#147=ORIENTED_EDGE('',*,*,#211,.F.);
#148=ORIENTED_EDGE('',*,*,#212,.T.);
#149=ORIENTED_EDGE('',*,*,#209,.F.);
#150=ORIENTED_EDGE('',*,*,#207,.T.);
#151=ORIENTED_EDGE('',*,*,#211,.T.);
#152=ORIENTED_EDGE('',*,*,#213,.F.);
#153=ORIENTED_EDGE('',*,*,#214,.F.);
#154=ORIENTED_EDGE('',*,*,#210,.F.);
#155=ORIENTED_EDGE('',*,*,#212,.F.);
#156=ORIENTED_EDGE('',*,*,#214,.T.);
#157=ORIENTED_EDGE('',*,*,#215,.T.);
#158=ORIENTED_EDGE('',*,*,#216,.T.);
#159=ORIENTED_EDGE('',*,*,#217,.F.);
#160=ORIENTED_EDGE('',*,*,#218,.T.);
#161=ORIENTED_EDGE('',*,*,#215,.F.);
#162=ORIENTED_EDGE('',*,*,#213,.T.);
#163=ORIENTED_EDGE('',*,*,#217,.T.);
#164=ORIENTED_EDGE('',*,*,#219,.T.);
#165=ORIENTED_EDGE('',*,*,#218,.F.);
#166=ORIENTED_EDGE('',*,*,#220,.F.);
#167=ORIENTED_EDGE('',*,*,#221,.T.);
#168=ORIENTED_EDGE('',*,*,#221,.F.);
#169=ORIENTED_EDGE('',*,*,#222,.F.);
#170=ORIENTED_EDGE('',*,*,#220,.T.);
#171=ORIENTED_EDGE('',*,*,#216,.F.);
#172=ORIENTED_EDGE('',*,*,#219,.F.);
#173=ORIENTED_EDGE('',*,*,#222,.T.);
#174=VERTEX_POINT('',#513);
#175=VERTEX_POINT('',#514);
#176=VERTEX_POINT('',#516);
#177=VERTEX_POINT('',#523);
#178=VERTEX_POINT('',#524);
#179=VERTEX_POINT('',#526);
#180=VERTEX_POINT('',#528);
#181=VERTEX_POINT('',#535);
#182=VERTEX_POINT('',#537);
#183=VERTEX_POINT('',#544);
#184=VERTEX_POINT('',#545);
#185=VERTEX_POINT('',#549);
#186=VERTEX_POINT('',#551);
#187=VERTEX_POINT('',#557);
#188=VERTEX_POINT('',#558);
#189=VERTEX_POINT('',#562);
#190=VERTEX_POINT('',#564);
#191=VERTEX_POINT('',#570);
#192=VERTEX_POINT('',#572);
#193=EDGE_CURVE('',#174,#175,#228,.T.);
#194=EDGE_CURVE('',#176,#175,#229,.T.);
#195=EDGE_CURVE('',#176,#174,#230,.T.);
#196=EDGE_CURVE('',#174,#176,#231,.T.);
#197=EDGE_CURVE('',#177,#178,#232,.T.);
#198=EDGE_CURVE('',#178,#179,#279,.T.);
#199=EDGE_CURVE('',#179,#180,#233,.T.);
#200=EDGE_CURVE('',#177,#180,#280,.T.);
#201=EDGE_CURVE('',#180,#179,#234,.T.);
#202=EDGE_CURVE('',#178,#177,#235,.T.);
#203=EDGE_CURVE('',#178,#181,#281,.T.);
#204=EDGE_CURVE('',#181,#182,#236,.T.);
#205=EDGE_CURVE('',#177,#182,#282,.T.);
#206=EDGE_CURVE('',#182,#181,#237,.T.);
#207=EDGE_CURVE('',#183,#184,#238,.T.);
#208=EDGE_CURVE('',#184,#183,#239,.T.);
#209=EDGE_CURVE('',#183,#185,#283,.T.);
#210=EDGE_CURVE('',#185,#186,#240,.T.);
#211=EDGE_CURVE('',#184,#186,#284,.T.);
#212=EDGE_CURVE('',#186,#185,#241,.T.);
#213=EDGE_CURVE('',#187,#188,#242,.T.);
#214=EDGE_CURVE('',#188,#187,#243,.T.);
#215=EDGE_CURVE('',#187,#189,#285,.T.);
#216=EDGE_CURVE('',#189,#190,#244,.T.);
#217=EDGE_CURVE('',#188,#190,#286,.T.);
#218=EDGE_CURVE('',#190,#189,#245,.T.);
#219=EDGE_CURVE('',#191,#189,#287,.T.);
#220=EDGE_CURVE('',#192,#190,#288,.T.);
#221=EDGE_CURVE('',#192,#191,#246,.T.);
#222=EDGE_CURVE('',#191,#192,#247,.T.);
#223=COLOUR_RGB('Strong Stone',0.576470588235294,0.54508278019379,0.392156862745098);
#224=COLOUR_RGB('Medium Umber',0.372533760585946,0.313725490196078,0.270572976272221);
#225=COLOUR_RGB('Light Gray',0.8,0.8,0.8);
#226=COLOUR_RGB('non-cutting part and shank',0.501960784313725,0.501960784313725,
0.501960784313725);
#227=CIRCLE('',#339,6.);
#228=CIRCLE('',#350,6.);
#229=CIRCLE('',#351,6.);
#230=CIRCLE('',#352,5.196152422707);
#231=CIRCLE('',#354,5.196152422707);
#232=CIRCLE('',#357,2.5);
#233=CIRCLE('',#358,2.5);
#234=CIRCLE('',#360,2.5);
#235=CIRCLE('',#361,2.5);
#236=CIRCLE('',#363,2.1);
#237=CIRCLE('',#365,2.1);
#238=CIRCLE('',#368,3.25);
#239=CIRCLE('',#369,3.25);
#240=CIRCLE('',#371,3.5);
#241=CIRCLE('',#373,3.5);
#242=CIRCLE('',#375,4.85);
#243=CIRCLE('',#376,4.85);
#244=CIRCLE('',#378,4.85);
#245=CIRCLE('',#380,4.85);
#246=CIRCLE('',#382,5.196152422706);
#247=CIRCLE('',#384,5.196152422706);
#248=CURVE_STYLE('',#261,POSITIVE_LENGTH_MEASURE(0.18),#337);
#249=CURVE_STYLE('',#262,POSITIVE_LENGTH_MEASURE(0.18),#337);
#250=CURVE_STYLE('',#263,POSITIVE_LENGTH_MEASURE(0.18),#337);
#251=CURVE_STYLE('',#264,POSITIVE_LENGTH_MEASURE(0.13),#223);
#252=CURVE_STYLE('',#265,POSITIVE_LENGTH_MEASURE(0.13),#223);
#253=CURVE_STYLE('',#266,POSITIVE_LENGTH_MEASURE(0.13),#224);
#254=CURVE_STYLE('',#267,POSITIVE_LENGTH_MEASURE(0.13),#224);
#255=CURVE_STYLE('',#268,POSITIVE_LENGTH_MEASURE(0.13),#223);
#256=CURVE_STYLE('',#269,POSITIVE_LENGTH_MEASURE(0.13),#223);
#257=CURVE_STYLE('',#270,POSITIVE_LENGTH_MEASURE(0.13),#224);
#258=CURVE_STYLE('',#271,POSITIVE_LENGTH_MEASURE(0.13),#223);
#259=CURVE_STYLE('',#272,POSITIVE_LENGTH_MEASURE(0.13),#223);
#260=CURVE_STYLE('',#273,POSITIVE_LENGTH_MEASURE(0.13),#223);
#261=DRAUGHTING_PRE_DEFINED_CURVE_FONT('continuous');
#262=DRAUGHTING_PRE_DEFINED_CURVE_FONT('continuous');
#263=DRAUGHTING_PRE_DEFINED_CURVE_FONT('continuous');
#264=DRAUGHTING_PRE_DEFINED_CURVE_FONT('continuous');
#265=DRAUGHTING_PRE_DEFINED_CURVE_FONT('continuous');
#266=DRAUGHTING_PRE_DEFINED_CURVE_FONT('continuous');
#267=DRAUGHTING_PRE_DEFINED_CURVE_FONT('continuous');
#268=DRAUGHTING_PRE_DEFINED_CURVE_FONT('continuous');
#269=DRAUGHTING_PRE_DEFINED_CURVE_FONT('continuous');
#270=DRAUGHTING_PRE_DEFINED_CURVE_FONT('continuous');
#271=DRAUGHTING_PRE_DEFINED_CURVE_FONT('continuous');
#272=DRAUGHTING_PRE_DEFINED_CURVE_FONT('continuous');
#273=DRAUGHTING_PRE_DEFINED_CURVE_FONT('continuous');
#274=TRIMMED_CURVE('',#277,(PARAMETER_VALUE(0.)),(PARAMETER_VALUE(1.)),
 .T.,.PARAMETER.);
#275=TRIMMED_CURVE('',#278,(PARAMETER_VALUE(0.)),(PARAMETER_VALUE(1.)),
 .T.,.PARAMETER.);
#276=TRIMMED_CURVE('',#227,(PARAMETER_VALUE(0.)),(PARAMETER_VALUE(120.)),
 .T.,.PARAMETER.);
#277=LINE('',#499,#289);
#278=LINE('',#500,#290);
#279=LINE('',#525,#291);
#280=LINE('',#529,#292);
#281=LINE('',#534,#293);
#282=LINE('',#538,#294);
#283=LINE('',#548,#295);
#284=LINE('',#552,#296);
#285=LINE('',#561,#297);
#286=LINE('',#565,#298);
#287=LINE('',#569,#299);
#288=LINE('',#571,#300);
#289=VECTOR('',#389,5.196152422707);
#290=VECTOR('',#390,9.);
#291=VECTOR('',#429,1.);
#292=VECTOR('',#432,1.);
#293=VECTOR('',#441,1.);
#294=VECTOR('',#444,1.);
#295=VECTOR('',#459,1.);
#296=VECTOR('',#462,1.);
#297=VECTOR('',#475,1.);
#298=VECTOR('',#478,1.);
#299=VECTOR('',#485,1.);
#300=VECTOR('',#486,1.);
#301=PRESENTATION_LAYER_ASSIGNMENT('1','Layer 1',(#498,#274,#275,#276,#340,
#341,#344,#345,#346,#347,#348,#349,#52,#53));
#302=PRESENTATION_LAYER_ASSIGNMENT('2','Layer 2',(#342,#343));
#303=STYLED_ITEM('',(#319),#498);
#304=STYLED_ITEM('',(#320),#274);
#305=STYLED_ITEM('',(#321),#275);
#306=STYLED_ITEM('',(#322),#276);
#307=STYLED_ITEM('',(#323),#340);
#308=STYLED_ITEM('',(#324),#341);
#309=STYLED_ITEM('',(#325),#342);
#310=STYLED_ITEM('',(#326),#343);
#311=STYLED_ITEM('',(#327),#344);
#312=STYLED_ITEM('',(#328),#345);
#313=STYLED_ITEM('',(#329),#346);
#314=STYLED_ITEM('',(#330),#347);
#315=STYLED_ITEM('',(#331),#348);
#316=STYLED_ITEM('',(#332),#349);
#317=STYLED_ITEM('',(#333),#52);
#318=STYLED_ITEM('',(#334),#53);
#319=PRESENTATION_STYLE_ASSIGNMENT((#335));
#320=PRESENTATION_STYLE_ASSIGNMENT((#248));
#321=PRESENTATION_STYLE_ASSIGNMENT((#249));
#322=PRESENTATION_STYLE_ASSIGNMENT((#250));
#323=PRESENTATION_STYLE_ASSIGNMENT((#251));
#324=PRESENTATION_STYLE_ASSIGNMENT((#252));
#325=PRESENTATION_STYLE_ASSIGNMENT((#253));
#326=PRESENTATION_STYLE_ASSIGNMENT((#254));
#327=PRESENTATION_STYLE_ASSIGNMENT((#255));
#328=PRESENTATION_STYLE_ASSIGNMENT((#256));
#329=PRESENTATION_STYLE_ASSIGNMENT((#257));
#330=PRESENTATION_STYLE_ASSIGNMENT((#258));
#331=PRESENTATION_STYLE_ASSIGNMENT((#259));
#332=PRESENTATION_STYLE_ASSIGNMENT((#260));
#333=PRESENTATION_STYLE_ASSIGNMENT((#42));
#334=PRESENTATION_STYLE_ASSIGNMENT((#43));
#335=POINT_STYLE('',#336,POSITIVE_LENGTH_MEASURE(3.),#337);
#336=PRE_DEFINED_POINT_MARKER_SYMBOL('plus');
#337=DRAUGHTING_PRE_DEFINED_COLOUR('blue');
#338=AXIS2_PLACEMENT_3D('',#497,#387,#388);
#339=AXIS2_PLACEMENT_3D('',#501,#391,#392);
#340=AXIS2_PLACEMENT_3D('',#502,#393,#394);
#341=AXIS2_PLACEMENT_3D('',#503,#395,#396);
#342=AXIS2_PLACEMENT_3D('CIP',#504,#397,#398);
#343=AXIS2_PLACEMENT_3D('PCS',#505,#399,#400);
#344=AXIS2_PLACEMENT_3D('MCS',#506,#401,#402);
#345=AXIS2_PLACEMENT_3D('',#507,#403,#404);
#346=AXIS2_PLACEMENT_3D('STEP_TEMP_IMX_9_1',#508,#405,#406);
#347=AXIS2_PLACEMENT_3D('',#509,#407,#408);
#348=AXIS2_PLACEMENT_3D('',#510,#409,#410);
#349=AXIS2_PLACEMENT_3D('',#511,#411,#412);
#350=AXIS2_PLACEMENT_3D('',#512,#413,#414);
#351=AXIS2_PLACEMENT_3D('',#515,#415,#416);
#352=AXIS2_PLACEMENT_3D('',#517,#417,#418);
#353=AXIS2_PLACEMENT_3D('',#518,#419,#420);
#354=AXIS2_PLACEMENT_3D('',#519,#421,#422);
#355=AXIS2_PLACEMENT_3D('',#520,#423,#424);
#356=AXIS2_PLACEMENT_3D('',#521,#425,#426);
#357=AXIS2_PLACEMENT_3D('',#522,#427,#428);
#358=AXIS2_PLACEMENT_3D('',#527,#430,#431);
#359=AXIS2_PLACEMENT_3D('',#530,#433,#434);
#360=AXIS2_PLACEMENT_3D('',#531,#435,#436);
#361=AXIS2_PLACEMENT_3D('',#532,#437,#438);
#362=AXIS2_PLACEMENT_3D('',#533,#439,#440);
#363=AXIS2_PLACEMENT_3D('',#536,#442,#443);
#364=AXIS2_PLACEMENT_3D('',#539,#445,#446);
#365=AXIS2_PLACEMENT_3D('',#540,#447,#448);
#366=AXIS2_PLACEMENT_3D('',#541,#449,#450);
#367=AXIS2_PLACEMENT_3D('',#542,#451,#452);
#368=AXIS2_PLACEMENT_3D('',#543,#453,#454);
#369=AXIS2_PLACEMENT_3D('',#546,#455,#456);
#370=AXIS2_PLACEMENT_3D('',#547,#457,#458);
#371=AXIS2_PLACEMENT_3D('',#550,#460,#461);
#372=AXIS2_PLACEMENT_3D('',#553,#463,#464);
#373=AXIS2_PLACEMENT_3D('',#554,#465,#466);
#374=AXIS2_PLACEMENT_3D('',#555,#467,#468);
#375=AXIS2_PLACEMENT_3D('',#556,#469,#470);
#376=AXIS2_PLACEMENT_3D('',#559,#471,#472);
#377=AXIS2_PLACEMENT_3D('',#560,#473,#474);
#378=AXIS2_PLACEMENT_3D('',#563,#476,#477);
#379=AXIS2_PLACEMENT_3D('',#566,#479,#480);
#380=AXIS2_PLACEMENT_3D('',#567,#481,#482);
#381=AXIS2_PLACEMENT_3D('',#568,#483,#484);
#382=AXIS2_PLACEMENT_3D('',#573,#487,#488);
#383=AXIS2_PLACEMENT_3D('',#574,#489,#490);
#384=AXIS2_PLACEMENT_3D('',#575,#491,#492);
#385=AXIS2_PLACEMENT_3D('',#576,#493,#494);
#386=AXIS2_PLACEMENT_3D('',#577,#495,#496);
#387=DIRECTION('',(0.,0.,1.));
#388=DIRECTION('',(1.,0.,0.));
#389=DIRECTION('',(1.,0.,0.));
#390=DIRECTION('',(0.,0.,-1.));
#391=DIRECTION('',(0.,1.,0.));
#392=DIRECTION('',(0.,0.,-1.));
#393=DIRECTION('',(0.,0.,1.));
#394=DIRECTION('',(1.,0.,0.));
#395=DIRECTION('',(0.,0.,1.));
#396=DIRECTION('',(1.,0.,0.));
#397=DIRECTION('',(0.,0.,1.));
#398=DIRECTION('',(1.,0.,0.));
#399=DIRECTION('',(0.,0.,1.));
#400=DIRECTION('',(1.,0.,0.));
#401=DIRECTION('',(0.,0.,1.));
#402=DIRECTION('',(1.,0.,0.));
#403=DIRECTION('',(0.,0.,1.));
#404=DIRECTION('',(1.,0.,0.));
#405=DIRECTION('',(0.,0.,1.));
#406=DIRECTION('',(1.,0.,0.));
#407=DIRECTION('',(0.,0.,1.));
#408=DIRECTION('',(1.,0.,0.));
#409=DIRECTION('',(0.,0.,1.));
#410=DIRECTION('',(1.,0.,0.));
#411=DIRECTION('',(0.,0.,1.));
#412=DIRECTION('',(1.,0.,0.));
#413=DIRECTION('',(1.,0.,0.));
#414=DIRECTION('',(0.,-0.866025403784454,0.499999999999974));
#415=DIRECTION('',(-1.,0.,0.));
#416=DIRECTION('',(0.,0.866025403784454,0.499999999999974));
#417=DIRECTION('',(0.,0.,-1.));
#418=DIRECTION('',(0.,1.,0.));
#419=DIRECTION('',(0.,6.12323399573677E-17,-1.));
#420=DIRECTION('',(0.,1.,0.));
#421=DIRECTION('',(0.,0.,-1.));
#422=DIRECTION('',(0.,-1.,0.));
#423=DIRECTION('',(0.,0.,-1.));
#424=DIRECTION('',(1.,0.,0.));
#425=DIRECTION('',(0.,6.12323399573677E-17,-1.));
#426=DIRECTION('',(0.,1.,0.));
#427=DIRECTION('',(0.,0.,-1.));
#428=DIRECTION('',(0.,1.,0.));
#429=DIRECTION('',(0.,0.,-1.));
#430=DIRECTION('',(0.,0.,1.));
#431=DIRECTION('',(0.,-1.,0.));
#432=DIRECTION('',(0.,0.,-1.));
#433=DIRECTION('',(0.,0.,-1.));
#434=DIRECTION('',(0.,1.,0.));
#435=DIRECTION('',(0.,0.,1.));
#436=DIRECTION('',(0.,1.,0.));
#437=DIRECTION('',(0.,0.,-1.));
#438=DIRECTION('',(0.,-1.,0.));
#439=DIRECTION('',(0.,0.,-1.));
#440=DIRECTION('',(0.,1.,0.));
#441=DIRECTION('',(0.,0.707106781186547,0.707106781186547));
#442=DIRECTION('',(0.,0.,-1.));
#443=DIRECTION('',(0.,-1.,0.));
#444=DIRECTION('',(0.,-0.707106781186547,0.707106781186547));
#445=DIRECTION('',(0.,0.,-1.));
#446=DIRECTION('',(0.,1.,-1.7307427676113E-17));
#447=DIRECTION('',(0.,0.,-1.));
#448=DIRECTION('',(0.,1.,0.));
#449=DIRECTION('',(0.,0.,-1.));
#450=DIRECTION('',(0.,1.,-1.7307427676113E-17));
#451=DIRECTION('',(0.,0.,-1.));
#452=DIRECTION('',(0.,1.,0.));
#453=DIRECTION('',(0.,0.,-1.));
#454=DIRECTION('',(0.,-1.,0.));
#455=DIRECTION('',(0.,0.,-1.));
#456=DIRECTION('',(0.,1.,0.));
#457=DIRECTION('',(0.,0.,-1.));
#458=DIRECTION('',(0.,1.,0.));
#459=DIRECTION('',(0.,-0.0333148302326285,-0.999444906979155));
#460=DIRECTION('',(0.,0.,1.));
#461=DIRECTION('',(0.,-1.,0.));
#462=DIRECTION('',(0.,0.0333148302326285,-0.999444906979155));
#463=DIRECTION('',(0.,0.,-1.));
#464=DIRECTION('',(0.,1.,-2.83541635119983E-16));
#465=DIRECTION('',(0.,0.,1.));
#466=DIRECTION('',(0.,1.,0.));
#467=DIRECTION('',(0.,0.,-1.));
#468=DIRECTION('',(0.,1.,-2.83541635119983E-16));
#469=DIRECTION('',(0.,0.,-1.));
#470=DIRECTION('',(0.,-1.,0.));
#471=DIRECTION('',(0.,0.,-1.));
#472=DIRECTION('',(0.,1.,0.));
#473=DIRECTION('',(0.,0.,-1.));
#474=DIRECTION('',(0.,1.,0.));
#475=DIRECTION('',(0.,3.359414066029E-14,-1.));
#476=DIRECTION('',(0.,0.,1.));
#477=DIRECTION('',(0.,-1.,0.));
#478=DIRECTION('',(0.,-3.359414066029E-14,-1.));
#479=DIRECTION('',(0.,0.,-1.));
#480=DIRECTION('',(0.,1.,0.));
#481=DIRECTION('',(0.,0.,1.));
#482=DIRECTION('',(0.,1.,0.));
#483=DIRECTION('',(0.,0.,-1.));
#484=DIRECTION('',(0.,1.,0.));
#485=DIRECTION('',(0.,0.500000000000017,0.866025403784429));
#486=DIRECTION('',(0.,-0.500000000000017,0.866025403784429));
#487=DIRECTION('',(0.,0.,1.));
#488=DIRECTION('',(0.,1.,0.));
#489=DIRECTION('',(0.,0.,-1.));
#490=DIRECTION('',(0.,1.,-8.04252705266327E-17));
#491=DIRECTION('',(0.,0.,1.));
#492=DIRECTION('',(0.,-1.,0.));
#493=DIRECTION('',(0.,0.,1.));
#494=DIRECTION('',(-1.,0.,0.));
#495=DIRECTION('',(0.,0.,-1.));
#496=DIRECTION('',(0.,1.,-8.04252705266327E-17));
#497=CARTESIAN_POINT('',(0.,0.,0.));
#498=CARTESIAN_POINT('CRP',(-6.,0.,0.));
#499=CARTESIAN_POINT('',(-5.196152422707,0.,9.));
#500=CARTESIAN_POINT('',(0.,0.,9.));
#501=CARTESIAN_POINT('',(0.,0.,6.));
#502=CARTESIAN_POINT('',(0.,0.,0.));
#503=CARTESIAN_POINT('',(0.,0.,0.));
#504=CARTESIAN_POINT('',(0.,0.,0.));
#505=CARTESIAN_POINT('',(0.,0.,16.5));
#506=CARTESIAN_POINT('',(0.,0.,16.5));
#507=CARTESIAN_POINT('',(0.,0.,0.));
#508=CARTESIAN_POINT('',(0.,0.,0.));
#509=CARTESIAN_POINT('',(0.,0.,0.));
#510=CARTESIAN_POINT('',(0.,0.,0.));
#511=CARTESIAN_POINT('',(0.,0.,0.));
#512=CARTESIAN_POINT('',(0.,0.,6.));
#513=CARTESIAN_POINT('',(0.,-5.196152422707,9.));
#514=CARTESIAN_POINT('',(0.,0.,0.));
#515=CARTESIAN_POINT('',(0.,0.,6.));
#516=CARTESIAN_POINT('',(0.,5.196152422707,9.));
#517=CARTESIAN_POINT('',(0.,0.,9.));
#518=CARTESIAN_POINT('',(0.,0.,6.));
#519=CARTESIAN_POINT('',(0.,0.,9.));
#520=CARTESIAN_POINT('',(150.,150.,9.));
#521=CARTESIAN_POINT('',(0.,0.,6.));
#522=CARTESIAN_POINT('',(0.,0.,29.2));
#523=CARTESIAN_POINT('',(0.,2.5,29.2));
#524=CARTESIAN_POINT('',(0.,-2.5,29.2));
#525=CARTESIAN_POINT('',(0.,-2.5,29.2));
#526=CARTESIAN_POINT('',(0.,-2.5,24.));
#527=CARTESIAN_POINT('',(0.,0.,24.));
#528=CARTESIAN_POINT('',(0.,2.5,24.));
#529=CARTESIAN_POINT('',(0.,2.5,29.2));
#530=CARTESIAN_POINT('',(0.,0.,31.08));
#531=CARTESIAN_POINT('',(0.,0.,24.));
#532=CARTESIAN_POINT('',(0.,0.,29.2));
#533=CARTESIAN_POINT('',(0.,0.,31.08));
#534=CARTESIAN_POINT('',(0.,-2.1,29.6));
#535=CARTESIAN_POINT('',(0.,-2.1,29.6));
#536=CARTESIAN_POINT('',(0.,0.,29.6));
#537=CARTESIAN_POINT('',(0.,2.1,29.6));
#538=CARTESIAN_POINT('',(0.,2.1,29.6));
#539=CARTESIAN_POINT('',(0.,0.,29.4));
#540=CARTESIAN_POINT('',(0.,0.,29.6));
#541=CARTESIAN_POINT('',(0.,0.,29.4));
#542=CARTESIAN_POINT('',(0.,0.,29.6));
#543=CARTESIAN_POINT('',(0.,0.,24.));
#544=CARTESIAN_POINT('',(0.,-3.25,24.));
#545=CARTESIAN_POINT('',(0.,3.25,24.));
#546=CARTESIAN_POINT('',(0.,0.,24.));
#547=CARTESIAN_POINT('',(0.,0.,24.));
#548=CARTESIAN_POINT('',(0.,-3.25,24.));
#549=CARTESIAN_POINT('',(0.,-3.5,16.5));
#550=CARTESIAN_POINT('',(0.,0.,16.5));
#551=CARTESIAN_POINT('',(0.,3.5,16.5));
#552=CARTESIAN_POINT('',(0.,3.25,24.));
#553=CARTESIAN_POINT('',(0.,0.,20.25));
#554=CARTESIAN_POINT('',(0.,0.,16.5));
#555=CARTESIAN_POINT('',(0.,0.,20.25));
#556=CARTESIAN_POINT('',(0.,0.,16.5));
#557=CARTESIAN_POINT('',(0.,-4.85,16.5));
#558=CARTESIAN_POINT('',(0.,4.85,16.5));
#559=CARTESIAN_POINT('',(0.,0.,16.5));
#560=CARTESIAN_POINT('',(0.,0.,16.5));
#561=CARTESIAN_POINT('',(0.,-4.85,16.5));
#562=CARTESIAN_POINT('',(0.,-4.85,9.599553583291));
#563=CARTESIAN_POINT('',(0.,0.,9.599553583291));
#564=CARTESIAN_POINT('',(0.,4.85,9.599553583291));
#565=CARTESIAN_POINT('',(0.,4.85,16.5));
#566=CARTESIAN_POINT('',(0.,0.,31.08));
#567=CARTESIAN_POINT('',(0.,0.,9.599553583291));
#568=CARTESIAN_POINT('',(0.,0.,31.08));
#569=CARTESIAN_POINT('',(0.,-4.85,9.599553583291));
#570=CARTESIAN_POINT('',(0.,-5.196152422706,9.));
#571=CARTESIAN_POINT('',(0.,4.85,9.599553583291));
#572=CARTESIAN_POINT('',(0.,5.196152422706,9.));
#573=CARTESIAN_POINT('',(0.,0.,9.));
#574=CARTESIAN_POINT('',(0.,0.,9.299776791645));
#575=CARTESIAN_POINT('',(0.,0.,9.));
#576=CARTESIAN_POINT('',(-150.,150.,9.));
#577=CARTESIAN_POINT('',(0.,0.,9.299776791645));
#578=MECHANICAL_DESIGN_GEOMETRIC_PRESENTATION_REPRESENTATION('',(#303,#304,
#305,#306,#307,#308,#309,#310,#311,#312,#313,#314,#315,#316,#317,#318),
#579);
#579=(
GEOMETRIC_REPRESENTATION_CONTEXT(3)
GLOBAL_UNCERTAINTY_ASSIGNED_CONTEXT((#580))
GLOBAL_UNIT_ASSIGNED_CONTEXT((#586,#582,#581))
REPRESENTATION_CONTEXT('IMX10B4WH12008S','TOP_LEVEL_ASSEMBLY_PART')
);
#580=UNCERTAINTY_MEASURE_WITH_UNIT(LENGTH_MEASURE(2.E-5),#586,
'DISTANCE_ACCURACY_VALUE','Maximum Tolerance applied to model');
#581=(
NAMED_UNIT(*)
SI_UNIT($,.STERADIAN.)
SOLID_ANGLE_UNIT()
);
#582=(
CONVERSION_BASED_UNIT('DEGREE',#584)
NAMED_UNIT(#583)
PLANE_ANGLE_UNIT()
);
#583=DIMENSIONAL_EXPONENTS(0.,0.,0.,0.,0.,0.,0.);
#584=PLANE_ANGLE_MEASURE_WITH_UNIT(PLANE_ANGLE_MEASURE(0.0174532925),#585);
#585=(
NAMED_UNIT(*)
PLANE_ANGLE_UNIT()
SI_UNIT($,.RADIAN.)
);
#586=(
LENGTH_UNIT()
NAMED_UNIT(*)
SI_UNIT(.MILLI.,.METRE.)
);
ENDSEC;
END-ISO-10303-21;
