ISO-10303-21;
HEADER;
/* Generated by software containing ST-Developer
 * from STEP Tools, Inc. (www.steptools.com) 
 */
/* OPTION: using custom schema-name function */

FILE_DESCRIPTION(
/* description */ (''),
/* implementation_level */ '2;1');

FILE_NAME(
/* name */ 'VQN4MBR0600.stp',
/* time_stamp */ '2021-03-23T13:54:16+09:00',
/* author */ (''),
/* organization */ (''),
/* preprocessor_version */ 'ST-DEVELOPER v16',
/* originating_system */ 'SIEMENS PLM Software NX 10.0',
/* authorisation */ '');

FILE_SCHEMA (('AUTOMOTIVE_DESIGN { 1 0 10303 214 3 1 1 1 }'));
ENDSEC;

DATA;
#10=CONSTRUCTIVE_GEOMETRY_REPRESENTATION_RELATIONSHIP(
'supplemental geometry','',#26,#11);
#11=CONSTRUCTIVE_GEOMETRY_REPRESENTATION('supplemental geometry',(#287,
#288,#289,#290,#291,#292,#293,#294,#295,#296,#297,#298,#299),#472);
#12=GEOMETRICALLY_BOUNDED_WIREFRAME_SHAPE_REPRESENTATION(
'VQN4MBR0600-None',(#27),#472);
#13=SHAPE_REPRESENTATION_RELATIONSHIP('None',
'relationship between VQN4MBR0600-None and VQN4MBR0600-None',#26,#15);
#14=SHAPE_REPRESENTATION_RELATIONSHIP('None',
'relationship between VQN4MBR0600-None and VQN4MBR0600-None',#26,#12);
#15=ADVANCED_BREP_SHAPE_REPRESENTATION('VQN4MBR0600-None',(#40,#41),#472);
#16=SHAPE_DEFINITION_REPRESENTATION(#17,#26);
#17=PRODUCT_DEFINITION_SHAPE('','SHAPE FOR VQN4MBR0600_ASM.',#18);
#18=PRODUCT_DEFINITION('part definition','',#20,#19);
#19=PRODUCT_DEFINITION_CONTEXT('part definition',#25,'design');
#20=PRODUCT_DEFINITION_FORMATION_WITH_SPECIFIED_SOURCE(' ',' ',#22,
 .NOT_KNOWN.);
#21=PRODUCT_RELATED_PRODUCT_CATEGORY('part','',(#22));
#22=PRODUCT('VQN4MBR0600_ASM','VQN4MBR0600_ASM','NOT SPECIFIED',(#23));
#23=PRODUCT_CONTEXT('',#25,'mechanical');
#24=APPLICATION_PROTOCOL_DEFINITION('international standard',
'automotive_design',2010,#25);
#25=APPLICATION_CONTEXT(
'core data for automotive mechanical design processes');
#26=SHAPE_REPRESENTATION('VQN4MBR0600-None',(#285),#472);
#27=GEOMETRIC_CURVE_SET('None',(#409,#410,#411,#412,#413,#199,#200,#201,
#202));
#28=CONICAL_SURFACE('',#319,5.75,45.);
#29=CONICAL_SURFACE('',#321,5.75,45.);
#30=SURFACE_STYLE_USAGE(.BOTH.,#32);
#31=SURFACE_STYLE_USAGE(.BOTH.,#33);
#32=SURFACE_SIDE_STYLE('',(#34));
#33=SURFACE_SIDE_STYLE('',(#35));
#34=SURFACE_STYLE_FILL_AREA(#36);
#35=SURFACE_STYLE_FILL_AREA(#37);
#36=FILL_AREA_STYLE('',(#38));
#37=FILL_AREA_STYLE('',(#39));
#38=FILL_AREA_STYLE_COLOUR('',#283);
#39=FILL_AREA_STYLE_COLOUR('',#284);
#40=MANIFOLD_SOLID_BREP('CUT',#42);
#41=MANIFOLD_SOLID_BREP('NOCUT',#43);
#42=CLOSED_SHELL('',(#49,#50,#51,#52,#53));
#43=CLOSED_SHELL('',(#54,#55,#56,#57,#58,#59));
#44=SPHERICAL_SURFACE('',#309,6.);
#45=SPHERICAL_SURFACE('',#310,6.);
#46=PLANE('',#304);
#47=PLANE('',#315);
#48=PLANE('',#322);
#49=ADVANCED_FACE('',(#64),#60,.T.);
#50=ADVANCED_FACE('',(#65),#46,.F.);
#51=ADVANCED_FACE('',(#66),#61,.T.);
#52=ADVANCED_FACE('',(#67),#44,.T.);
#53=ADVANCED_FACE('',(#68),#45,.T.);
#54=ADVANCED_FACE('',(#69),#62,.T.);
#55=ADVANCED_FACE('',(#70),#47,.F.);
#56=ADVANCED_FACE('',(#71),#63,.T.);
#57=ADVANCED_FACE('',(#72),#28,.T.);
#58=ADVANCED_FACE('',(#73),#29,.T.);
#59=ADVANCED_FACE('',(#74),#48,.F.);
#60=CYLINDRICAL_SURFACE('',#302,6.);
#61=CYLINDRICAL_SURFACE('',#306,6.);
#62=CYLINDRICAL_SURFACE('',#313,6.);
#63=CYLINDRICAL_SURFACE('',#317,6.);
#64=FACE_OUTER_BOUND('',#75,.T.);
#65=FACE_OUTER_BOUND('',#76,.T.);
#66=FACE_OUTER_BOUND('',#77,.T.);
#67=FACE_OUTER_BOUND('',#78,.T.);
#68=FACE_OUTER_BOUND('',#79,.T.);
#69=FACE_OUTER_BOUND('',#80,.T.);
#70=FACE_OUTER_BOUND('',#81,.T.);
#71=FACE_OUTER_BOUND('',#82,.T.);
#72=FACE_OUTER_BOUND('',#83,.T.);
#73=FACE_OUTER_BOUND('',#84,.T.);
#74=FACE_OUTER_BOUND('',#85,.T.);
#75=EDGE_LOOP('',(#86,#87,#88,#89));
#76=EDGE_LOOP('',(#90,#91));
#77=EDGE_LOOP('',(#92,#93,#94,#95));
#78=EDGE_LOOP('',(#96,#97,#98));
#79=EDGE_LOOP('',(#99,#100,#101));
#80=EDGE_LOOP('',(#102,#103,#104,#105));
#81=EDGE_LOOP('',(#106,#107));
#82=EDGE_LOOP('',(#108,#109,#110,#111));
#83=EDGE_LOOP('',(#112,#113,#114,#115));
#84=EDGE_LOOP('',(#116,#117,#118,#119));
#85=EDGE_LOOP('',(#120,#121));
#86=ORIENTED_EDGE('',*,*,#133,.T.);
#87=ORIENTED_EDGE('',*,*,#134,.T.);
#88=ORIENTED_EDGE('',*,*,#135,.F.);
#89=ORIENTED_EDGE('',*,*,#136,.T.);
#90=ORIENTED_EDGE('',*,*,#137,.F.);
#91=ORIENTED_EDGE('',*,*,#136,.F.);
#92=ORIENTED_EDGE('',*,*,#135,.T.);
#93=ORIENTED_EDGE('',*,*,#138,.T.);
#94=ORIENTED_EDGE('',*,*,#133,.F.);
#95=ORIENTED_EDGE('',*,*,#137,.T.);
#96=ORIENTED_EDGE('',*,*,#139,.T.);
#97=ORIENTED_EDGE('',*,*,#138,.F.);
#98=ORIENTED_EDGE('',*,*,#140,.F.);
#99=ORIENTED_EDGE('',*,*,#134,.F.);
#100=ORIENTED_EDGE('',*,*,#139,.F.);
#101=ORIENTED_EDGE('',*,*,#140,.T.);
#102=ORIENTED_EDGE('',*,*,#141,.F.);
#103=ORIENTED_EDGE('',*,*,#142,.T.);
#104=ORIENTED_EDGE('',*,*,#143,.T.);
#105=ORIENTED_EDGE('',*,*,#144,.T.);
#106=ORIENTED_EDGE('',*,*,#145,.F.);
#107=ORIENTED_EDGE('',*,*,#144,.F.);
#108=ORIENTED_EDGE('',*,*,#143,.F.);
#109=ORIENTED_EDGE('',*,*,#146,.T.);
#110=ORIENTED_EDGE('',*,*,#141,.T.);
#111=ORIENTED_EDGE('',*,*,#145,.T.);
#112=ORIENTED_EDGE('',*,*,#146,.F.);
#113=ORIENTED_EDGE('',*,*,#147,.T.);
#114=ORIENTED_EDGE('',*,*,#148,.T.);
#115=ORIENTED_EDGE('',*,*,#149,.F.);
#116=ORIENTED_EDGE('',*,*,#150,.T.);
#117=ORIENTED_EDGE('',*,*,#147,.F.);
#118=ORIENTED_EDGE('',*,*,#142,.F.);
#119=ORIENTED_EDGE('',*,*,#149,.T.);
#120=ORIENTED_EDGE('',*,*,#150,.F.);
#121=ORIENTED_EDGE('',*,*,#148,.F.);
#122=VERTEX_POINT('',#432);
#123=VERTEX_POINT('',#433);
#124=VERTEX_POINT('',#435);
#125=VERTEX_POINT('',#437);
#126=VERTEX_POINT('',#445);
#127=VERTEX_POINT('',#450);
#128=VERTEX_POINT('',#451);
#129=VERTEX_POINT('',#453);
#130=VERTEX_POINT('',#455);
#131=VERTEX_POINT('',#463);
#132=VERTEX_POINT('',#465);
#133=EDGE_CURVE('',#122,#123,#206,.T.);
#134=EDGE_CURVE('',#123,#124,#152,.T.);
#135=EDGE_CURVE('',#125,#124,#207,.T.);
#136=EDGE_CURVE('',#125,#122,#153,.T.);
#137=EDGE_CURVE('',#122,#125,#154,.T.);
#138=EDGE_CURVE('',#124,#123,#155,.T.);
#139=EDGE_CURVE('',#126,#123,#156,.T.);
#140=EDGE_CURVE('',#126,#124,#157,.T.);
#141=EDGE_CURVE('',#127,#128,#208,.T.);
#142=EDGE_CURVE('',#127,#129,#158,.T.);
#143=EDGE_CURVE('',#129,#130,#209,.T.);
#144=EDGE_CURVE('',#130,#128,#159,.T.);
#145=EDGE_CURVE('',#128,#130,#160,.T.);
#146=EDGE_CURVE('',#129,#127,#161,.T.);
#147=EDGE_CURVE('',#129,#131,#210,.T.);
#148=EDGE_CURVE('',#131,#132,#162,.T.);
#149=EDGE_CURVE('',#127,#132,#211,.T.);
#150=EDGE_CURVE('',#132,#131,#163,.T.);
#151=CIRCLE('',#286,6.);
#152=CIRCLE('',#300,6.);
#153=CIRCLE('',#301,6.);
#154=CIRCLE('',#303,6.);
#155=CIRCLE('',#305,6.);
#156=CIRCLE('',#307,6.);
#157=CIRCLE('',#308,6.);
#158=CIRCLE('',#311,6.);
#159=CIRCLE('',#312,6.);
#160=CIRCLE('',#314,6.);
#161=CIRCLE('',#316,6.);
#162=CIRCLE('',#318,5.5);
#163=CIRCLE('',#320,5.5);
#164=CURVE_STYLE('',#182,POSITIVE_LENGTH_MEASURE(0.18),#181);
#165=CURVE_STYLE('',#183,POSITIVE_LENGTH_MEASURE(0.18),#181);
#166=CURVE_STYLE('',#184,POSITIVE_LENGTH_MEASURE(0.18),#181);
#167=CURVE_STYLE('',#185,POSITIVE_LENGTH_MEASURE(0.18),#181);
#168=CURVE_STYLE('',#186,POSITIVE_LENGTH_MEASURE(0.13),#282);
#169=CURVE_STYLE('',#187,POSITIVE_LENGTH_MEASURE(0.13),#282);
#170=CURVE_STYLE('',#188,POSITIVE_LENGTH_MEASURE(0.13),#282);
#171=CURVE_STYLE('',#189,POSITIVE_LENGTH_MEASURE(0.13),#281);
#172=CURVE_STYLE('',#190,POSITIVE_LENGTH_MEASURE(0.13),#281);
#173=CURVE_STYLE('',#191,POSITIVE_LENGTH_MEASURE(0.18),#282);
#174=CURVE_STYLE('',#192,POSITIVE_LENGTH_MEASURE(0.13),#281);
#175=CURVE_STYLE('',#193,POSITIVE_LENGTH_MEASURE(0.13),#282);
#176=CURVE_STYLE('',#194,POSITIVE_LENGTH_MEASURE(0.13),#282);
#177=CURVE_STYLE('',#195,POSITIVE_LENGTH_MEASURE(0.13),#282);
#178=CURVE_STYLE('',#196,POSITIVE_LENGTH_MEASURE(0.13),#281);
#179=CURVE_STYLE('',#197,POSITIVE_LENGTH_MEASURE(0.13),#282);
#180=CURVE_STYLE('',#198,POSITIVE_LENGTH_MEASURE(0.13),#282);
#181=DRAUGHTING_PRE_DEFINED_COLOUR('blue');
#182=DRAUGHTING_PRE_DEFINED_CURVE_FONT('continuous');
#183=DRAUGHTING_PRE_DEFINED_CURVE_FONT('continuous');
#184=DRAUGHTING_PRE_DEFINED_CURVE_FONT('continuous');
#185=DRAUGHTING_PRE_DEFINED_CURVE_FONT('continuous');
#186=DRAUGHTING_PRE_DEFINED_CURVE_FONT('continuous');
#187=DRAUGHTING_PRE_DEFINED_CURVE_FONT('continuous');
#188=DRAUGHTING_PRE_DEFINED_CURVE_FONT('continuous');
#189=DRAUGHTING_PRE_DEFINED_CURVE_FONT('continuous');
#190=DRAUGHTING_PRE_DEFINED_CURVE_FONT('continuous');
#191=DRAUGHTING_PRE_DEFINED_CURVE_FONT('continuous');
#192=DRAUGHTING_PRE_DEFINED_CURVE_FONT('continuous');
#193=DRAUGHTING_PRE_DEFINED_CURVE_FONT('continuous');
#194=DRAUGHTING_PRE_DEFINED_CURVE_FONT('continuous');
#195=DRAUGHTING_PRE_DEFINED_CURVE_FONT('continuous');
#196=DRAUGHTING_PRE_DEFINED_CURVE_FONT('continuous');
#197=DRAUGHTING_PRE_DEFINED_CURVE_FONT('continuous');
#198=DRAUGHTING_PRE_DEFINED_CURVE_FONT('continuous');
#199=TRIMMED_CURVE('',#203,(PARAMETER_VALUE(0.)),(PARAMETER_VALUE(1.)),
 .T.,.PARAMETER.);
#200=TRIMMED_CURVE('',#204,(PARAMETER_VALUE(0.)),(PARAMETER_VALUE(1.)),
 .T.,.PARAMETER.);
#201=TRIMMED_CURVE('',#205,(PARAMETER_VALUE(0.)),(PARAMETER_VALUE(1.)),
 .T.,.PARAMETER.);
#202=TRIMMED_CURVE('',#151,(PARAMETER_VALUE(0.)),(PARAMETER_VALUE(90.)),
 .T.,.PARAMETER.);
#203=LINE('',#414,#212);
#204=LINE('',#415,#213);
#205=LINE('',#416,#214);
#206=LINE('',#431,#215);
#207=LINE('',#436,#216);
#208=LINE('',#449,#217);
#209=LINE('',#454,#218);
#210=LINE('',#462,#219);
#211=LINE('',#466,#220);
#212=VECTOR('',#325,16.);
#213=VECTOR('',#326,6.);
#214=VECTOR('',#327,22.);
#215=VECTOR('',#356,1.);
#216=VECTOR('',#359,1.);
#217=VECTOR('',#380,1.);
#218=VECTOR('',#383,1.);
#219=VECTOR('',#396,1.);
#220=VECTOR('',#399,1.);
#221=PRESENTATION_LAYER_ASSIGNMENT('2','Layer 2',(#409,#410,#290,#291));
#222=PRESENTATION_LAYER_ASSIGNMENT('1','Layer 1',(#411,#412,#413,#199,#200,
#201,#202,#287,#288,#289,#292,#293,#294,#295,#296,#297,#298,#299,#40,#41));
#223=STYLED_ITEM('',(#247),#409);
#224=STYLED_ITEM('',(#248),#410);
#225=STYLED_ITEM('',(#249),#411);
#226=STYLED_ITEM('',(#250),#412);
#227=STYLED_ITEM('',(#251),#413);
#228=STYLED_ITEM('',(#252),#199);
#229=STYLED_ITEM('',(#253),#200);
#230=STYLED_ITEM('',(#254),#201);
#231=STYLED_ITEM('',(#255),#202);
#232=STYLED_ITEM('',(#256),#287);
#233=STYLED_ITEM('',(#257),#288);
#234=STYLED_ITEM('',(#258),#289);
#235=STYLED_ITEM('',(#259),#290);
#236=STYLED_ITEM('',(#260),#291);
#237=STYLED_ITEM('',(#261),#292);
#238=STYLED_ITEM('',(#262),#293);
#239=STYLED_ITEM('',(#263),#294);
#240=STYLED_ITEM('',(#264),#295);
#241=STYLED_ITEM('',(#265),#296);
#242=STYLED_ITEM('',(#266),#297);
#243=STYLED_ITEM('',(#267),#298);
#244=STYLED_ITEM('',(#268),#299);
#245=STYLED_ITEM('',(#269),#40);
#246=STYLED_ITEM('',(#270),#41);
#247=PRESENTATION_STYLE_ASSIGNMENT((#271));
#248=PRESENTATION_STYLE_ASSIGNMENT((#272));
#249=PRESENTATION_STYLE_ASSIGNMENT((#273));
#250=PRESENTATION_STYLE_ASSIGNMENT((#274));
#251=PRESENTATION_STYLE_ASSIGNMENT((#275));
#252=PRESENTATION_STYLE_ASSIGNMENT((#164));
#253=PRESENTATION_STYLE_ASSIGNMENT((#165));
#254=PRESENTATION_STYLE_ASSIGNMENT((#166));
#255=PRESENTATION_STYLE_ASSIGNMENT((#167));
#256=PRESENTATION_STYLE_ASSIGNMENT((#168));
#257=PRESENTATION_STYLE_ASSIGNMENT((#169));
#258=PRESENTATION_STYLE_ASSIGNMENT((#170));
#259=PRESENTATION_STYLE_ASSIGNMENT((#171));
#260=PRESENTATION_STYLE_ASSIGNMENT((#172));
#261=PRESENTATION_STYLE_ASSIGNMENT((#173));
#262=PRESENTATION_STYLE_ASSIGNMENT((#174));
#263=PRESENTATION_STYLE_ASSIGNMENT((#175));
#264=PRESENTATION_STYLE_ASSIGNMENT((#176));
#265=PRESENTATION_STYLE_ASSIGNMENT((#177));
#266=PRESENTATION_STYLE_ASSIGNMENT((#178));
#267=PRESENTATION_STYLE_ASSIGNMENT((#179));
#268=PRESENTATION_STYLE_ASSIGNMENT((#180));
#269=PRESENTATION_STYLE_ASSIGNMENT((#30));
#270=PRESENTATION_STYLE_ASSIGNMENT((#31));
#271=POINT_STYLE('',#276,POSITIVE_LENGTH_MEASURE(3.),#281);
#272=POINT_STYLE('',#277,POSITIVE_LENGTH_MEASURE(3.),#281);
#273=POINT_STYLE('',#278,POSITIVE_LENGTH_MEASURE(3.),#282);
#274=POINT_STYLE('',#279,POSITIVE_LENGTH_MEASURE(3.),#281);
#275=POINT_STYLE('',#280,POSITIVE_LENGTH_MEASURE(3.),#281);
#276=PRE_DEFINED_POINT_MARKER_SYMBOL('plus');
#277=PRE_DEFINED_POINT_MARKER_SYMBOL('plus');
#278=PRE_DEFINED_POINT_MARKER_SYMBOL('plus');
#279=PRE_DEFINED_POINT_MARKER_SYMBOL('plus');
#280=PRE_DEFINED_POINT_MARKER_SYMBOL('plus');
#281=COLOUR_RGB('Medium Umber',0.372533760585946,0.313725490196078,0.270572976272221);
#282=COLOUR_RGB('Strong Stone',0.576470588235294,0.54508278019379,0.392156862745098);
#283=COLOUR_RGB('Light Gray',0.8,0.8,0.8);
#284=COLOUR_RGB('non-cutting part and shank',0.501960784313725,0.501960784313725,
0.501960784313725);
#285=AXIS2_PLACEMENT_3D('',#408,#323,#324);
#286=AXIS2_PLACEMENT_3D('',#417,#328,#329);
#287=AXIS2_PLACEMENT_3D('',#418,#330,#331);
#288=AXIS2_PLACEMENT_3D('',#419,#332,#333);
#289=AXIS2_PLACEMENT_3D('',#420,#334,#335);
#290=AXIS2_PLACEMENT_3D('CIP',#421,#336,#337);
#291=AXIS2_PLACEMENT_3D('PCS',#422,#338,#339);
#292=AXIS2_PLACEMENT_3D('MCS',#423,#340,#341);
#293=AXIS2_PLACEMENT_3D('STEP_TEMP_EM2_1',#424,#342,#343);
#294=AXIS2_PLACEMENT_3D('',#425,#344,#345);
#295=AXIS2_PLACEMENT_3D('',#426,#346,#347);
#296=AXIS2_PLACEMENT_3D('',#427,#348,#349);
#297=AXIS2_PLACEMENT_3D('STEP_TEMP_EM2_2',#428,#350,#351);
#298=AXIS2_PLACEMENT_3D('',#429,#352,#353);
#299=AXIS2_PLACEMENT_3D('',#430,#354,#355);
#300=AXIS2_PLACEMENT_3D('',#434,#357,#358);
#301=AXIS2_PLACEMENT_3D('',#438,#360,#361);
#302=AXIS2_PLACEMENT_3D('',#439,#362,#363);
#303=AXIS2_PLACEMENT_3D('',#440,#364,#365);
#304=AXIS2_PLACEMENT_3D('',#441,#366,#367);
#305=AXIS2_PLACEMENT_3D('',#442,#368,#369);
#306=AXIS2_PLACEMENT_3D('',#443,#370,#371);
#307=AXIS2_PLACEMENT_3D('',#444,#372,#373);
#308=AXIS2_PLACEMENT_3D('',#446,#374,#375);
#309=AXIS2_PLACEMENT_3D('',#447,#376,#377);
#310=AXIS2_PLACEMENT_3D('',#448,#378,#379);
#311=AXIS2_PLACEMENT_3D('',#452,#381,#382);
#312=AXIS2_PLACEMENT_3D('',#456,#384,#385);
#313=AXIS2_PLACEMENT_3D('',#457,#386,#387);
#314=AXIS2_PLACEMENT_3D('',#458,#388,#389);
#315=AXIS2_PLACEMENT_3D('',#459,#390,#391);
#316=AXIS2_PLACEMENT_3D('',#460,#392,#393);
#317=AXIS2_PLACEMENT_3D('',#461,#394,#395);
#318=AXIS2_PLACEMENT_3D('',#464,#397,#398);
#319=AXIS2_PLACEMENT_3D('',#467,#400,#401);
#320=AXIS2_PLACEMENT_3D('',#468,#402,#403);
#321=AXIS2_PLACEMENT_3D('',#469,#404,#405);
#322=AXIS2_PLACEMENT_3D('',#470,#406,#407);
#323=DIRECTION('',(0.,0.,1.));
#324=DIRECTION('',(1.,0.,0.));
#325=DIRECTION('',(0.,0.,1.));
#326=DIRECTION('',(1.,0.,0.));
#327=DIRECTION('',(0.,0.,-1.));
#328=DIRECTION('',(0.,1.,0.));
#329=DIRECTION('',(0.,0.,-1.));
#330=DIRECTION('',(0.,0.,1.));
#331=DIRECTION('',(1.,0.,0.));
#332=DIRECTION('',(0.,0.,1.));
#333=DIRECTION('',(1.,0.,0.));
#334=DIRECTION('',(0.,0.,1.));
#335=DIRECTION('',(1.,0.,0.));
#336=DIRECTION('',(0.,0.,1.));
#337=DIRECTION('',(1.,0.,0.));
#338=DIRECTION('',(0.,0.,1.));
#339=DIRECTION('',(1.,0.,0.));
#340=DIRECTION('',(0.,0.,1.));
#341=DIRECTION('',(1.,0.,0.));
#342=DIRECTION('',(0.,0.,1.));
#343=DIRECTION('',(1.,0.,0.));
#344=DIRECTION('',(0.,0.,1.));
#345=DIRECTION('',(1.,0.,0.));
#346=DIRECTION('',(0.,0.,1.));
#347=DIRECTION('',(1.,0.,0.));
#348=DIRECTION('',(0.,0.,1.));
#349=DIRECTION('',(1.,0.,0.));
#350=DIRECTION('',(0.,0.,1.));
#351=DIRECTION('',(1.,0.,0.));
#352=DIRECTION('',(0.,0.,1.));
#353=DIRECTION('',(1.,0.,0.));
#354=DIRECTION('',(0.,0.,1.));
#355=DIRECTION('',(1.,0.,0.));
#356=DIRECTION('',(0.,0.,-1.));
#357=DIRECTION('',(0.,0.,1.));
#358=DIRECTION('',(0.,-1.,0.));
#359=DIRECTION('',(0.,0.,-1.));
#360=DIRECTION('',(0.,0.,-1.));
#361=DIRECTION('',(0.,1.,0.));
#362=DIRECTION('',(0.,0.,-1.));
#363=DIRECTION('',(0.,1.,0.));
#364=DIRECTION('',(0.,0.,-1.));
#365=DIRECTION('',(0.,-1.,0.));
#366=DIRECTION('',(0.,0.,-1.));
#367=DIRECTION('',(1.,0.,0.));
#368=DIRECTION('',(0.,0.,1.));
#369=DIRECTION('',(0.,1.,0.));
#370=DIRECTION('',(0.,0.,-1.));
#371=DIRECTION('',(0.,1.,0.));
#372=DIRECTION('',(-1.,0.,0.));
#373=DIRECTION('',(0.,-1.,0.));
#374=DIRECTION('',(1.,0.,0.));
#375=DIRECTION('',(0.,1.,0.));
#376=DIRECTION('',(0.,6.12323399573677E-17,-1.));
#377=DIRECTION('',(0.,1.,0.));
#378=DIRECTION('',(0.,6.12323399573677E-17,-1.));
#379=DIRECTION('',(0.,1.,0.));
#380=DIRECTION('',(0.,0.,-1.));
#381=DIRECTION('',(0.,0.,-1.));
#382=DIRECTION('',(0.,1.,0.));
#383=DIRECTION('',(0.,0.,-1.));
#384=DIRECTION('',(0.,0.,1.));
#385=DIRECTION('',(0.,-1.,0.));
#386=DIRECTION('',(0.,0.,-1.));
#387=DIRECTION('',(0.,1.,0.));
#388=DIRECTION('',(0.,0.,1.));
#389=DIRECTION('',(0.,1.,0.));
#390=DIRECTION('',(0.,0.,1.));
#391=DIRECTION('',(-1.,0.,0.));
#392=DIRECTION('',(0.,0.,-1.));
#393=DIRECTION('',(0.,-1.,0.));
#394=DIRECTION('',(0.,0.,-1.));
#395=DIRECTION('',(0.,1.,0.));
#396=DIRECTION('',(0.,0.707106781186547,0.707106781186547));
#397=DIRECTION('',(0.,0.,-1.));
#398=DIRECTION('',(0.,-1.,0.));
#399=DIRECTION('',(0.,-0.707106781186547,0.707106781186547));
#400=DIRECTION('',(0.,0.,-1.));
#401=DIRECTION('',(0.,1.,-1.37984467390648E-17));
#402=DIRECTION('',(0.,0.,-1.));
#403=DIRECTION('',(0.,1.,0.));
#404=DIRECTION('',(0.,0.,-1.));
#405=DIRECTION('',(0.,1.,-1.37984467390648E-17));
#406=DIRECTION('',(0.,0.,-1.));
#407=DIRECTION('',(0.,1.,0.));
#408=CARTESIAN_POINT('',(0.,0.,0.));
#409=CARTESIAN_POINT('',(0.,0.,0.));
#410=CARTESIAN_POINT('',(0.,0.,80.));
#411=CARTESIAN_POINT('',(0.,0.,62.));
#412=CARTESIAN_POINT('',(0.,0.,0.));
#413=CARTESIAN_POINT('',(0.,0.,0.));
#414=CARTESIAN_POINT('',(-6.,0.,6.));
#415=CARTESIAN_POINT('',(-6.,0.,22.));
#416=CARTESIAN_POINT('',(0.,0.,22.));
#417=CARTESIAN_POINT('',(0.,0.,6.));
#418=CARTESIAN_POINT('',(0.,0.,0.));
#419=CARTESIAN_POINT('',(0.,0.,0.));
#420=CARTESIAN_POINT('',(0.,0.,0.));
#421=CARTESIAN_POINT('',(0.,0.,0.));
#422=CARTESIAN_POINT('',(0.,0.,80.));
#423=CARTESIAN_POINT('',(0.,0.,62.));
#424=CARTESIAN_POINT('',(0.,0.,0.));
#425=CARTESIAN_POINT('',(0.,0.,0.));
#426=CARTESIAN_POINT('',(0.,0.,0.));
#427=CARTESIAN_POINT('',(0.,0.,0.));
#428=CARTESIAN_POINT('',(0.,0.,0.));
#429=CARTESIAN_POINT('',(0.,0.,0.));
#430=CARTESIAN_POINT('',(0.,0.,0.));
#431=CARTESIAN_POINT('',(0.,-6.,22.));
#432=CARTESIAN_POINT('',(0.,-6.,22.));
#433=CARTESIAN_POINT('',(0.,-6.,6.));
#434=CARTESIAN_POINT('',(0.,0.,6.));
#435=CARTESIAN_POINT('',(0.,6.,6.));
#436=CARTESIAN_POINT('',(0.,6.,22.));
#437=CARTESIAN_POINT('',(0.,6.,22.));
#438=CARTESIAN_POINT('',(0.,1.433042468975E-14,22.));
#439=CARTESIAN_POINT('',(0.,1.433042468975E-14,84.));
#440=CARTESIAN_POINT('',(0.,1.433042468975E-14,22.));
#441=CARTESIAN_POINT('',(150.,150.,22.));
#442=CARTESIAN_POINT('',(0.,0.,6.));
#443=CARTESIAN_POINT('',(0.,1.433042468975E-14,84.));
#444=CARTESIAN_POINT('',(0.,0.,6.));
#445=CARTESIAN_POINT('',(0.,0.,0.));
#446=CARTESIAN_POINT('',(0.,0.,6.));
#447=CARTESIAN_POINT('',(0.,0.,6.));
#448=CARTESIAN_POINT('',(0.,0.,6.));
#449=CARTESIAN_POINT('',(0.,6.,79.5));
#450=CARTESIAN_POINT('',(0.,6.,79.5));
#451=CARTESIAN_POINT('',(0.,6.,22.));
#452=CARTESIAN_POINT('',(0.,1.354971235529E-14,79.5));
#453=CARTESIAN_POINT('',(0.,-6.,79.5));
#454=CARTESIAN_POINT('',(0.,-6.,79.5));
#455=CARTESIAN_POINT('',(0.,-6.,22.));
#456=CARTESIAN_POINT('',(0.,1.433042468975E-14,22.));
#457=CARTESIAN_POINT('',(0.,1.433042468975E-14,84.));
#458=CARTESIAN_POINT('',(0.,1.433042468975E-14,22.));
#459=CARTESIAN_POINT('',(-150.,150.,22.));
#460=CARTESIAN_POINT('',(0.,1.354971235529E-14,79.5));
#461=CARTESIAN_POINT('',(0.,1.433042468975E-14,84.));
#462=CARTESIAN_POINT('',(0.,-5.5,80.));
#463=CARTESIAN_POINT('',(0.,-5.5,80.));
#464=CARTESIAN_POINT('',(0.,1.354971235529E-14,80.));
#465=CARTESIAN_POINT('',(0.,5.5,80.));
#466=CARTESIAN_POINT('',(0.,5.5,80.));
#467=CARTESIAN_POINT('',(0.,1.354971235529E-14,79.75));
#468=CARTESIAN_POINT('',(0.,1.354971235529E-14,80.));
#469=CARTESIAN_POINT('',(0.,1.354971235529E-14,79.75));
#470=CARTESIAN_POINT('',(0.,1.359563661026E-14,80.));
#471=MECHANICAL_DESIGN_GEOMETRIC_PRESENTATION_REPRESENTATION('',(#223,#224,
#225,#226,#227,#228,#229,#230,#231,#232,#233,#234,#235,#236,#237,#238,#239,
#240,#241,#242,#243,#244,#245,#246),#472);
#472=(
GEOMETRIC_REPRESENTATION_CONTEXT(3)
GLOBAL_UNCERTAINTY_ASSIGNED_CONTEXT((#473))
GLOBAL_UNIT_ASSIGNED_CONTEXT((#479,#475,#474))
REPRESENTATION_CONTEXT('VQN4MBR0600','TOP_LEVEL_ASSEMBLY_PART')
);
#473=UNCERTAINTY_MEASURE_WITH_UNIT(LENGTH_MEASURE(2.E-5),#479,
'DISTANCE_ACCURACY_VALUE','Maximum Tolerance applied to model');
#474=(
NAMED_UNIT(*)
SI_UNIT($,.STERADIAN.)
SOLID_ANGLE_UNIT()
);
#475=(
CONVERSION_BASED_UNIT('DEGREE',#477)
NAMED_UNIT(#476)
PLANE_ANGLE_UNIT()
);
#476=DIMENSIONAL_EXPONENTS(0.,0.,0.,0.,0.,0.,0.);
#477=PLANE_ANGLE_MEASURE_WITH_UNIT(PLANE_ANGLE_MEASURE(0.0174532925),#478);
#478=(
NAMED_UNIT(*)
PLANE_ANGLE_UNIT()
SI_UNIT($,.RADIAN.)
);
#479=(
LENGTH_UNIT()
NAMED_UNIT(*)
SI_UNIT(.MILLI.,.METRE.)
);
ENDSEC;
END-ISO-10303-21;
