ISO-10303-21;
HEADER;
/* Generated by software containing ST-Developer
 * from STEP Tools, Inc. (www.steptools.com) 
 */
/* OPTION: using custom schema-name function */

FILE_DESCRIPTION(
/* description */ (''),
/* implementation_level */ '2;1');

FILE_NAME(
/* name */ 'VQN4MBR0250.stp',
/* time_stamp */ '2021-03-23T13:54:16+09:00',
/* author */ (''),
/* organization */ (''),
/* preprocessor_version */ 'ST-DEVELOPER v16',
/* originating_system */ 'SIEMENS PLM Software NX 10.0',
/* authorisation */ '');

FILE_SCHEMA (('AUTOMOTIVE_DESIGN { 1 0 10303 214 3 1 1 1 }'));
ENDSEC;

DATA;
#10=CONSTRUCTIVE_GEOMETRY_REPRESENTATION_RELATIONSHIP(
'supplemental geometry','',#26,#11);
#11=CONSTRUCTIVE_GEOMETRY_REPRESENTATION('supplemental geometry',(#343,
#344,#345,#346,#347,#348,#349,#350,#351,#352,#353,#354,#355),#572);
#12=GEOMETRICALLY_BOUNDED_WIREFRAME_SHAPE_REPRESENTATION(
'VQN4MBR0250-None',(#27),#572);
#13=SHAPE_REPRESENTATION_RELATIONSHIP('None',
'relationship between VQN4MBR0250-None and VQN4MBR0250-None',#26,#15);
#14=SHAPE_REPRESENTATION_RELATIONSHIP('None',
'relationship between VQN4MBR0250-None and VQN4MBR0250-None',#26,#12);
#15=ADVANCED_BREP_SHAPE_REPRESENTATION('VQN4MBR0250-None',(#42,#43),#572);
#16=SHAPE_DEFINITION_REPRESENTATION(#17,#26);
#17=PRODUCT_DEFINITION_SHAPE('','SHAPE FOR VQN4MBR0250_ASM.',#18);
#18=PRODUCT_DEFINITION('part definition','',#20,#19);
#19=PRODUCT_DEFINITION_CONTEXT('part definition',#25,'design');
#20=PRODUCT_DEFINITION_FORMATION_WITH_SPECIFIED_SOURCE(' ',' ',#22,
 .NOT_KNOWN.);
#21=PRODUCT_RELATED_PRODUCT_CATEGORY('part','',(#22));
#22=PRODUCT('VQN4MBR0250_ASM','VQN4MBR0250_ASM','NOT SPECIFIED',(#23));
#23=PRODUCT_CONTEXT('',#25,'mechanical');
#24=APPLICATION_PROTOCOL_DEFINITION('international standard',
'automotive_design',2010,#25);
#25=APPLICATION_CONTEXT(
'core data for automotive mechanical design processes');
#26=SHAPE_REPRESENTATION('VQN4MBR0250-None',(#341),#572);
#27=GEOMETRIC_CURVE_SET('None',(#493,#494,#495,#496,#497,#247,#248,#249,
#250));
#28=CONICAL_SURFACE('',#375,2.75,15.);
#29=CONICAL_SURFACE('',#377,2.75,15.);
#30=CONICAL_SURFACE('',#383,2.75,45.);
#31=CONICAL_SURFACE('',#385,2.75,45.);
#32=SURFACE_STYLE_USAGE(.BOTH.,#34);
#33=SURFACE_STYLE_USAGE(.BOTH.,#35);
#34=SURFACE_SIDE_STYLE('',(#36));
#35=SURFACE_SIDE_STYLE('',(#37));
#36=SURFACE_STYLE_FILL_AREA(#38);
#37=SURFACE_STYLE_FILL_AREA(#39);
#38=FILL_AREA_STYLE('',(#40));
#39=FILL_AREA_STYLE('',(#41));
#40=FILL_AREA_STYLE_COLOUR('',#339);
#41=FILL_AREA_STYLE_COLOUR('',#340);
#42=MANIFOLD_SOLID_BREP('CUT',#44);
#43=MANIFOLD_SOLID_BREP('NOCUT',#45);
#44=CLOSED_SHELL('',(#51,#52,#53,#54,#55));
#45=CLOSED_SHELL('',(#56,#57,#58,#59,#60,#61,#62,#63,#64,#65));
#46=SPHERICAL_SURFACE('',#365,2.5);
#47=SPHERICAL_SURFACE('',#366,2.5);
#48=PLANE('',#360);
#49=PLANE('',#371);
#50=PLANE('',#386);
#51=ADVANCED_FACE('',(#72),#66,.T.);
#52=ADVANCED_FACE('',(#73),#48,.F.);
#53=ADVANCED_FACE('',(#74),#67,.T.);
#54=ADVANCED_FACE('',(#75),#46,.T.);
#55=ADVANCED_FACE('',(#76),#47,.T.);
#56=ADVANCED_FACE('',(#77),#68,.T.);
#57=ADVANCED_FACE('',(#78),#49,.F.);
#58=ADVANCED_FACE('',(#79),#69,.T.);
#59=ADVANCED_FACE('',(#80),#28,.T.);
#60=ADVANCED_FACE('',(#81),#29,.T.);
#61=ADVANCED_FACE('',(#82),#70,.T.);
#62=ADVANCED_FACE('',(#83),#71,.T.);
#63=ADVANCED_FACE('',(#84),#30,.T.);
#64=ADVANCED_FACE('',(#85),#31,.T.);
#65=ADVANCED_FACE('',(#86),#50,.F.);
#66=CYLINDRICAL_SURFACE('',#358,2.5);
#67=CYLINDRICAL_SURFACE('',#362,2.5);
#68=CYLINDRICAL_SURFACE('',#369,2.5);
#69=CYLINDRICAL_SURFACE('',#373,2.5);
#70=CYLINDRICAL_SURFACE('',#379,3.);
#71=CYLINDRICAL_SURFACE('',#381,3.);
#72=FACE_OUTER_BOUND('',#87,.T.);
#73=FACE_OUTER_BOUND('',#88,.T.);
#74=FACE_OUTER_BOUND('',#89,.T.);
#75=FACE_OUTER_BOUND('',#90,.T.);
#76=FACE_OUTER_BOUND('',#91,.T.);
#77=FACE_OUTER_BOUND('',#92,.T.);
#78=FACE_OUTER_BOUND('',#93,.T.);
#79=FACE_OUTER_BOUND('',#94,.T.);
#80=FACE_OUTER_BOUND('',#95,.T.);
#81=FACE_OUTER_BOUND('',#96,.T.);
#82=FACE_OUTER_BOUND('',#97,.T.);
#83=FACE_OUTER_BOUND('',#98,.T.);
#84=FACE_OUTER_BOUND('',#99,.T.);
#85=FACE_OUTER_BOUND('',#100,.T.);
#86=FACE_OUTER_BOUND('',#101,.T.);
#87=EDGE_LOOP('',(#102,#103,#104,#105));
#88=EDGE_LOOP('',(#106,#107));
#89=EDGE_LOOP('',(#108,#109,#110,#111));
#90=EDGE_LOOP('',(#112,#113,#114));
#91=EDGE_LOOP('',(#115,#116,#117));
#92=EDGE_LOOP('',(#118,#119,#120,#121));
#93=EDGE_LOOP('',(#122,#123));
#94=EDGE_LOOP('',(#124,#125,#126,#127));
#95=EDGE_LOOP('',(#128,#129,#130,#131));
#96=EDGE_LOOP('',(#132,#133,#134,#135));
#97=EDGE_LOOP('',(#136,#137,#138,#139));
#98=EDGE_LOOP('',(#140,#141,#142,#143));
#99=EDGE_LOOP('',(#144,#145,#146,#147));
#100=EDGE_LOOP('',(#148,#149,#150,#151));
#101=EDGE_LOOP('',(#152,#153));
#102=ORIENTED_EDGE('',*,*,#169,.T.);
#103=ORIENTED_EDGE('',*,*,#170,.T.);
#104=ORIENTED_EDGE('',*,*,#171,.F.);
#105=ORIENTED_EDGE('',*,*,#172,.T.);
#106=ORIENTED_EDGE('',*,*,#173,.F.);
#107=ORIENTED_EDGE('',*,*,#172,.F.);
#108=ORIENTED_EDGE('',*,*,#171,.T.);
#109=ORIENTED_EDGE('',*,*,#174,.T.);
#110=ORIENTED_EDGE('',*,*,#169,.F.);
#111=ORIENTED_EDGE('',*,*,#173,.T.);
#112=ORIENTED_EDGE('',*,*,#175,.T.);
#113=ORIENTED_EDGE('',*,*,#174,.F.);
#114=ORIENTED_EDGE('',*,*,#176,.F.);
#115=ORIENTED_EDGE('',*,*,#170,.F.);
#116=ORIENTED_EDGE('',*,*,#175,.F.);
#117=ORIENTED_EDGE('',*,*,#176,.T.);
#118=ORIENTED_EDGE('',*,*,#177,.F.);
#119=ORIENTED_EDGE('',*,*,#178,.T.);
#120=ORIENTED_EDGE('',*,*,#179,.T.);
#121=ORIENTED_EDGE('',*,*,#180,.T.);
#122=ORIENTED_EDGE('',*,*,#181,.F.);
#123=ORIENTED_EDGE('',*,*,#180,.F.);
#124=ORIENTED_EDGE('',*,*,#179,.F.);
#125=ORIENTED_EDGE('',*,*,#182,.T.);
#126=ORIENTED_EDGE('',*,*,#177,.T.);
#127=ORIENTED_EDGE('',*,*,#181,.T.);
#128=ORIENTED_EDGE('',*,*,#182,.F.);
#129=ORIENTED_EDGE('',*,*,#183,.T.);
#130=ORIENTED_EDGE('',*,*,#184,.F.);
#131=ORIENTED_EDGE('',*,*,#185,.F.);
#132=ORIENTED_EDGE('',*,*,#186,.F.);
#133=ORIENTED_EDGE('',*,*,#183,.F.);
#134=ORIENTED_EDGE('',*,*,#178,.F.);
#135=ORIENTED_EDGE('',*,*,#185,.T.);
#136=ORIENTED_EDGE('',*,*,#187,.T.);
#137=ORIENTED_EDGE('',*,*,#188,.T.);
#138=ORIENTED_EDGE('',*,*,#186,.T.);
#139=ORIENTED_EDGE('',*,*,#189,.F.);
#140=ORIENTED_EDGE('',*,*,#184,.T.);
#141=ORIENTED_EDGE('',*,*,#188,.F.);
#142=ORIENTED_EDGE('',*,*,#190,.T.);
#143=ORIENTED_EDGE('',*,*,#189,.T.);
#144=ORIENTED_EDGE('',*,*,#190,.F.);
#145=ORIENTED_EDGE('',*,*,#191,.T.);
#146=ORIENTED_EDGE('',*,*,#192,.T.);
#147=ORIENTED_EDGE('',*,*,#193,.F.);
#148=ORIENTED_EDGE('',*,*,#194,.T.);
#149=ORIENTED_EDGE('',*,*,#191,.F.);
#150=ORIENTED_EDGE('',*,*,#187,.F.);
#151=ORIENTED_EDGE('',*,*,#193,.T.);
#152=ORIENTED_EDGE('',*,*,#194,.F.);
#153=ORIENTED_EDGE('',*,*,#192,.F.);
#154=VERTEX_POINT('',#516);
#155=VERTEX_POINT('',#517);
#156=VERTEX_POINT('',#519);
#157=VERTEX_POINT('',#521);
#158=VERTEX_POINT('',#529);
#159=VERTEX_POINT('',#534);
#160=VERTEX_POINT('',#535);
#161=VERTEX_POINT('',#537);
#162=VERTEX_POINT('',#539);
#163=VERTEX_POINT('',#547);
#164=VERTEX_POINT('',#549);
#165=VERTEX_POINT('',#555);
#166=VERTEX_POINT('',#556);
#167=VERTEX_POINT('',#563);
#168=VERTEX_POINT('',#565);
#169=EDGE_CURVE('',#154,#155,#254,.T.);
#170=EDGE_CURVE('',#155,#156,#196,.T.);
#171=EDGE_CURVE('',#157,#156,#255,.T.);
#172=EDGE_CURVE('',#157,#154,#197,.T.);
#173=EDGE_CURVE('',#154,#157,#198,.T.);
#174=EDGE_CURVE('',#156,#155,#199,.T.);
#175=EDGE_CURVE('',#158,#155,#200,.T.);
#176=EDGE_CURVE('',#158,#156,#201,.T.);
#177=EDGE_CURVE('',#159,#160,#256,.T.);
#178=EDGE_CURVE('',#159,#161,#202,.T.);
#179=EDGE_CURVE('',#161,#162,#257,.T.);
#180=EDGE_CURVE('',#162,#160,#203,.T.);
#181=EDGE_CURVE('',#160,#162,#204,.T.);
#182=EDGE_CURVE('',#161,#159,#205,.T.);
#183=EDGE_CURVE('',#161,#163,#258,.T.);
#184=EDGE_CURVE('',#164,#163,#206,.T.);
#185=EDGE_CURVE('',#159,#164,#259,.T.);
#186=EDGE_CURVE('',#163,#164,#207,.T.);
#187=EDGE_CURVE('',#165,#166,#208,.T.);
#188=EDGE_CURVE('',#166,#163,#260,.T.);
#189=EDGE_CURVE('',#165,#164,#261,.T.);
#190=EDGE_CURVE('',#166,#165,#209,.T.);
#191=EDGE_CURVE('',#166,#167,#262,.T.);
#192=EDGE_CURVE('',#167,#168,#210,.T.);
#193=EDGE_CURVE('',#165,#168,#263,.T.);
#194=EDGE_CURVE('',#168,#167,#211,.T.);
#195=CIRCLE('',#342,2.5);
#196=CIRCLE('',#356,2.5);
#197=CIRCLE('',#357,2.5);
#198=CIRCLE('',#359,2.5);
#199=CIRCLE('',#361,2.5);
#200=CIRCLE('',#363,2.5);
#201=CIRCLE('',#364,2.5);
#202=CIRCLE('',#367,2.500000000001);
#203=CIRCLE('',#368,2.5);
#204=CIRCLE('',#370,2.5);
#205=CIRCLE('',#372,2.500000000001);
#206=CIRCLE('',#374,2.999999999999);
#207=CIRCLE('',#376,2.999999999999);
#208=CIRCLE('',#378,3.);
#209=CIRCLE('',#380,3.);
#210=CIRCLE('',#382,2.5);
#211=CIRCLE('',#384,2.5);
#212=CURVE_STYLE('',#230,POSITIVE_LENGTH_MEASURE(0.18),#229);
#213=CURVE_STYLE('',#231,POSITIVE_LENGTH_MEASURE(0.18),#229);
#214=CURVE_STYLE('',#232,POSITIVE_LENGTH_MEASURE(0.18),#229);
#215=CURVE_STYLE('',#233,POSITIVE_LENGTH_MEASURE(0.18),#229);
#216=CURVE_STYLE('',#234,POSITIVE_LENGTH_MEASURE(0.13),#338);
#217=CURVE_STYLE('',#235,POSITIVE_LENGTH_MEASURE(0.13),#338);
#218=CURVE_STYLE('',#236,POSITIVE_LENGTH_MEASURE(0.13),#338);
#219=CURVE_STYLE('',#237,POSITIVE_LENGTH_MEASURE(0.13),#337);
#220=CURVE_STYLE('',#238,POSITIVE_LENGTH_MEASURE(0.13),#337);
#221=CURVE_STYLE('',#239,POSITIVE_LENGTH_MEASURE(0.18),#338);
#222=CURVE_STYLE('',#240,POSITIVE_LENGTH_MEASURE(0.13),#337);
#223=CURVE_STYLE('',#241,POSITIVE_LENGTH_MEASURE(0.13),#338);
#224=CURVE_STYLE('',#242,POSITIVE_LENGTH_MEASURE(0.13),#338);
#225=CURVE_STYLE('',#243,POSITIVE_LENGTH_MEASURE(0.13),#338);
#226=CURVE_STYLE('',#244,POSITIVE_LENGTH_MEASURE(0.13),#337);
#227=CURVE_STYLE('',#245,POSITIVE_LENGTH_MEASURE(0.13),#338);
#228=CURVE_STYLE('',#246,POSITIVE_LENGTH_MEASURE(0.13),#338);
#229=DRAUGHTING_PRE_DEFINED_COLOUR('blue');
#230=DRAUGHTING_PRE_DEFINED_CURVE_FONT('continuous');
#231=DRAUGHTING_PRE_DEFINED_CURVE_FONT('continuous');
#232=DRAUGHTING_PRE_DEFINED_CURVE_FONT('continuous');
#233=DRAUGHTING_PRE_DEFINED_CURVE_FONT('continuous');
#234=DRAUGHTING_PRE_DEFINED_CURVE_FONT('continuous');
#235=DRAUGHTING_PRE_DEFINED_CURVE_FONT('continuous');
#236=DRAUGHTING_PRE_DEFINED_CURVE_FONT('continuous');
#237=DRAUGHTING_PRE_DEFINED_CURVE_FONT('continuous');
#238=DRAUGHTING_PRE_DEFINED_CURVE_FONT('continuous');
#239=DRAUGHTING_PRE_DEFINED_CURVE_FONT('continuous');
#240=DRAUGHTING_PRE_DEFINED_CURVE_FONT('continuous');
#241=DRAUGHTING_PRE_DEFINED_CURVE_FONT('continuous');
#242=DRAUGHTING_PRE_DEFINED_CURVE_FONT('continuous');
#243=DRAUGHTING_PRE_DEFINED_CURVE_FONT('continuous');
#244=DRAUGHTING_PRE_DEFINED_CURVE_FONT('continuous');
#245=DRAUGHTING_PRE_DEFINED_CURVE_FONT('continuous');
#246=DRAUGHTING_PRE_DEFINED_CURVE_FONT('continuous');
#247=TRIMMED_CURVE('',#251,(PARAMETER_VALUE(0.)),(PARAMETER_VALUE(1.)),
 .T.,.PARAMETER.);
#248=TRIMMED_CURVE('',#252,(PARAMETER_VALUE(0.)),(PARAMETER_VALUE(1.)),
 .T.,.PARAMETER.);
#249=TRIMMED_CURVE('',#253,(PARAMETER_VALUE(0.)),(PARAMETER_VALUE(1.)),
 .T.,.PARAMETER.);
#250=TRIMMED_CURVE('',#195,(PARAMETER_VALUE(0.)),(PARAMETER_VALUE(90.)),
 .T.,.PARAMETER.);
#251=LINE('',#498,#264);
#252=LINE('',#499,#265);
#253=LINE('',#500,#266);
#254=LINE('',#515,#267);
#255=LINE('',#520,#268);
#256=LINE('',#533,#269);
#257=LINE('',#538,#270);
#258=LINE('',#546,#271);
#259=LINE('',#550,#272);
#260=LINE('',#557,#273);
#261=LINE('',#558,#274);
#262=LINE('',#562,#275);
#263=LINE('',#566,#276);
#264=VECTOR('',#389,9.5);
#265=VECTOR('',#390,2.5);
#266=VECTOR('',#391,12.);
#267=VECTOR('',#420,1.);
#268=VECTOR('',#423,1.);
#269=VECTOR('',#444,1.);
#270=VECTOR('',#447,1.);
#271=VECTOR('',#460,1.);
#272=VECTOR('',#463,1.);
#273=VECTOR('',#472,1.);
#274=VECTOR('',#473,1.);
#275=VECTOR('',#480,1.);
#276=VECTOR('',#483,1.);
#277=PRESENTATION_LAYER_ASSIGNMENT('2','Layer 2',(#493,#494,#346,#347));
#278=PRESENTATION_LAYER_ASSIGNMENT('1','Layer 1',(#495,#496,#497,#247,#248,
#249,#250,#343,#344,#345,#348,#349,#350,#351,#352,#353,#354,#355,#42,#43));
#279=STYLED_ITEM('',(#303),#493);
#280=STYLED_ITEM('',(#304),#494);
#281=STYLED_ITEM('',(#305),#495);
#282=STYLED_ITEM('',(#306),#496);
#283=STYLED_ITEM('',(#307),#497);
#284=STYLED_ITEM('',(#308),#247);
#285=STYLED_ITEM('',(#309),#248);
#286=STYLED_ITEM('',(#310),#249);
#287=STYLED_ITEM('',(#311),#250);
#288=STYLED_ITEM('',(#312),#343);
#289=STYLED_ITEM('',(#313),#344);
#290=STYLED_ITEM('',(#314),#345);
#291=STYLED_ITEM('',(#315),#346);
#292=STYLED_ITEM('',(#316),#347);
#293=STYLED_ITEM('',(#317),#348);
#294=STYLED_ITEM('',(#318),#349);
#295=STYLED_ITEM('',(#319),#350);
#296=STYLED_ITEM('',(#320),#351);
#297=STYLED_ITEM('',(#321),#352);
#298=STYLED_ITEM('',(#322),#353);
#299=STYLED_ITEM('',(#323),#354);
#300=STYLED_ITEM('',(#324),#355);
#301=STYLED_ITEM('',(#325),#42);
#302=STYLED_ITEM('',(#326),#43);
#303=PRESENTATION_STYLE_ASSIGNMENT((#327));
#304=PRESENTATION_STYLE_ASSIGNMENT((#328));
#305=PRESENTATION_STYLE_ASSIGNMENT((#329));
#306=PRESENTATION_STYLE_ASSIGNMENT((#330));
#307=PRESENTATION_STYLE_ASSIGNMENT((#331));
#308=PRESENTATION_STYLE_ASSIGNMENT((#212));
#309=PRESENTATION_STYLE_ASSIGNMENT((#213));
#310=PRESENTATION_STYLE_ASSIGNMENT((#214));
#311=PRESENTATION_STYLE_ASSIGNMENT((#215));
#312=PRESENTATION_STYLE_ASSIGNMENT((#216));
#313=PRESENTATION_STYLE_ASSIGNMENT((#217));
#314=PRESENTATION_STYLE_ASSIGNMENT((#218));
#315=PRESENTATION_STYLE_ASSIGNMENT((#219));
#316=PRESENTATION_STYLE_ASSIGNMENT((#220));
#317=PRESENTATION_STYLE_ASSIGNMENT((#221));
#318=PRESENTATION_STYLE_ASSIGNMENT((#222));
#319=PRESENTATION_STYLE_ASSIGNMENT((#223));
#320=PRESENTATION_STYLE_ASSIGNMENT((#224));
#321=PRESENTATION_STYLE_ASSIGNMENT((#225));
#322=PRESENTATION_STYLE_ASSIGNMENT((#226));
#323=PRESENTATION_STYLE_ASSIGNMENT((#227));
#324=PRESENTATION_STYLE_ASSIGNMENT((#228));
#325=PRESENTATION_STYLE_ASSIGNMENT((#32));
#326=PRESENTATION_STYLE_ASSIGNMENT((#33));
#327=POINT_STYLE('',#332,POSITIVE_LENGTH_MEASURE(3.),#337);
#328=POINT_STYLE('',#333,POSITIVE_LENGTH_MEASURE(3.),#337);
#329=POINT_STYLE('',#334,POSITIVE_LENGTH_MEASURE(3.),#338);
#330=POINT_STYLE('',#335,POSITIVE_LENGTH_MEASURE(3.),#337);
#331=POINT_STYLE('',#336,POSITIVE_LENGTH_MEASURE(3.),#337);
#332=PRE_DEFINED_POINT_MARKER_SYMBOL('plus');
#333=PRE_DEFINED_POINT_MARKER_SYMBOL('plus');
#334=PRE_DEFINED_POINT_MARKER_SYMBOL('plus');
#335=PRE_DEFINED_POINT_MARKER_SYMBOL('plus');
#336=PRE_DEFINED_POINT_MARKER_SYMBOL('plus');
#337=COLOUR_RGB('Medium Umber',0.372533760585946,0.313725490196078,0.270572976272221);
#338=COLOUR_RGB('Strong Stone',0.576470588235294,0.54508278019379,0.392156862745098);
#339=COLOUR_RGB('Light Gray',0.8,0.8,0.8);
#340=COLOUR_RGB('non-cutting part and shank',0.501960784313725,0.501960784313725,
0.501960784313725);
#341=AXIS2_PLACEMENT_3D('',#492,#387,#388);
#342=AXIS2_PLACEMENT_3D('',#501,#392,#393);
#343=AXIS2_PLACEMENT_3D('',#502,#394,#395);
#344=AXIS2_PLACEMENT_3D('',#503,#396,#397);
#345=AXIS2_PLACEMENT_3D('',#504,#398,#399);
#346=AXIS2_PLACEMENT_3D('CIP',#505,#400,#401);
#347=AXIS2_PLACEMENT_3D('PCS',#506,#402,#403);
#348=AXIS2_PLACEMENT_3D('MCS',#507,#404,#405);
#349=AXIS2_PLACEMENT_3D('STEP_TEMP_EM1_1',#508,#406,#407);
#350=AXIS2_PLACEMENT_3D('',#509,#408,#409);
#351=AXIS2_PLACEMENT_3D('',#510,#410,#411);
#352=AXIS2_PLACEMENT_3D('',#511,#412,#413);
#353=AXIS2_PLACEMENT_3D('STEP_TEMP_EM1_2',#512,#414,#415);
#354=AXIS2_PLACEMENT_3D('',#513,#416,#417);
#355=AXIS2_PLACEMENT_3D('',#514,#418,#419);
#356=AXIS2_PLACEMENT_3D('',#518,#421,#422);
#357=AXIS2_PLACEMENT_3D('',#522,#424,#425);
#358=AXIS2_PLACEMENT_3D('',#523,#426,#427);
#359=AXIS2_PLACEMENT_3D('',#524,#428,#429);
#360=AXIS2_PLACEMENT_3D('',#525,#430,#431);
#361=AXIS2_PLACEMENT_3D('',#526,#432,#433);
#362=AXIS2_PLACEMENT_3D('',#527,#434,#435);
#363=AXIS2_PLACEMENT_3D('',#528,#436,#437);
#364=AXIS2_PLACEMENT_3D('',#530,#438,#439);
#365=AXIS2_PLACEMENT_3D('',#531,#440,#441);
#366=AXIS2_PLACEMENT_3D('',#532,#442,#443);
#367=AXIS2_PLACEMENT_3D('',#536,#445,#446);
#368=AXIS2_PLACEMENT_3D('',#540,#448,#449);
#369=AXIS2_PLACEMENT_3D('',#541,#450,#451);
#370=AXIS2_PLACEMENT_3D('',#542,#452,#453);
#371=AXIS2_PLACEMENT_3D('',#543,#454,#455);
#372=AXIS2_PLACEMENT_3D('',#544,#456,#457);
#373=AXIS2_PLACEMENT_3D('',#545,#458,#459);
#374=AXIS2_PLACEMENT_3D('',#548,#461,#462);
#375=AXIS2_PLACEMENT_3D('',#551,#464,#465);
#376=AXIS2_PLACEMENT_3D('',#552,#466,#467);
#377=AXIS2_PLACEMENT_3D('',#553,#468,#469);
#378=AXIS2_PLACEMENT_3D('',#554,#470,#471);
#379=AXIS2_PLACEMENT_3D('',#559,#474,#475);
#380=AXIS2_PLACEMENT_3D('',#560,#476,#477);
#381=AXIS2_PLACEMENT_3D('',#561,#478,#479);
#382=AXIS2_PLACEMENT_3D('',#564,#481,#482);
#383=AXIS2_PLACEMENT_3D('',#567,#484,#485);
#384=AXIS2_PLACEMENT_3D('',#568,#486,#487);
#385=AXIS2_PLACEMENT_3D('',#569,#488,#489);
#386=AXIS2_PLACEMENT_3D('',#570,#490,#491);
#387=DIRECTION('',(0.,0.,1.));
#388=DIRECTION('',(1.,0.,0.));
#389=DIRECTION('',(0.,0.,1.));
#390=DIRECTION('',(1.,0.,0.));
#391=DIRECTION('',(0.,0.,-1.));
#392=DIRECTION('',(0.,1.,0.));
#393=DIRECTION('',(0.,0.,-1.));
#394=DIRECTION('',(0.,0.,1.));
#395=DIRECTION('',(1.,0.,0.));
#396=DIRECTION('',(0.,0.,1.));
#397=DIRECTION('',(1.,0.,0.));
#398=DIRECTION('',(0.,0.,1.));
#399=DIRECTION('',(1.,0.,0.));
#400=DIRECTION('',(0.,0.,1.));
#401=DIRECTION('',(1.,0.,0.));
#402=DIRECTION('',(0.,0.,1.));
#403=DIRECTION('',(1.,0.,0.));
#404=DIRECTION('',(0.,0.,1.));
#405=DIRECTION('',(1.,0.,0.));
#406=DIRECTION('',(0.,0.,1.));
#407=DIRECTION('',(1.,0.,0.));
#408=DIRECTION('',(0.,0.,1.));
#409=DIRECTION('',(1.,0.,0.));
#410=DIRECTION('',(0.,0.,1.));
#411=DIRECTION('',(1.,0.,0.));
#412=DIRECTION('',(0.,0.,1.));
#413=DIRECTION('',(1.,0.,0.));
#414=DIRECTION('',(0.,0.,1.));
#415=DIRECTION('',(1.,0.,0.));
#416=DIRECTION('',(0.,0.,1.));
#417=DIRECTION('',(1.,0.,0.));
#418=DIRECTION('',(0.,0.,1.));
#419=DIRECTION('',(1.,0.,0.));
#420=DIRECTION('',(0.,0.,-1.));
#421=DIRECTION('',(0.,0.,1.));
#422=DIRECTION('',(0.,-1.,0.));
#423=DIRECTION('',(0.,0.,-1.));
#424=DIRECTION('',(0.,0.,-1.));
#425=DIRECTION('',(0.,1.,0.));
#426=DIRECTION('',(0.,0.,-1.));
#427=DIRECTION('',(0.,1.,0.));
#428=DIRECTION('',(0.,0.,-1.));
#429=DIRECTION('',(0.,-1.,0.));
#430=DIRECTION('',(0.,0.,-1.));
#431=DIRECTION('',(1.,0.,0.));
#432=DIRECTION('',(0.,0.,1.));
#433=DIRECTION('',(0.,1.,0.));
#434=DIRECTION('',(0.,0.,-1.));
#435=DIRECTION('',(0.,1.,0.));
#436=DIRECTION('',(-1.,0.,0.));
#437=DIRECTION('',(0.,-1.,0.));
#438=DIRECTION('',(1.,0.,0.));
#439=DIRECTION('',(0.,1.,0.));
#440=DIRECTION('',(0.,6.12323399573677E-17,-1.));
#441=DIRECTION('',(0.,1.,0.));
#442=DIRECTION('',(0.,6.12323399573677E-17,-1.));
#443=DIRECTION('',(0.,1.,0.));
#444=DIRECTION('',(0.,-2.294460917559E-13,-1.));
#445=DIRECTION('',(0.,0.,-1.));
#446=DIRECTION('',(0.,1.,0.));
#447=DIRECTION('',(0.,2.324066864882E-13,-1.));
#448=DIRECTION('',(0.,0.,1.));
#449=DIRECTION('',(0.,-1.,0.));
#450=DIRECTION('',(0.,0.,-1.));
#451=DIRECTION('',(0.,1.,0.));
#452=DIRECTION('',(0.,0.,1.));
#453=DIRECTION('',(0.,1.,0.));
#454=DIRECTION('',(0.,0.,1.));
#455=DIRECTION('',(-1.,0.,0.));
#456=DIRECTION('',(0.,0.,-1.));
#457=DIRECTION('',(0.,-1.,0.));
#458=DIRECTION('',(0.,0.,-1.));
#459=DIRECTION('',(0.,1.,0.));
#460=DIRECTION('',(0.,-0.258819045102798,0.965925826288994));
#461=DIRECTION('',(0.,0.,1.));
#462=DIRECTION('',(0.,1.,0.));
#463=DIRECTION('',(0.,0.258819045102798,0.965925826288994));
#464=DIRECTION('',(0.,0.,1.));
#465=DIRECTION('',(0.,-1.,-2.37107351650017E-16));
#466=DIRECTION('',(0.,0.,1.));
#467=DIRECTION('',(0.,-1.,0.));
#468=DIRECTION('',(0.,0.,1.));
#469=DIRECTION('',(0.,-1.,-2.37107351650017E-16));
#470=DIRECTION('',(0.,0.,-1.));
#471=DIRECTION('',(0.,1.,0.));
#472=DIRECTION('',(0.,0.,-1.));
#473=DIRECTION('',(0.,0.,-1.));
#474=DIRECTION('',(0.,0.,-1.));
#475=DIRECTION('',(0.,1.,0.));
#476=DIRECTION('',(0.,0.,-1.));
#477=DIRECTION('',(0.,-1.,0.));
#478=DIRECTION('',(0.,0.,-1.));
#479=DIRECTION('',(0.,1.,0.));
#480=DIRECTION('',(0.,0.707106781186547,0.707106781186547));
#481=DIRECTION('',(0.,0.,-1.));
#482=DIRECTION('',(0.,-1.,0.));
#483=DIRECTION('',(0.,-0.707106781186547,0.707106781186547));
#484=DIRECTION('',(0.,0.,-1.));
#485=DIRECTION('',(0.,1.,-3.45993213857254E-17));
#486=DIRECTION('',(0.,0.,-1.));
#487=DIRECTION('',(0.,1.,0.));
#488=DIRECTION('',(0.,0.,-1.));
#489=DIRECTION('',(0.,1.,-3.45993213857254E-17));
#490=DIRECTION('',(0.,0.,-1.));
#491=DIRECTION('',(0.,1.,0.));
#492=CARTESIAN_POINT('',(0.,0.,0.));
#493=CARTESIAN_POINT('',(0.,0.,0.));
#494=CARTESIAN_POINT('',(0.,0.,60.));
#495=CARTESIAN_POINT('',(0.,0.,42.));
#496=CARTESIAN_POINT('',(0.,0.,0.));
#497=CARTESIAN_POINT('',(0.,0.,0.));
#498=CARTESIAN_POINT('',(-2.5,0.,2.5));
#499=CARTESIAN_POINT('',(-2.5,0.,12.));
#500=CARTESIAN_POINT('',(0.,0.,12.));
#501=CARTESIAN_POINT('',(0.,0.,2.5));
#502=CARTESIAN_POINT('',(0.,0.,0.));
#503=CARTESIAN_POINT('',(0.,0.,0.));
#504=CARTESIAN_POINT('',(0.,0.,0.));
#505=CARTESIAN_POINT('',(0.,0.,0.));
#506=CARTESIAN_POINT('',(0.,0.,60.));
#507=CARTESIAN_POINT('',(0.,0.,42.));
#508=CARTESIAN_POINT('',(0.,0.,0.));
#509=CARTESIAN_POINT('',(0.,0.,0.));
#510=CARTESIAN_POINT('',(0.,0.,0.));
#511=CARTESIAN_POINT('',(0.,0.,0.));
#512=CARTESIAN_POINT('',(0.,0.,0.));
#513=CARTESIAN_POINT('',(0.,0.,0.));
#514=CARTESIAN_POINT('',(0.,0.,0.));
#515=CARTESIAN_POINT('',(0.,-2.5,12.));
#516=CARTESIAN_POINT('',(0.,-2.5,12.));
#517=CARTESIAN_POINT('',(0.,-2.5,2.5));
#518=CARTESIAN_POINT('',(0.,0.,2.5));
#519=CARTESIAN_POINT('',(0.,2.5,2.5));
#520=CARTESIAN_POINT('',(0.,2.5,12.));
#521=CARTESIAN_POINT('',(0.,2.5,12.));
#522=CARTESIAN_POINT('',(0.,1.111559813528E-14,12.));
#523=CARTESIAN_POINT('',(0.,1.111559813528E-14,63.));
#524=CARTESIAN_POINT('',(0.,1.111559813528E-14,12.));
#525=CARTESIAN_POINT('',(150.,150.,12.));
#526=CARTESIAN_POINT('',(0.,0.,2.5));
#527=CARTESIAN_POINT('',(0.,1.111559813528E-14,63.));
#528=CARTESIAN_POINT('',(0.,0.,2.5));
#529=CARTESIAN_POINT('',(0.,0.,0.));
#530=CARTESIAN_POINT('',(0.,0.,2.5));
#531=CARTESIAN_POINT('',(0.,0.,2.5));
#532=CARTESIAN_POINT('',(0.,0.,2.5));
#533=CARTESIAN_POINT('',(0.,2.5,13.2));
#534=CARTESIAN_POINT('',(0.,2.500000000001,13.2));
#535=CARTESIAN_POINT('',(0.,2.5,12.));
#536=CARTESIAN_POINT('',(0.,0.,13.2));
#537=CARTESIAN_POINT('',(0.,-2.5,13.2));
#538=CARTESIAN_POINT('',(0.,-2.5,13.2));
#539=CARTESIAN_POINT('',(0.,-2.5,12.));
#540=CARTESIAN_POINT('',(0.,1.111559813528E-14,12.));
#541=CARTESIAN_POINT('',(0.,1.111559813528E-14,63.));
#542=CARTESIAN_POINT('',(0.,1.111559813528E-14,12.));
#543=CARTESIAN_POINT('',(-150.,150.,12.));
#544=CARTESIAN_POINT('',(0.,0.,13.2));
#545=CARTESIAN_POINT('',(0.,1.111559813528E-14,63.));
#546=CARTESIAN_POINT('',(0.,-3.,15.06602540378));
#547=CARTESIAN_POINT('',(0.,-2.999999999999,15.06602540378));
#548=CARTESIAN_POINT('',(0.,0.,15.06602540378));
#549=CARTESIAN_POINT('',(0.,3.,15.06602540378));
#550=CARTESIAN_POINT('',(0.,3.,15.06602540378));
#551=CARTESIAN_POINT('',(0.,0.,14.13301270189));
#552=CARTESIAN_POINT('',(0.,0.,15.06602540378));
#553=CARTESIAN_POINT('',(0.,0.,14.13301270189));
#554=CARTESIAN_POINT('',(0.,1.05185828207E-14,59.5));
#555=CARTESIAN_POINT('',(0.,3.,59.5));
#556=CARTESIAN_POINT('',(0.,-3.,59.5));
#557=CARTESIAN_POINT('',(0.,-3.,59.5));
#558=CARTESIAN_POINT('',(0.,3.,59.5));
#559=CARTESIAN_POINT('',(0.,1.111559813528E-14,63.));
#560=CARTESIAN_POINT('',(0.,1.05185828207E-14,59.5));
#561=CARTESIAN_POINT('',(0.,1.111559813528E-14,63.));
#562=CARTESIAN_POINT('',(0.,-2.5,60.));
#563=CARTESIAN_POINT('',(0.,-2.5,60.));
#564=CARTESIAN_POINT('',(0.,1.05185828207E-14,60.));
#565=CARTESIAN_POINT('',(0.,2.5,60.));
#566=CARTESIAN_POINT('',(0.,2.5,60.));
#567=CARTESIAN_POINT('',(0.,1.05185828207E-14,59.75));
#568=CARTESIAN_POINT('',(0.,1.05185828207E-14,60.));
#569=CARTESIAN_POINT('',(0.,1.05185828207E-14,59.75));
#570=CARTESIAN_POINT('',(0.,1.056450707567E-14,60.));
#571=MECHANICAL_DESIGN_GEOMETRIC_PRESENTATION_REPRESENTATION('',(#279,#280,
#281,#282,#283,#284,#285,#286,#287,#288,#289,#290,#291,#292,#293,#294,#295,
#296,#297,#298,#299,#300,#301,#302),#572);
#572=(
GEOMETRIC_REPRESENTATION_CONTEXT(3)
GLOBAL_UNCERTAINTY_ASSIGNED_CONTEXT((#573))
GLOBAL_UNIT_ASSIGNED_CONTEXT((#579,#575,#574))
REPRESENTATION_CONTEXT('VQN4MBR0250','TOP_LEVEL_ASSEMBLY_PART')
);
#573=UNCERTAINTY_MEASURE_WITH_UNIT(LENGTH_MEASURE(2.E-5),#579,
'DISTANCE_ACCURACY_VALUE','Maximum Tolerance applied to model');
#574=(
NAMED_UNIT(*)
SI_UNIT($,.STERADIAN.)
SOLID_ANGLE_UNIT()
);
#575=(
CONVERSION_BASED_UNIT('DEGREE',#577)
NAMED_UNIT(#576)
PLANE_ANGLE_UNIT()
);
#576=DIMENSIONAL_EXPONENTS(0.,0.,0.,0.,0.,0.,0.);
#577=PLANE_ANGLE_MEASURE_WITH_UNIT(PLANE_ANGLE_MEASURE(0.0174532925),#578);
#578=(
NAMED_UNIT(*)
PLANE_ANGLE_UNIT()
SI_UNIT($,.RADIAN.)
);
#579=(
LENGTH_UNIT()
NAMED_UNIT(*)
SI_UNIT(.MILLI.,.METRE.)
);
ENDSEC;
END-ISO-10303-21;
