ISO-10303-21;
HEADER;
/* Generated by software containing ST-Developer
 * from STEP Tools, Inc. (www.steptools.com) 
 */
/* OPTION: using custom schema-name function */

FILE_DESCRIPTION(
/* description */ (''),
/* implementation_level */ '2;1');

FILE_NAME(
/* name */ 'VQN2MBR0600.stp',
/* time_stamp */ '2023-04-06T09:54:49+09:00',
/* author */ (''),
/* organization */ (''),
/* preprocessor_version */ 'ST-DEVELOPER v16',
/* originating_system */ 'SIEMENS PLM Software NX 10.0',
/* authorisation */ '');

FILE_SCHEMA (('AUTOMOTIVE_DESIGN { 1 0 10303 214 3 1 1 1 }'));
ENDSEC;

DATA;
#10=CONSTRUCTIVE_GEOMETRY_REPRESENTATION_RELATIONSHIP(
'supplemental geometry','',#26,#11);
#11=CONSTRUCTIVE_GEOMETRY_REPRESENTATION('supplemental geometry',(#259,
#260,#261,#262,#263,#264,#265,#266,#267,#268),#428);
#12=GEOMETRICALLY_BOUNDED_WIREFRAME_SHAPE_REPRESENTATION(
'VQN2MBR0600-None',(#27),#428);
#13=SHAPE_REPRESENTATION_RELATIONSHIP('None',
'relationship between VQN2MBR0600-None and VQN2MBR0600-None',#26,#15);
#14=SHAPE_REPRESENTATION_RELATIONSHIP('None',
'relationship between VQN2MBR0600-None and VQN2MBR0600-None',#26,#12);
#15=ADVANCED_BREP_SHAPE_REPRESENTATION('VQN2MBR0600-None',(#40,#41),#428);
#16=SHAPE_DEFINITION_REPRESENTATION(#17,#26);
#17=PRODUCT_DEFINITION_SHAPE('','SHAPE FOR VQN2MBR0600_ASM.',#18);
#18=PRODUCT_DEFINITION('part definition','',#20,#19);
#19=PRODUCT_DEFINITION_CONTEXT('part definition',#25,'design');
#20=PRODUCT_DEFINITION_FORMATION_WITH_SPECIFIED_SOURCE(' ',' ',#22,
 .NOT_KNOWN.);
#21=PRODUCT_RELATED_PRODUCT_CATEGORY('part','',(#22));
#22=PRODUCT('VQN2MBR0600_ASM','VQN2MBR0600_ASM','NOT SPECIFIED',(#23));
#23=PRODUCT_CONTEXT('',#25,'mechanical');
#24=APPLICATION_PROTOCOL_DEFINITION('international standard',
'automotive_design',2010,#25);
#25=APPLICATION_CONTEXT(
'core data for automotive mechanical design processes');
#26=SHAPE_REPRESENTATION('VQN2MBR0600-None',(#257),#428);
#27=GEOMETRIC_CURVE_SET('None',(#372,#192,#193,#194,#195));
#28=CONICAL_SURFACE('',#288,5.75,45.);
#29=CONICAL_SURFACE('',#290,5.75,45.);
#30=SURFACE_STYLE_USAGE(.BOTH.,#32);
#31=SURFACE_STYLE_USAGE(.BOTH.,#33);
#32=SURFACE_SIDE_STYLE('',(#34));
#33=SURFACE_SIDE_STYLE('',(#35));
#34=SURFACE_STYLE_FILL_AREA(#36);
#35=SURFACE_STYLE_FILL_AREA(#37);
#36=FILL_AREA_STYLE('',(#38));
#37=FILL_AREA_STYLE('',(#39));
#38=FILL_AREA_STYLE_COLOUR('',#255);
#39=FILL_AREA_STYLE_COLOUR('',#256);
#40=MANIFOLD_SOLID_BREP('CUT',#42);
#41=MANIFOLD_SOLID_BREP('NOCUT',#43);
#42=CLOSED_SHELL('',(#49,#50,#51,#52,#53));
#43=CLOSED_SHELL('',(#54,#55,#56,#57,#58,#59));
#44=SPHERICAL_SURFACE('',#278,6.);
#45=SPHERICAL_SURFACE('',#279,6.);
#46=PLANE('',#273);
#47=PLANE('',#284);
#48=PLANE('',#291);
#49=ADVANCED_FACE('',(#64),#60,.T.);
#50=ADVANCED_FACE('',(#65),#46,.F.);
#51=ADVANCED_FACE('',(#66),#61,.T.);
#52=ADVANCED_FACE('',(#67),#44,.T.);
#53=ADVANCED_FACE('',(#68),#45,.T.);
#54=ADVANCED_FACE('',(#69),#62,.T.);
#55=ADVANCED_FACE('',(#70),#47,.F.);
#56=ADVANCED_FACE('',(#71),#63,.T.);
#57=ADVANCED_FACE('',(#72),#28,.T.);
#58=ADVANCED_FACE('',(#73),#29,.T.);
#59=ADVANCED_FACE('',(#74),#48,.F.);
#60=CYLINDRICAL_SURFACE('',#271,6.);
#61=CYLINDRICAL_SURFACE('',#275,6.);
#62=CYLINDRICAL_SURFACE('',#282,6.);
#63=CYLINDRICAL_SURFACE('',#286,6.);
#64=FACE_OUTER_BOUND('',#75,.T.);
#65=FACE_OUTER_BOUND('',#76,.T.);
#66=FACE_OUTER_BOUND('',#77,.T.);
#67=FACE_OUTER_BOUND('',#78,.T.);
#68=FACE_OUTER_BOUND('',#79,.T.);
#69=FACE_OUTER_BOUND('',#80,.T.);
#70=FACE_OUTER_BOUND('',#81,.T.);
#71=FACE_OUTER_BOUND('',#82,.T.);
#72=FACE_OUTER_BOUND('',#83,.T.);
#73=FACE_OUTER_BOUND('',#84,.T.);
#74=FACE_OUTER_BOUND('',#85,.T.);
#75=EDGE_LOOP('',(#86,#87,#88,#89));
#76=EDGE_LOOP('',(#90,#91));
#77=EDGE_LOOP('',(#92,#93,#94,#95));
#78=EDGE_LOOP('',(#96,#97,#98));
#79=EDGE_LOOP('',(#99,#100,#101));
#80=EDGE_LOOP('',(#102,#103,#104,#105));
#81=EDGE_LOOP('',(#106,#107));
#82=EDGE_LOOP('',(#108,#109,#110,#111));
#83=EDGE_LOOP('',(#112,#113,#114,#115));
#84=EDGE_LOOP('',(#116,#117,#118,#119));
#85=EDGE_LOOP('',(#120,#121));
#86=ORIENTED_EDGE('',*,*,#133,.T.);
#87=ORIENTED_EDGE('',*,*,#134,.T.);
#88=ORIENTED_EDGE('',*,*,#135,.F.);
#89=ORIENTED_EDGE('',*,*,#136,.T.);
#90=ORIENTED_EDGE('',*,*,#137,.F.);
#91=ORIENTED_EDGE('',*,*,#136,.F.);
#92=ORIENTED_EDGE('',*,*,#135,.T.);
#93=ORIENTED_EDGE('',*,*,#138,.T.);
#94=ORIENTED_EDGE('',*,*,#133,.F.);
#95=ORIENTED_EDGE('',*,*,#137,.T.);
#96=ORIENTED_EDGE('',*,*,#139,.T.);
#97=ORIENTED_EDGE('',*,*,#138,.F.);
#98=ORIENTED_EDGE('',*,*,#140,.F.);
#99=ORIENTED_EDGE('',*,*,#134,.F.);
#100=ORIENTED_EDGE('',*,*,#139,.F.);
#101=ORIENTED_EDGE('',*,*,#140,.T.);
#102=ORIENTED_EDGE('',*,*,#141,.F.);
#103=ORIENTED_EDGE('',*,*,#142,.T.);
#104=ORIENTED_EDGE('',*,*,#143,.T.);
#105=ORIENTED_EDGE('',*,*,#144,.T.);
#106=ORIENTED_EDGE('',*,*,#145,.F.);
#107=ORIENTED_EDGE('',*,*,#144,.F.);
#108=ORIENTED_EDGE('',*,*,#143,.F.);
#109=ORIENTED_EDGE('',*,*,#146,.T.);
#110=ORIENTED_EDGE('',*,*,#141,.T.);
#111=ORIENTED_EDGE('',*,*,#145,.T.);
#112=ORIENTED_EDGE('',*,*,#146,.F.);
#113=ORIENTED_EDGE('',*,*,#147,.T.);
#114=ORIENTED_EDGE('',*,*,#148,.T.);
#115=ORIENTED_EDGE('',*,*,#149,.F.);
#116=ORIENTED_EDGE('',*,*,#150,.T.);
#117=ORIENTED_EDGE('',*,*,#147,.F.);
#118=ORIENTED_EDGE('',*,*,#142,.F.);
#119=ORIENTED_EDGE('',*,*,#149,.T.);
#120=ORIENTED_EDGE('',*,*,#150,.F.);
#121=ORIENTED_EDGE('',*,*,#148,.F.);
#122=VERTEX_POINT('',#388);
#123=VERTEX_POINT('',#389);
#124=VERTEX_POINT('',#391);
#125=VERTEX_POINT('',#393);
#126=VERTEX_POINT('',#401);
#127=VERTEX_POINT('',#406);
#128=VERTEX_POINT('',#407);
#129=VERTEX_POINT('',#409);
#130=VERTEX_POINT('',#411);
#131=VERTEX_POINT('',#419);
#132=VERTEX_POINT('',#421);
#133=EDGE_CURVE('',#122,#123,#199,.T.);
#134=EDGE_CURVE('',#123,#124,#152,.T.);
#135=EDGE_CURVE('',#125,#124,#200,.T.);
#136=EDGE_CURVE('',#125,#122,#153,.T.);
#137=EDGE_CURVE('',#122,#125,#154,.T.);
#138=EDGE_CURVE('',#124,#123,#155,.T.);
#139=EDGE_CURVE('',#126,#123,#156,.T.);
#140=EDGE_CURVE('',#126,#124,#157,.T.);
#141=EDGE_CURVE('',#127,#128,#201,.T.);
#142=EDGE_CURVE('',#127,#129,#158,.T.);
#143=EDGE_CURVE('',#129,#130,#202,.T.);
#144=EDGE_CURVE('',#130,#128,#159,.T.);
#145=EDGE_CURVE('',#128,#130,#160,.T.);
#146=EDGE_CURVE('',#129,#127,#161,.T.);
#147=EDGE_CURVE('',#129,#131,#203,.T.);
#148=EDGE_CURVE('',#131,#132,#162,.T.);
#149=EDGE_CURVE('',#127,#132,#204,.T.);
#150=EDGE_CURVE('',#132,#131,#163,.T.);
#151=CIRCLE('',#258,6.);
#152=CIRCLE('',#269,6.);
#153=CIRCLE('',#270,6.);
#154=CIRCLE('',#272,6.);
#155=CIRCLE('',#274,6.);
#156=CIRCLE('',#276,6.);
#157=CIRCLE('',#277,6.);
#158=CIRCLE('',#280,6.);
#159=CIRCLE('',#281,6.);
#160=CIRCLE('',#283,6.);
#161=CIRCLE('',#285,6.);
#162=CIRCLE('',#287,5.5);
#163=CIRCLE('',#289,5.5);
#164=CURVE_STYLE('',#178,POSITIVE_LENGTH_MEASURE(0.18),#252);
#165=CURVE_STYLE('',#179,POSITIVE_LENGTH_MEASURE(0.18),#252);
#166=CURVE_STYLE('',#180,POSITIVE_LENGTH_MEASURE(0.18),#252);
#167=CURVE_STYLE('',#181,POSITIVE_LENGTH_MEASURE(0.18),#252);
#168=CURVE_STYLE('',#182,POSITIVE_LENGTH_MEASURE(0.13),#253);
#169=CURVE_STYLE('',#183,POSITIVE_LENGTH_MEASURE(0.13),#253);
#170=CURVE_STYLE('',#184,POSITIVE_LENGTH_MEASURE(0.13),#254);
#171=CURVE_STYLE('',#185,POSITIVE_LENGTH_MEASURE(0.13),#254);
#172=CURVE_STYLE('',#186,POSITIVE_LENGTH_MEASURE(0.13),#253);
#173=CURVE_STYLE('',#187,POSITIVE_LENGTH_MEASURE(0.13),#253);
#174=CURVE_STYLE('',#188,POSITIVE_LENGTH_MEASURE(0.13),#254);
#175=CURVE_STYLE('',#189,POSITIVE_LENGTH_MEASURE(0.13),#253);
#176=CURVE_STYLE('',#190,POSITIVE_LENGTH_MEASURE(0.13),#253);
#177=CURVE_STYLE('',#191,POSITIVE_LENGTH_MEASURE(0.13),#253);
#178=DRAUGHTING_PRE_DEFINED_CURVE_FONT('continuous');
#179=DRAUGHTING_PRE_DEFINED_CURVE_FONT('continuous');
#180=DRAUGHTING_PRE_DEFINED_CURVE_FONT('continuous');
#181=DRAUGHTING_PRE_DEFINED_CURVE_FONT('continuous');
#182=DRAUGHTING_PRE_DEFINED_CURVE_FONT('continuous');
#183=DRAUGHTING_PRE_DEFINED_CURVE_FONT('continuous');
#184=DRAUGHTING_PRE_DEFINED_CURVE_FONT('continuous');
#185=DRAUGHTING_PRE_DEFINED_CURVE_FONT('continuous');
#186=DRAUGHTING_PRE_DEFINED_CURVE_FONT('continuous');
#187=DRAUGHTING_PRE_DEFINED_CURVE_FONT('continuous');
#188=DRAUGHTING_PRE_DEFINED_CURVE_FONT('continuous');
#189=DRAUGHTING_PRE_DEFINED_CURVE_FONT('continuous');
#190=DRAUGHTING_PRE_DEFINED_CURVE_FONT('continuous');
#191=DRAUGHTING_PRE_DEFINED_CURVE_FONT('continuous');
#192=TRIMMED_CURVE('',#196,(PARAMETER_VALUE(0.)),(PARAMETER_VALUE(1.)),
 .T.,.PARAMETER.);
#193=TRIMMED_CURVE('',#197,(PARAMETER_VALUE(0.)),(PARAMETER_VALUE(1.)),
 .T.,.PARAMETER.);
#194=TRIMMED_CURVE('',#198,(PARAMETER_VALUE(0.)),(PARAMETER_VALUE(1.)),
 .T.,.PARAMETER.);
#195=TRIMMED_CURVE('',#151,(PARAMETER_VALUE(0.)),(PARAMETER_VALUE(90.)),
 .T.,.PARAMETER.);
#196=LINE('',#373,#205);
#197=LINE('',#374,#206);
#198=LINE('',#375,#207);
#199=LINE('',#387,#208);
#200=LINE('',#392,#209);
#201=LINE('',#405,#210);
#202=LINE('',#410,#211);
#203=LINE('',#418,#212);
#204=LINE('',#422,#213);
#205=VECTOR('',#294,16.);
#206=VECTOR('',#295,6.);
#207=VECTOR('',#296,22.);
#208=VECTOR('',#319,1.);
#209=VECTOR('',#322,1.);
#210=VECTOR('',#343,1.);
#211=VECTOR('',#346,1.);
#212=VECTOR('',#359,1.);
#213=VECTOR('',#362,1.);
#214=PRESENTATION_LAYER_ASSIGNMENT('1','Layer 1',(#372,#192,#193,#194,#195,
#259,#260,#263,#264,#265,#266,#267,#268,#40,#41));
#215=PRESENTATION_LAYER_ASSIGNMENT('2','Layer 2',(#261,#262));
#216=STYLED_ITEM('',(#233),#372);
#217=STYLED_ITEM('',(#234),#192);
#218=STYLED_ITEM('',(#235),#193);
#219=STYLED_ITEM('',(#236),#194);
#220=STYLED_ITEM('',(#237),#195);
#221=STYLED_ITEM('',(#238),#259);
#222=STYLED_ITEM('',(#239),#260);
#223=STYLED_ITEM('',(#240),#261);
#224=STYLED_ITEM('',(#241),#262);
#225=STYLED_ITEM('',(#242),#263);
#226=STYLED_ITEM('',(#243),#264);
#227=STYLED_ITEM('',(#244),#265);
#228=STYLED_ITEM('',(#245),#266);
#229=STYLED_ITEM('',(#246),#267);
#230=STYLED_ITEM('',(#247),#268);
#231=STYLED_ITEM('',(#248),#40);
#232=STYLED_ITEM('',(#249),#41);
#233=PRESENTATION_STYLE_ASSIGNMENT((#250));
#234=PRESENTATION_STYLE_ASSIGNMENT((#164));
#235=PRESENTATION_STYLE_ASSIGNMENT((#165));
#236=PRESENTATION_STYLE_ASSIGNMENT((#166));
#237=PRESENTATION_STYLE_ASSIGNMENT((#167));
#238=PRESENTATION_STYLE_ASSIGNMENT((#168));
#239=PRESENTATION_STYLE_ASSIGNMENT((#169));
#240=PRESENTATION_STYLE_ASSIGNMENT((#170));
#241=PRESENTATION_STYLE_ASSIGNMENT((#171));
#242=PRESENTATION_STYLE_ASSIGNMENT((#172));
#243=PRESENTATION_STYLE_ASSIGNMENT((#173));
#244=PRESENTATION_STYLE_ASSIGNMENT((#174));
#245=PRESENTATION_STYLE_ASSIGNMENT((#175));
#246=PRESENTATION_STYLE_ASSIGNMENT((#176));
#247=PRESENTATION_STYLE_ASSIGNMENT((#177));
#248=PRESENTATION_STYLE_ASSIGNMENT((#30));
#249=PRESENTATION_STYLE_ASSIGNMENT((#31));
#250=POINT_STYLE('',#251,POSITIVE_LENGTH_MEASURE(3.),#252);
#251=PRE_DEFINED_POINT_MARKER_SYMBOL('plus');
#252=COLOUR_RGB('Medium Royal',0.2,0.4,0.8);
#253=COLOUR_RGB('Strong Stone',0.576470588235294,0.54508278019379,0.392156862745098);
#254=COLOUR_RGB('Medium Umber',0.372533760585946,0.313725490196078,0.270572976272221);
#255=COLOUR_RGB('cutting part',0.8,0.8,0.8);
#256=COLOUR_RGB('non-cutting part and shank',0.501960784313725,0.501960784313725,
0.501960784313725);
#257=AXIS2_PLACEMENT_3D('',#371,#292,#293);
#258=AXIS2_PLACEMENT_3D('',#376,#297,#298);
#259=AXIS2_PLACEMENT_3D('',#377,#299,#300);
#260=AXIS2_PLACEMENT_3D('',#378,#301,#302);
#261=AXIS2_PLACEMENT_3D('CIP',#379,#303,#304);
#262=AXIS2_PLACEMENT_3D('PCS',#380,#305,#306);
#263=AXIS2_PLACEMENT_3D('MCS',#381,#307,#308);
#264=AXIS2_PLACEMENT_3D('',#382,#309,#310);
#265=AXIS2_PLACEMENT_3D('STEP_TEMP_EM2_1',#383,#311,#312);
#266=AXIS2_PLACEMENT_3D('',#384,#313,#314);
#267=AXIS2_PLACEMENT_3D('',#385,#315,#316);
#268=AXIS2_PLACEMENT_3D('',#386,#317,#318);
#269=AXIS2_PLACEMENT_3D('',#390,#320,#321);
#270=AXIS2_PLACEMENT_3D('',#394,#323,#324);
#271=AXIS2_PLACEMENT_3D('',#395,#325,#326);
#272=AXIS2_PLACEMENT_3D('',#396,#327,#328);
#273=AXIS2_PLACEMENT_3D('',#397,#329,#330);
#274=AXIS2_PLACEMENT_3D('',#398,#331,#332);
#275=AXIS2_PLACEMENT_3D('',#399,#333,#334);
#276=AXIS2_PLACEMENT_3D('',#400,#335,#336);
#277=AXIS2_PLACEMENT_3D('',#402,#337,#338);
#278=AXIS2_PLACEMENT_3D('',#403,#339,#340);
#279=AXIS2_PLACEMENT_3D('',#404,#341,#342);
#280=AXIS2_PLACEMENT_3D('',#408,#344,#345);
#281=AXIS2_PLACEMENT_3D('',#412,#347,#348);
#282=AXIS2_PLACEMENT_3D('',#413,#349,#350);
#283=AXIS2_PLACEMENT_3D('',#414,#351,#352);
#284=AXIS2_PLACEMENT_3D('',#415,#353,#354);
#285=AXIS2_PLACEMENT_3D('',#416,#355,#356);
#286=AXIS2_PLACEMENT_3D('',#417,#357,#358);
#287=AXIS2_PLACEMENT_3D('',#420,#360,#361);
#288=AXIS2_PLACEMENT_3D('',#423,#363,#364);
#289=AXIS2_PLACEMENT_3D('',#424,#365,#366);
#290=AXIS2_PLACEMENT_3D('',#425,#367,#368);
#291=AXIS2_PLACEMENT_3D('',#426,#369,#370);
#292=DIRECTION('',(0.,0.,1.));
#293=DIRECTION('',(1.,0.,0.));
#294=DIRECTION('',(0.,0.,1.));
#295=DIRECTION('',(1.,0.,0.));
#296=DIRECTION('',(0.,0.,-1.));
#297=DIRECTION('',(0.,1.,0.));
#298=DIRECTION('',(0.,0.,-1.));
#299=DIRECTION('',(0.,0.,1.));
#300=DIRECTION('',(1.,0.,0.));
#301=DIRECTION('',(0.,0.,1.));
#302=DIRECTION('',(1.,0.,0.));
#303=DIRECTION('',(0.,0.,1.));
#304=DIRECTION('',(1.,0.,0.));
#305=DIRECTION('',(0.,0.,1.));
#306=DIRECTION('',(1.,0.,0.));
#307=DIRECTION('',(0.,0.,1.));
#308=DIRECTION('',(1.,0.,0.));
#309=DIRECTION('',(0.,0.,1.));
#310=DIRECTION('',(1.,0.,0.));
#311=DIRECTION('',(0.,0.,1.));
#312=DIRECTION('',(1.,0.,0.));
#313=DIRECTION('',(0.,0.,1.));
#314=DIRECTION('',(1.,0.,0.));
#315=DIRECTION('',(0.,0.,1.));
#316=DIRECTION('',(1.,0.,0.));
#317=DIRECTION('',(0.,0.,1.));
#318=DIRECTION('',(1.,0.,0.));
#319=DIRECTION('',(0.,0.,-1.));
#320=DIRECTION('',(0.,0.,1.));
#321=DIRECTION('',(0.,-1.,0.));
#322=DIRECTION('',(0.,0.,-1.));
#323=DIRECTION('',(0.,0.,-1.));
#324=DIRECTION('',(0.,1.,0.));
#325=DIRECTION('',(0.,0.,-1.));
#326=DIRECTION('',(0.,1.,0.));
#327=DIRECTION('',(0.,0.,-1.));
#328=DIRECTION('',(0.,-1.,0.));
#329=DIRECTION('',(0.,0.,-1.));
#330=DIRECTION('',(1.,0.,0.));
#331=DIRECTION('',(0.,0.,1.));
#332=DIRECTION('',(0.,1.,0.));
#333=DIRECTION('',(0.,0.,-1.));
#334=DIRECTION('',(0.,1.,0.));
#335=DIRECTION('',(-1.,0.,0.));
#336=DIRECTION('',(0.,-1.,0.));
#337=DIRECTION('',(1.,0.,0.));
#338=DIRECTION('',(0.,1.,0.));
#339=DIRECTION('',(0.,6.12323399573677E-17,-1.));
#340=DIRECTION('',(0.,1.,0.));
#341=DIRECTION('',(0.,6.12323399573677E-17,-1.));
#342=DIRECTION('',(0.,1.,0.));
#343=DIRECTION('',(0.,0.,-1.));
#344=DIRECTION('',(0.,0.,-1.));
#345=DIRECTION('',(0.,1.,0.));
#346=DIRECTION('',(0.,0.,-1.));
#347=DIRECTION('',(0.,0.,1.));
#348=DIRECTION('',(0.,-1.,0.));
#349=DIRECTION('',(0.,0.,-1.));
#350=DIRECTION('',(0.,1.,0.));
#351=DIRECTION('',(0.,0.,1.));
#352=DIRECTION('',(0.,1.,0.));
#353=DIRECTION('',(0.,0.,1.));
#354=DIRECTION('',(-1.,0.,0.));
#355=DIRECTION('',(0.,0.,-1.));
#356=DIRECTION('',(0.,-1.,0.));
#357=DIRECTION('',(0.,0.,-1.));
#358=DIRECTION('',(0.,1.,0.));
#359=DIRECTION('',(0.,0.707106781186547,0.707106781186547));
#360=DIRECTION('',(0.,0.,-1.));
#361=DIRECTION('',(0.,-1.,0.));
#362=DIRECTION('',(0.,-0.707106781186547,0.707106781186547));
#363=DIRECTION('',(0.,0.,-1.));
#364=DIRECTION('',(0.,1.,-1.37984467390648E-17));
#365=DIRECTION('',(0.,0.,-1.));
#366=DIRECTION('',(0.,1.,0.));
#367=DIRECTION('',(0.,0.,-1.));
#368=DIRECTION('',(0.,1.,-1.37984467390648E-17));
#369=DIRECTION('',(0.,0.,-1.));
#370=DIRECTION('',(0.,1.,0.));
#371=CARTESIAN_POINT('',(0.,0.,0.));
#372=CARTESIAN_POINT('CRP',(-6.,0.,0.));
#373=CARTESIAN_POINT('',(-6.,0.,6.));
#374=CARTESIAN_POINT('',(-6.,0.,22.));
#375=CARTESIAN_POINT('',(0.,0.,22.));
#376=CARTESIAN_POINT('',(0.,0.,6.));
#377=CARTESIAN_POINT('',(0.,0.,0.));
#378=CARTESIAN_POINT('',(0.,0.,0.));
#379=CARTESIAN_POINT('',(0.,0.,0.));
#380=CARTESIAN_POINT('',(0.,0.,80.));
#381=CARTESIAN_POINT('',(0.,0.,62.));
#382=CARTESIAN_POINT('',(0.,0.,0.));
#383=CARTESIAN_POINT('',(0.,0.,0.));
#384=CARTESIAN_POINT('',(0.,0.,0.));
#385=CARTESIAN_POINT('',(0.,0.,0.));
#386=CARTESIAN_POINT('',(0.,0.,0.));
#387=CARTESIAN_POINT('',(0.,-6.,22.));
#388=CARTESIAN_POINT('',(0.,-6.,22.));
#389=CARTESIAN_POINT('',(0.,-6.,6.));
#390=CARTESIAN_POINT('',(0.,0.,6.));
#391=CARTESIAN_POINT('',(0.,6.,6.));
#392=CARTESIAN_POINT('',(0.,6.,22.));
#393=CARTESIAN_POINT('',(0.,6.,22.));
#394=CARTESIAN_POINT('',(0.,1.433042468975E-14,22.));
#395=CARTESIAN_POINT('',(0.,1.433042468975E-14,84.));
#396=CARTESIAN_POINT('',(0.,1.433042468975E-14,22.));
#397=CARTESIAN_POINT('',(150.,150.,22.));
#398=CARTESIAN_POINT('',(0.,0.,6.));
#399=CARTESIAN_POINT('',(0.,1.433042468975E-14,84.));
#400=CARTESIAN_POINT('',(0.,0.,6.));
#401=CARTESIAN_POINT('',(0.,0.,0.));
#402=CARTESIAN_POINT('',(0.,0.,6.));
#403=CARTESIAN_POINT('',(0.,0.,6.));
#404=CARTESIAN_POINT('',(0.,0.,6.));
#405=CARTESIAN_POINT('',(0.,6.,79.5));
#406=CARTESIAN_POINT('',(0.,6.,79.5));
#407=CARTESIAN_POINT('',(0.,6.,22.));
#408=CARTESIAN_POINT('',(0.,1.354971235529E-14,79.5));
#409=CARTESIAN_POINT('',(0.,-6.,79.5));
#410=CARTESIAN_POINT('',(0.,-6.,79.5));
#411=CARTESIAN_POINT('',(0.,-6.,22.));
#412=CARTESIAN_POINT('',(0.,1.433042468975E-14,22.));
#413=CARTESIAN_POINT('',(0.,1.433042468975E-14,84.));
#414=CARTESIAN_POINT('',(0.,1.433042468975E-14,22.));
#415=CARTESIAN_POINT('',(-150.,150.,22.));
#416=CARTESIAN_POINT('',(0.,1.354971235529E-14,79.5));
#417=CARTESIAN_POINT('',(0.,1.433042468975E-14,84.));
#418=CARTESIAN_POINT('',(0.,-5.5,80.));
#419=CARTESIAN_POINT('',(0.,-5.5,80.));
#420=CARTESIAN_POINT('',(0.,1.354971235529E-14,80.));
#421=CARTESIAN_POINT('',(0.,5.5,80.));
#422=CARTESIAN_POINT('',(0.,5.5,80.));
#423=CARTESIAN_POINT('',(0.,1.354971235529E-14,79.75));
#424=CARTESIAN_POINT('',(0.,1.354971235529E-14,80.));
#425=CARTESIAN_POINT('',(0.,1.354971235529E-14,79.75));
#426=CARTESIAN_POINT('',(0.,1.359563661026E-14,80.));
#427=MECHANICAL_DESIGN_GEOMETRIC_PRESENTATION_REPRESENTATION('',(#216,#217,
#218,#219,#220,#221,#222,#223,#224,#225,#226,#227,#228,#229,#230,#231,#232),
#428);
#428=(
GEOMETRIC_REPRESENTATION_CONTEXT(3)
GLOBAL_UNCERTAINTY_ASSIGNED_CONTEXT((#429))
GLOBAL_UNIT_ASSIGNED_CONTEXT((#435,#431,#430))
REPRESENTATION_CONTEXT('VQN2MBR0600','TOP_LEVEL_ASSEMBLY_PART')
);
#429=UNCERTAINTY_MEASURE_WITH_UNIT(LENGTH_MEASURE(2.E-5),#435,
'DISTANCE_ACCURACY_VALUE','Maximum Tolerance applied to model');
#430=(
NAMED_UNIT(*)
SI_UNIT($,.STERADIAN.)
SOLID_ANGLE_UNIT()
);
#431=(
CONVERSION_BASED_UNIT('DEGREE',#433)
NAMED_UNIT(#432)
PLANE_ANGLE_UNIT()
);
#432=DIMENSIONAL_EXPONENTS(0.,0.,0.,0.,0.,0.,0.);
#433=PLANE_ANGLE_MEASURE_WITH_UNIT(PLANE_ANGLE_MEASURE(0.0174532925),#434);
#434=(
NAMED_UNIT(*)
PLANE_ANGLE_UNIT()
SI_UNIT($,.RADIAN.)
);
#435=(
LENGTH_UNIT()
NAMED_UNIT(*)
SI_UNIT(.MILLI.,.METRE.)
);
ENDSEC;
END-ISO-10303-21;
