ISO-10303-21;
HEADER;
/* Generated by software containing ST-Developer
 * from STEP Tools, Inc. (www.steptools.com) 
 */
/* OPTION: using custom schema-name function */

FILE_DESCRIPTION(
/* description */ (''),
/* implementation_level */ '2;1');

FILE_NAME(
/* name */ 'DLE0500S050P120.stp',
/* time_stamp */ '2020-08-19T18:06:14+09:00',
/* author */ (''),
/* organization */ (''),
/* preprocessor_version */ 'ST-DEVELOPER v16',
/* originating_system */ 'SIEMENS PLM Software NX 10.0',
/* authorisation */ '');

FILE_SCHEMA (('AUTOMOTIVE_DESIGN { 1 0 10303 214 3 1 1 1 }'));
ENDSEC;

DATA;
#10=CONSTRUCTIVE_GEOMETRY_REPRESENTATION_RELATIONSHIP(
'supplemental geometry','',#26,#11);
#11=CONSTRUCTIVE_GEOMETRY_REPRESENTATION('supplemental geometry',(#289,
#290,#291,#292,#293,#294,#295,#296,#297,#298,#299,#300,#301),#469);
#12=GEOMETRICALLY_BOUNDED_WIREFRAME_SHAPE_REPRESENTATION(
'DLE0500S050P120-None',(#27),#469);
#13=SHAPE_REPRESENTATION_RELATIONSHIP('None',
'relationship between DLE0500S050P120-None and DLE0500S050P120-None',#26,
#15);
#14=SHAPE_REPRESENTATION_RELATIONSHIP('None',
'relationship between DLE0500S050P120-None and DLE0500S050P120-None',#26,
#12);
#15=ADVANCED_BREP_SHAPE_REPRESENTATION('DLE0500S050P120-None',(#40,#41),
#469);
#16=SHAPE_DEFINITION_REPRESENTATION(#17,#26);
#17=PRODUCT_DEFINITION_SHAPE('','SHAPE FOR DLE0500S050P120_ASM.',#18);
#18=PRODUCT_DEFINITION('part definition','',#20,#19);
#19=PRODUCT_DEFINITION_CONTEXT('part definition',#25,'design');
#20=PRODUCT_DEFINITION_FORMATION_WITH_SPECIFIED_SOURCE(' ',' ',#22,
 .NOT_KNOWN.);
#21=PRODUCT_RELATED_PRODUCT_CATEGORY('part','',(#22));
#22=PRODUCT('DLE0500S050P120_ASM','DLE0500S050P120_ASM','NOT SPECIFIED',
(#23));
#23=PRODUCT_CONTEXT('',#25,'mechanical');
#24=APPLICATION_PROTOCOL_DEFINITION('international standard',
'automotive_design',2010,#25);
#25=APPLICATION_CONTEXT(
'core data for automotive mechanical design processes');
#26=SHAPE_REPRESENTATION('DLE0500S050P120-None',(#288),#469);
#27=GEOMETRIC_CURVE_SET('None',(#406,#407,#408,#409,#410,#196,#197,#198,
#199));
#28=CYLINDRICAL_SURFACE('',#313,2.5);
#29=CYLINDRICAL_SURFACE('',#317,2.5);
#30=SURFACE_STYLE_USAGE(.BOTH.,#32);
#31=SURFACE_STYLE_USAGE(.BOTH.,#33);
#32=SURFACE_SIDE_STYLE('',(#34));
#33=SURFACE_SIDE_STYLE('',(#35));
#34=SURFACE_STYLE_FILL_AREA(#36);
#35=SURFACE_STYLE_FILL_AREA(#37);
#36=FILL_AREA_STYLE('',(#38));
#37=FILL_AREA_STYLE('',(#39));
#38=FILL_AREA_STYLE_COLOUR('',#286);
#39=FILL_AREA_STYLE_COLOUR('',#287);
#40=MANIFOLD_SOLID_BREP('CUT',#42);
#41=MANIFOLD_SOLID_BREP('NOCUT',#43);
#42=CLOSED_SHELL('',(#47,#48,#49,#50,#51));
#43=CLOSED_SHELL('',(#52,#53,#54,#55,#56,#57));
#44=PLANE('',#309);
#45=PLANE('',#315);
#46=PLANE('',#322);
#47=ADVANCED_FACE('',(#64),#58,.T.);
#48=ADVANCED_FACE('',(#65),#59,.T.);
#49=ADVANCED_FACE('',(#66),#60,.T.);
#50=ADVANCED_FACE('',(#67),#44,.F.);
#51=ADVANCED_FACE('',(#68),#61,.T.);
#52=ADVANCED_FACE('',(#69),#28,.T.);
#53=ADVANCED_FACE('',(#70),#45,.F.);
#54=ADVANCED_FACE('',(#71),#29,.T.);
#55=ADVANCED_FACE('',(#72),#62,.T.);
#56=ADVANCED_FACE('',(#73),#63,.T.);
#57=ADVANCED_FACE('',(#74),#46,.F.);
#58=CONICAL_SURFACE('',#303,0.31875,63.07174443467);
#59=CONICAL_SURFACE('',#305,0.31875,63.07174443467);
#60=CONICAL_SURFACE('',#307,1.5625,60.);
#61=CONICAL_SURFACE('',#310,1.5625,60.);
#62=CONICAL_SURFACE('',#319,2.25,45.);
#63=CONICAL_SURFACE('',#321,2.25,45.);
#64=FACE_OUTER_BOUND('',#75,.T.);
#65=FACE_OUTER_BOUND('',#76,.T.);
#66=FACE_OUTER_BOUND('',#77,.T.);
#67=FACE_OUTER_BOUND('',#78,.T.);
#68=FACE_OUTER_BOUND('',#79,.T.);
#69=FACE_OUTER_BOUND('',#80,.T.);
#70=FACE_OUTER_BOUND('',#81,.T.);
#71=FACE_OUTER_BOUND('',#82,.T.);
#72=FACE_OUTER_BOUND('',#83,.T.);
#73=FACE_OUTER_BOUND('',#84,.T.);
#74=FACE_OUTER_BOUND('',#85,.T.);
#75=EDGE_LOOP('',(#86,#87,#88));
#76=EDGE_LOOP('',(#89,#90,#91));
#77=EDGE_LOOP('',(#92,#93,#94,#95));
#78=EDGE_LOOP('',(#96,#97));
#79=EDGE_LOOP('',(#98,#99,#100,#101));
#80=EDGE_LOOP('',(#102,#103,#104,#105));
#81=EDGE_LOOP('',(#106,#107));
#82=EDGE_LOOP('',(#108,#109,#110,#111));
#83=EDGE_LOOP('',(#112,#113,#114,#115));
#84=EDGE_LOOP('',(#116,#117,#118,#119));
#85=EDGE_LOOP('',(#120,#121));
#86=ORIENTED_EDGE('',*,*,#133,.F.);
#87=ORIENTED_EDGE('',*,*,#134,.T.);
#88=ORIENTED_EDGE('',*,*,#135,.F.);
#89=ORIENTED_EDGE('',*,*,#134,.F.);
#90=ORIENTED_EDGE('',*,*,#136,.T.);
#91=ORIENTED_EDGE('',*,*,#135,.T.);
#92=ORIENTED_EDGE('',*,*,#137,.F.);
#93=ORIENTED_EDGE('',*,*,#136,.F.);
#94=ORIENTED_EDGE('',*,*,#138,.T.);
#95=ORIENTED_EDGE('',*,*,#139,.T.);
#96=ORIENTED_EDGE('',*,*,#139,.F.);
#97=ORIENTED_EDGE('',*,*,#140,.F.);
#98=ORIENTED_EDGE('',*,*,#138,.F.);
#99=ORIENTED_EDGE('',*,*,#133,.T.);
#100=ORIENTED_EDGE('',*,*,#137,.T.);
#101=ORIENTED_EDGE('',*,*,#140,.T.);
#102=ORIENTED_EDGE('',*,*,#141,.F.);
#103=ORIENTED_EDGE('',*,*,#142,.T.);
#104=ORIENTED_EDGE('',*,*,#143,.T.);
#105=ORIENTED_EDGE('',*,*,#144,.T.);
#106=ORIENTED_EDGE('',*,*,#145,.F.);
#107=ORIENTED_EDGE('',*,*,#144,.F.);
#108=ORIENTED_EDGE('',*,*,#143,.F.);
#109=ORIENTED_EDGE('',*,*,#146,.T.);
#110=ORIENTED_EDGE('',*,*,#141,.T.);
#111=ORIENTED_EDGE('',*,*,#145,.T.);
#112=ORIENTED_EDGE('',*,*,#146,.F.);
#113=ORIENTED_EDGE('',*,*,#147,.T.);
#114=ORIENTED_EDGE('',*,*,#148,.T.);
#115=ORIENTED_EDGE('',*,*,#149,.F.);
#116=ORIENTED_EDGE('',*,*,#150,.T.);
#117=ORIENTED_EDGE('',*,*,#147,.F.);
#118=ORIENTED_EDGE('',*,*,#142,.F.);
#119=ORIENTED_EDGE('',*,*,#149,.T.);
#120=ORIENTED_EDGE('',*,*,#150,.F.);
#121=ORIENTED_EDGE('',*,*,#148,.F.);
#122=VERTEX_POINT('',#429);
#123=VERTEX_POINT('',#430);
#124=VERTEX_POINT('',#432);
#125=VERTEX_POINT('',#438);
#126=VERTEX_POINT('',#440);
#127=VERTEX_POINT('',#447);
#128=VERTEX_POINT('',#448);
#129=VERTEX_POINT('',#450);
#130=VERTEX_POINT('',#452);
#131=VERTEX_POINT('',#460);
#132=VERTEX_POINT('',#462);
#133=EDGE_CURVE('',#122,#123,#151,.T.);
#134=EDGE_CURVE('',#122,#124,#204,.T.);
#135=EDGE_CURVE('',#123,#124,#205,.T.);
#136=EDGE_CURVE('',#122,#123,#152,.T.);
#137=EDGE_CURVE('',#123,#125,#206,.T.);
#138=EDGE_CURVE('',#122,#126,#207,.T.);
#139=EDGE_CURVE('',#126,#125,#153,.T.);
#140=EDGE_CURVE('',#125,#126,#154,.T.);
#141=EDGE_CURVE('',#127,#128,#208,.T.);
#142=EDGE_CURVE('',#127,#129,#155,.T.);
#143=EDGE_CURVE('',#129,#130,#209,.T.);
#144=EDGE_CURVE('',#130,#128,#156,.T.);
#145=EDGE_CURVE('',#128,#130,#157,.T.);
#146=EDGE_CURVE('',#129,#127,#158,.T.);
#147=EDGE_CURVE('',#129,#131,#210,.T.);
#148=EDGE_CURVE('',#131,#132,#159,.T.);
#149=EDGE_CURVE('',#127,#132,#211,.T.);
#150=EDGE_CURVE('',#132,#131,#160,.T.);
#151=CIRCLE('',#302,0.625);
#152=CIRCLE('',#304,0.625);
#153=CIRCLE('',#306,2.5);
#154=CIRCLE('',#308,2.5);
#155=CIRCLE('',#311,2.5);
#156=CIRCLE('',#312,2.5);
#157=CIRCLE('',#314,2.5);
#158=CIRCLE('',#316,2.5);
#159=CIRCLE('',#318,2.);
#160=CIRCLE('',#320,2.);
#161=CURVE_STYLE('',#179,POSITIVE_LENGTH_MEASURE(0.18),#178);
#162=CURVE_STYLE('',#180,POSITIVE_LENGTH_MEASURE(0.18),#178);
#163=CURVE_STYLE('',#181,POSITIVE_LENGTH_MEASURE(0.18),#178);
#164=CURVE_STYLE('',#182,POSITIVE_LENGTH_MEASURE(0.18),#178);
#165=CURVE_STYLE('',#183,POSITIVE_LENGTH_MEASURE(0.13),#285);
#166=CURVE_STYLE('',#184,POSITIVE_LENGTH_MEASURE(0.13),#285);
#167=CURVE_STYLE('',#185,POSITIVE_LENGTH_MEASURE(0.13),#285);
#168=CURVE_STYLE('',#186,POSITIVE_LENGTH_MEASURE(0.13),#284);
#169=CURVE_STYLE('',#187,POSITIVE_LENGTH_MEASURE(0.13),#284);
#170=CURVE_STYLE('',#188,POSITIVE_LENGTH_MEASURE(0.18),#285);
#171=CURVE_STYLE('',#189,POSITIVE_LENGTH_MEASURE(0.13),#284);
#172=CURVE_STYLE('',#190,POSITIVE_LENGTH_MEASURE(0.13),#285);
#173=CURVE_STYLE('',#191,POSITIVE_LENGTH_MEASURE(0.13),#285);
#174=CURVE_STYLE('',#192,POSITIVE_LENGTH_MEASURE(0.13),#285);
#175=CURVE_STYLE('',#193,POSITIVE_LENGTH_MEASURE(0.13),#284);
#176=CURVE_STYLE('',#194,POSITIVE_LENGTH_MEASURE(0.13),#285);
#177=CURVE_STYLE('',#195,POSITIVE_LENGTH_MEASURE(0.13),#285);
#178=DRAUGHTING_PRE_DEFINED_COLOUR('blue');
#179=DRAUGHTING_PRE_DEFINED_CURVE_FONT('continuous');
#180=DRAUGHTING_PRE_DEFINED_CURVE_FONT('continuous');
#181=DRAUGHTING_PRE_DEFINED_CURVE_FONT('continuous');
#182=DRAUGHTING_PRE_DEFINED_CURVE_FONT('continuous');
#183=DRAUGHTING_PRE_DEFINED_CURVE_FONT('continuous');
#184=DRAUGHTING_PRE_DEFINED_CURVE_FONT('continuous');
#185=DRAUGHTING_PRE_DEFINED_CURVE_FONT('continuous');
#186=DRAUGHTING_PRE_DEFINED_CURVE_FONT('continuous');
#187=DRAUGHTING_PRE_DEFINED_CURVE_FONT('continuous');
#188=DRAUGHTING_PRE_DEFINED_CURVE_FONT('continuous');
#189=DRAUGHTING_PRE_DEFINED_CURVE_FONT('continuous');
#190=DRAUGHTING_PRE_DEFINED_CURVE_FONT('continuous');
#191=DRAUGHTING_PRE_DEFINED_CURVE_FONT('continuous');
#192=DRAUGHTING_PRE_DEFINED_CURVE_FONT('continuous');
#193=DRAUGHTING_PRE_DEFINED_CURVE_FONT('continuous');
#194=DRAUGHTING_PRE_DEFINED_CURVE_FONT('continuous');
#195=DRAUGHTING_PRE_DEFINED_CURVE_FONT('continuous');
#196=TRIMMED_CURVE('',#200,(PARAMETER_VALUE(0.)),(PARAMETER_VALUE(1.)),
 .T.,.PARAMETER.);
#197=TRIMMED_CURVE('',#201,(PARAMETER_VALUE(0.)),(PARAMETER_VALUE(1.)),
 .T.,.PARAMETER.);
#198=TRIMMED_CURVE('',#202,(PARAMETER_VALUE(0.)),(PARAMETER_VALUE(1.)),
 .T.,.PARAMETER.);
#199=TRIMMED_CURVE('',#203,(PARAMETER_VALUE(0.)),(PARAMETER_VALUE(1.)),
 .T.,.PARAMETER.);
#200=LINE('',#411,#212);
#201=LINE('',#412,#213);
#202=LINE('',#413,#214);
#203=LINE('',#414,#215);
#204=LINE('',#431,#216);
#205=LINE('',#433,#217);
#206=LINE('',#437,#218);
#207=LINE('',#439,#219);
#208=LINE('',#446,#220);
#209=LINE('',#451,#221);
#210=LINE('',#459,#222);
#211=LINE('',#463,#223);
#212=VECTOR('',#325,0.701007194509797);
#213=VECTOR('',#326,1.96506350946093);
#214=VECTOR('',#327,2.326794919243);
#215=VECTOR('',#328,1.3);
#216=VECTOR('',#357,1.);
#217=VECTOR('',#358,1.);
#218=VECTOR('',#365,1.);
#219=VECTOR('',#366,1.);
#220=VECTOR('',#377,1.);
#221=VECTOR('',#380,1.);
#222=VECTOR('',#393,1.);
#223=VECTOR('',#396,1.);
#224=PRESENTATION_LAYER_ASSIGNMENT('2','Layer 2',(#406,#407,#292,#293));
#225=PRESENTATION_LAYER_ASSIGNMENT('1','Layer 1',(#408,#409,#410,#196,#197,
#198,#199,#289,#290,#291,#294,#295,#296,#297,#298,#299,#300,#301,#40,#41));
#226=STYLED_ITEM('',(#250),#406);
#227=STYLED_ITEM('',(#251),#407);
#228=STYLED_ITEM('',(#252),#408);
#229=STYLED_ITEM('',(#253),#409);
#230=STYLED_ITEM('',(#254),#410);
#231=STYLED_ITEM('',(#255),#196);
#232=STYLED_ITEM('',(#256),#197);
#233=STYLED_ITEM('',(#257),#198);
#234=STYLED_ITEM('',(#258),#199);
#235=STYLED_ITEM('',(#259),#289);
#236=STYLED_ITEM('',(#260),#290);
#237=STYLED_ITEM('',(#261),#291);
#238=STYLED_ITEM('',(#262),#292);
#239=STYLED_ITEM('',(#263),#293);
#240=STYLED_ITEM('',(#264),#294);
#241=STYLED_ITEM('',(#265),#295);
#242=STYLED_ITEM('',(#266),#296);
#243=STYLED_ITEM('',(#267),#297);
#244=STYLED_ITEM('',(#268),#298);
#245=STYLED_ITEM('',(#269),#299);
#246=STYLED_ITEM('',(#270),#300);
#247=STYLED_ITEM('',(#271),#301);
#248=STYLED_ITEM('',(#272),#40);
#249=STYLED_ITEM('',(#273),#41);
#250=PRESENTATION_STYLE_ASSIGNMENT((#274));
#251=PRESENTATION_STYLE_ASSIGNMENT((#275));
#252=PRESENTATION_STYLE_ASSIGNMENT((#276));
#253=PRESENTATION_STYLE_ASSIGNMENT((#277));
#254=PRESENTATION_STYLE_ASSIGNMENT((#278));
#255=PRESENTATION_STYLE_ASSIGNMENT((#161));
#256=PRESENTATION_STYLE_ASSIGNMENT((#162));
#257=PRESENTATION_STYLE_ASSIGNMENT((#163));
#258=PRESENTATION_STYLE_ASSIGNMENT((#164));
#259=PRESENTATION_STYLE_ASSIGNMENT((#165));
#260=PRESENTATION_STYLE_ASSIGNMENT((#166));
#261=PRESENTATION_STYLE_ASSIGNMENT((#167));
#262=PRESENTATION_STYLE_ASSIGNMENT((#168));
#263=PRESENTATION_STYLE_ASSIGNMENT((#169));
#264=PRESENTATION_STYLE_ASSIGNMENT((#170));
#265=PRESENTATION_STYLE_ASSIGNMENT((#171));
#266=PRESENTATION_STYLE_ASSIGNMENT((#172));
#267=PRESENTATION_STYLE_ASSIGNMENT((#173));
#268=PRESENTATION_STYLE_ASSIGNMENT((#174));
#269=PRESENTATION_STYLE_ASSIGNMENT((#175));
#270=PRESENTATION_STYLE_ASSIGNMENT((#176));
#271=PRESENTATION_STYLE_ASSIGNMENT((#177));
#272=PRESENTATION_STYLE_ASSIGNMENT((#30));
#273=PRESENTATION_STYLE_ASSIGNMENT((#31));
#274=POINT_STYLE('',#279,POSITIVE_LENGTH_MEASURE(3.),#284);
#275=POINT_STYLE('',#280,POSITIVE_LENGTH_MEASURE(3.),#284);
#276=POINT_STYLE('',#281,POSITIVE_LENGTH_MEASURE(3.),#285);
#277=POINT_STYLE('',#282,POSITIVE_LENGTH_MEASURE(3.),#284);
#278=POINT_STYLE('',#283,POSITIVE_LENGTH_MEASURE(3.),#284);
#279=PRE_DEFINED_POINT_MARKER_SYMBOL('plus');
#280=PRE_DEFINED_POINT_MARKER_SYMBOL('plus');
#281=PRE_DEFINED_POINT_MARKER_SYMBOL('plus');
#282=PRE_DEFINED_POINT_MARKER_SYMBOL('plus');
#283=PRE_DEFINED_POINT_MARKER_SYMBOL('plus');
#284=COLOUR_RGB('Medium Umber',0.372533760585946,0.313725490196078,0.270572976272221);
#285=COLOUR_RGB('Strong Stone',0.576470588235294,0.54508278019379,0.392156862745098);
#286=COLOUR_RGB('Light Gray',0.8,0.8,0.8);
#287=COLOUR_RGB('Medium Gray',0.490196078431373,0.490196078431373,0.490196078431373);
#288=AXIS2_PLACEMENT_3D('',#405,#323,#324);
#289=AXIS2_PLACEMENT_3D('',#415,#329,#330);
#290=AXIS2_PLACEMENT_3D('',#416,#331,#332);
#291=AXIS2_PLACEMENT_3D('',#417,#333,#334);
#292=AXIS2_PLACEMENT_3D('CIP',#418,#335,#336);
#293=AXIS2_PLACEMENT_3D('PCS',#419,#337,#338);
#294=AXIS2_PLACEMENT_3D('MCS',#420,#339,#340);
#295=AXIS2_PLACEMENT_3D('STEP_TEMP_4_1',#421,#341,#342);
#296=AXIS2_PLACEMENT_3D('',#422,#343,#344);
#297=AXIS2_PLACEMENT_3D('',#423,#345,#346);
#298=AXIS2_PLACEMENT_3D('',#424,#347,#348);
#299=AXIS2_PLACEMENT_3D('STEP_TEMP_4_2',#425,#349,#350);
#300=AXIS2_PLACEMENT_3D('',#426,#351,#352);
#301=AXIS2_PLACEMENT_3D('',#427,#353,#354);
#302=AXIS2_PLACEMENT_3D('',#428,#355,#356);
#303=AXIS2_PLACEMENT_3D('',#434,#359,#360);
#304=AXIS2_PLACEMENT_3D('',#435,#361,#362);
#305=AXIS2_PLACEMENT_3D('',#436,#363,#364);
#306=AXIS2_PLACEMENT_3D('',#441,#367,#368);
#307=AXIS2_PLACEMENT_3D('',#442,#369,#370);
#308=AXIS2_PLACEMENT_3D('',#443,#371,#372);
#309=AXIS2_PLACEMENT_3D('',#444,#373,#374);
#310=AXIS2_PLACEMENT_3D('',#445,#375,#376);
#311=AXIS2_PLACEMENT_3D('',#449,#378,#379);
#312=AXIS2_PLACEMENT_3D('',#453,#381,#382);
#313=AXIS2_PLACEMENT_3D('',#454,#383,#384);
#314=AXIS2_PLACEMENT_3D('',#455,#385,#386);
#315=AXIS2_PLACEMENT_3D('',#456,#387,#388);
#316=AXIS2_PLACEMENT_3D('',#457,#389,#390);
#317=AXIS2_PLACEMENT_3D('',#458,#391,#392);
#318=AXIS2_PLACEMENT_3D('',#461,#394,#395);
#319=AXIS2_PLACEMENT_3D('',#464,#397,#398);
#320=AXIS2_PLACEMENT_3D('',#465,#399,#400);
#321=AXIS2_PLACEMENT_3D('',#466,#401,#402);
#322=AXIS2_PLACEMENT_3D('',#467,#403,#404);
#323=DIRECTION('',(0.,0.,1.));
#324=DIRECTION('',(1.,0.,0.));
#325=DIRECTION('',(-0.891574301797404,0.,0.452874446590302));
#326=DIRECTION('',(-0.866025403784429,0.,0.500000000000017));
#327=DIRECTION('',(1.,0.,0.));
#328=DIRECTION('',(0.,0.,-1.));
#329=DIRECTION('',(0.,0.,1.));
#330=DIRECTION('',(1.,0.,0.));
#331=DIRECTION('',(0.,0.,1.));
#332=DIRECTION('',(1.,0.,0.));
#333=DIRECTION('',(0.,0.,1.));
#334=DIRECTION('',(1.,0.,0.));
#335=DIRECTION('',(0.,0.,1.));
#336=DIRECTION('',(1.,0.,0.));
#337=DIRECTION('',(0.,0.,1.));
#338=DIRECTION('',(1.,0.,0.));
#339=DIRECTION('',(0.,0.,1.));
#340=DIRECTION('',(1.,0.,0.));
#341=DIRECTION('',(0.,0.,1.));
#342=DIRECTION('',(1.,0.,0.));
#343=DIRECTION('',(0.,0.,1.));
#344=DIRECTION('',(1.,0.,0.));
#345=DIRECTION('',(0.,0.,1.));
#346=DIRECTION('',(1.,0.,0.));
#347=DIRECTION('',(0.,0.,1.));
#348=DIRECTION('',(1.,0.,0.));
#349=DIRECTION('',(0.,0.,1.));
#350=DIRECTION('',(1.,0.,0.));
#351=DIRECTION('',(0.,0.,1.));
#352=DIRECTION('',(1.,0.,0.));
#353=DIRECTION('',(0.,0.,1.));
#354=DIRECTION('',(1.,0.,0.));
#355=DIRECTION('',(0.,0.,1.));
#356=DIRECTION('',(0.,-1.,0.));
#357=DIRECTION('',(0.,0.891574301797404,-0.452874446590302));
#358=DIRECTION('',(0.,-0.891574301797404,-0.452874446590302));
#359=DIRECTION('',(0.,0.,1.));
#360=DIRECTION('',(0.,-1.,4.31969600596842E-17));
#361=DIRECTION('',(0.,0.,-1.));
#362=DIRECTION('',(0.,-1.,0.));
#363=DIRECTION('',(0.,0.,1.));
#364=DIRECTION('',(0.,-1.,4.31969600596842E-17));
#365=DIRECTION('',(0.,0.866025403784429,0.500000000000017));
#366=DIRECTION('',(0.,-0.866025403784429,0.500000000000017));
#367=DIRECTION('',(0.,0.,-1.));
#368=DIRECTION('',(0.,-1.,0.));
#369=DIRECTION('',(0.,0.,1.));
#370=DIRECTION('',(0.,-1.,4.56542172616527E-18));
#371=DIRECTION('',(0.,0.,-1.));
#372=DIRECTION('',(0.,1.,0.));
#373=DIRECTION('',(0.,0.,-1.));
#374=DIRECTION('',(1.,0.,0.));
#375=DIRECTION('',(0.,0.,1.));
#376=DIRECTION('',(0.,-1.,4.56542172616527E-18));
#377=DIRECTION('',(0.,0.,-1.));
#378=DIRECTION('',(0.,0.,-1.));
#379=DIRECTION('',(0.,1.,0.));
#380=DIRECTION('',(0.,0.,-1.));
#381=DIRECTION('',(0.,0.,1.));
#382=DIRECTION('',(0.,-1.,0.));
#383=DIRECTION('',(0.,0.,-1.));
#384=DIRECTION('',(0.,1.,0.));
#385=DIRECTION('',(0.,0.,1.));
#386=DIRECTION('',(0.,1.,0.));
#387=DIRECTION('',(0.,0.,1.));
#388=DIRECTION('',(-1.,0.,0.));
#389=DIRECTION('',(0.,0.,-1.));
#390=DIRECTION('',(0.,-1.,0.));
#391=DIRECTION('',(0.,0.,-1.));
#392=DIRECTION('',(0.,1.,0.));
#393=DIRECTION('',(0.,0.707106781186547,0.707106781186547));
#394=DIRECTION('',(0.,0.,-1.));
#395=DIRECTION('',(0.,-1.,0.));
#396=DIRECTION('',(0.,-0.707106781186547,0.707106781186547));
#397=DIRECTION('',(0.,0.,-1.));
#398=DIRECTION('',(0.,1.,-3.46165822095646E-17));
#399=DIRECTION('',(0.,0.,-1.));
#400=DIRECTION('',(0.,1.,0.));
#401=DIRECTION('',(0.,0.,-1.));
#402=DIRECTION('',(0.,1.,-3.46165822095646E-17));
#403=DIRECTION('',(0.,0.,-1.));
#404=DIRECTION('',(0.,1.,0.));
#405=CARTESIAN_POINT('',(0.,0.,0.));
#406=CARTESIAN_POINT('',(0.,0.,0.));
#407=CARTESIAN_POINT('',(0.,0.,60.));
#408=CARTESIAN_POINT('',(0.,0.,16.));
#409=CARTESIAN_POINT('',(0.,0.,0.));
#410=CARTESIAN_POINT('',(0.,0.,0.));
#411=CARTESIAN_POINT('',(0.,0.,0.));
#412=CARTESIAN_POINT('',(-0.625,0.,0.3174682452694));
#413=CARTESIAN_POINT('',(-2.326794919243,0.,1.3));
#414=CARTESIAN_POINT('',(0.,0.,1.3));
#415=CARTESIAN_POINT('',(0.,0.,0.));
#416=CARTESIAN_POINT('',(0.,0.,0.));
#417=CARTESIAN_POINT('',(0.,0.,0.));
#418=CARTESIAN_POINT('',(0.,0.,0.));
#419=CARTESIAN_POINT('',(0.,0.,60.));
#420=CARTESIAN_POINT('',(0.,0.,16.));
#421=CARTESIAN_POINT('',(0.,0.,0.));
#422=CARTESIAN_POINT('',(0.,0.,0.));
#423=CARTESIAN_POINT('',(0.,0.,0.));
#424=CARTESIAN_POINT('',(0.,0.,0.));
#425=CARTESIAN_POINT('',(0.,0.,0.));
#426=CARTESIAN_POINT('',(0.,0.,0.));
#427=CARTESIAN_POINT('',(0.,0.,0.));
#428=CARTESIAN_POINT('',(0.,-1.098910789482E-14,0.3174682452694));
#429=CARTESIAN_POINT('',(0.,-0.625,0.3174682452694));
#430=CARTESIAN_POINT('',(0.,0.625,0.3174682452694));
#431=CARTESIAN_POINT('',(0.,-0.625,0.3174682452694));
#432=CARTESIAN_POINT('',(0.,-1.099120794379E-14,-2.353672812205E-14));
#433=CARTESIAN_POINT('',(0.,0.625,0.3174682452694));
#434=CARTESIAN_POINT('',(0.,-1.098910789482E-14,0.1619088050874));
#435=CARTESIAN_POINT('',(0.,-1.086110316062E-14,0.3174682452694));
#436=CARTESIAN_POINT('',(0.,-1.098910789482E-14,0.1619088050874));
#437=CARTESIAN_POINT('',(0.,2.5,1.4));
#438=CARTESIAN_POINT('',(0.,2.5,1.4));
#439=CARTESIAN_POINT('',(0.,-2.5,1.4));
#440=CARTESIAN_POINT('',(0.,-2.5,1.4));
#441=CARTESIAN_POINT('',(0.,-1.086110316062E-14,1.4));
#442=CARTESIAN_POINT('',(0.,-1.086110316062E-14,0.8587341226347));
#443=CARTESIAN_POINT('',(0.,-1.086110316062E-14,1.4));
#444=CARTESIAN_POINT('',(150.,150.,1.4));
#445=CARTESIAN_POINT('',(0.,-1.086110316062E-14,0.8587341226347));
#446=CARTESIAN_POINT('',(0.,2.5,59.5));
#447=CARTESIAN_POINT('',(0.,2.5,59.5));
#448=CARTESIAN_POINT('',(0.,2.5,1.4));
#449=CARTESIAN_POINT('',(0.,0.,59.5));
#450=CARTESIAN_POINT('',(0.,-2.5,59.5));
#451=CARTESIAN_POINT('',(0.,-2.5,59.5));
#452=CARTESIAN_POINT('',(0.,-2.5,1.4));
#453=CARTESIAN_POINT('',(0.,0.,1.4));
#454=CARTESIAN_POINT('',(0.,0.,63.));
#455=CARTESIAN_POINT('',(0.,0.,1.4));
#456=CARTESIAN_POINT('',(-150.,150.,1.4));
#457=CARTESIAN_POINT('',(0.,0.,59.5));
#458=CARTESIAN_POINT('',(0.,0.,63.));
#459=CARTESIAN_POINT('',(0.,-2.,60.));
#460=CARTESIAN_POINT('',(0.,-2.,60.));
#461=CARTESIAN_POINT('',(0.,0.,60.));
#462=CARTESIAN_POINT('',(0.,2.,60.));
#463=CARTESIAN_POINT('',(0.,2.,60.));
#464=CARTESIAN_POINT('',(0.,0.,59.75));
#465=CARTESIAN_POINT('',(0.,0.,60.));
#466=CARTESIAN_POINT('',(0.,0.,59.75));
#467=CARTESIAN_POINT('',(0.,0.,60.));
#468=MECHANICAL_DESIGN_GEOMETRIC_PRESENTATION_REPRESENTATION('',(#226,#227,
#228,#229,#230,#231,#232,#233,#234,#235,#236,#237,#238,#239,#240,#241,#242,
#243,#244,#245,#246,#247,#248,#249),#469);
#469=(
GEOMETRIC_REPRESENTATION_CONTEXT(3)
GLOBAL_UNCERTAINTY_ASSIGNED_CONTEXT((#470))
GLOBAL_UNIT_ASSIGNED_CONTEXT((#476,#472,#471))
REPRESENTATION_CONTEXT('DLE0500S050P120','TOP_LEVEL_ASSEMBLY_PART')
);
#470=UNCERTAINTY_MEASURE_WITH_UNIT(LENGTH_MEASURE(2.E-5),#476,
'DISTANCE_ACCURACY_VALUE','Maximum Tolerance applied to model');
#471=(
NAMED_UNIT(*)
SI_UNIT($,.STERADIAN.)
SOLID_ANGLE_UNIT()
);
#472=(
CONVERSION_BASED_UNIT('DEGREE',#474)
NAMED_UNIT(#473)
PLANE_ANGLE_UNIT()
);
#473=DIMENSIONAL_EXPONENTS(0.,0.,0.,0.,0.,0.,0.);
#474=PLANE_ANGLE_MEASURE_WITH_UNIT(PLANE_ANGLE_MEASURE(0.0174532925),#475);
#475=(
NAMED_UNIT(*)
PLANE_ANGLE_UNIT()
SI_UNIT($,.RADIAN.)
);
#476=(
LENGTH_UNIT()
NAMED_UNIT(*)
SI_UNIT(.MILLI.,.METRE.)
);
ENDSEC;
END-ISO-10303-21;
