ISO-10303-21;
HEADER;
/* Generated by software containing ST-Developer
 * from STEP Tools, Inc. (www.steptools.com) 
 */
/* OPTION: using custom schema-name function */

FILE_DESCRIPTION(
/* description */ (''),
/* implementation_level */ '2;1');

FILE_NAME(
/* name */ 'MP2MBD1-32.stp',
/* time_stamp */ '2025-03-18T13:19:24+09:00',
/* author */ (''),
/* organization */ (''),
/* preprocessor_version */ 'ST-DEVELOPER v18.101',
/* originating_system */ 'SIEMENS PLM Software NX 2011',
/* authorisation */ '');

FILE_SCHEMA (('AUTOMOTIVE_DESIGN { 1 0 10303 214 3 1 1 1 }'));
ENDSEC;

DATA;
#10=CONSTRUCTIVE_GEOMETRY_REPRESENTATION_RELATIONSHIP(
'supplemental geometry','',#26,#11);
#11=CONSTRUCTIVE_GEOMETRY_REPRESENTATION('supplemental geometry',(#315,
#316,#317,#318,#319,#320,#321,#322,#323,#324),#528);
#12=GEOMETRICALLY_BOUNDED_WIREFRAME_SHAPE_REPRESENTATION(
'MP2MBD1-32-None',(#27),#528);
#13=SHAPE_REPRESENTATION_RELATIONSHIP('None',
'relationship between MP2MBD1-32-None and MP2MBD1-32-None',#26,#15);
#14=SHAPE_REPRESENTATION_RELATIONSHIP('None',
'relationship between MP2MBD1-32-None and MP2MBD1-32-None',#26,#12);
#15=ADVANCED_BREP_SHAPE_REPRESENTATION('MP2MBD1-32-None',(#42,#43),#528);
#16=SHAPE_DEFINITION_REPRESENTATION(#17,#26);
#17=PRODUCT_DEFINITION_SHAPE('','SHAPE FOR MP2MBD1-32_ASM.',#18);
#18=PRODUCT_DEFINITION('part definition','',#20,#19);
#19=PRODUCT_DEFINITION_CONTEXT('part definition',#25,'design');
#20=PRODUCT_DEFINITION_FORMATION_WITH_SPECIFIED_SOURCE(' ',' ',#22,
 .NOT_KNOWN.);
#21=PRODUCT_RELATED_PRODUCT_CATEGORY('part','',(#22));
#22=PRODUCT('MP2MBD1-32_ASM','MP2MBD1-32_ASM','NOT SPECIFIED',(#23));
#23=PRODUCT_CONTEXT('',#25,'mechanical');
#24=APPLICATION_PROTOCOL_DEFINITION('international standard',
'automotive_design',2010,#25);
#25=APPLICATION_CONTEXT(
'core data for automotive mechanical design processes');
#26=SHAPE_REPRESENTATION('MP2MBD1-32-None',(#313),#528);
#27=GEOMETRIC_CURVE_SET('None',(#456,#240,#241,#242,#243));
#28=CONICAL_SURFACE('',#340,1.3375,45.0000624495155);
#29=CONICAL_SURFACE('',#342,1.3375,45.0000624495155);
#30=CONICAL_SURFACE('',#348,0.9921875,15.0000208165052);
#31=CONICAL_SURFACE('',#350,0.9921875,15.0000208165052);
#32=SURFACE_STYLE_USAGE(.BOTH.,#34);
#33=SURFACE_STYLE_USAGE(.BOTH.,#35);
#34=SURFACE_SIDE_STYLE('',(#36));
#35=SURFACE_SIDE_STYLE('',(#37));
#36=SURFACE_STYLE_FILL_AREA(#38);
#37=SURFACE_STYLE_FILL_AREA(#39);
#38=FILL_AREA_STYLE('',(#40));
#39=FILL_AREA_STYLE('',(#41));
#40=FILL_AREA_STYLE_COLOUR('',#311);
#41=FILL_AREA_STYLE_COLOUR('',#312);
#42=MANIFOLD_SOLID_BREP('CUT',#44);
#43=MANIFOLD_SOLID_BREP('NOCUT',#45);
#44=CLOSED_SHELL('',(#55,#56,#57,#58,#59));
#45=CLOSED_SHELL('',(#60,#61,#62,#63,#64,#65,#66,#67,#68,#69));
#46=PLANE('',#334);
#47=PLANE('',#338);
#48=PLANE('',#354);
#49=CYLINDRICAL_SURFACE('',#332,0.396875);
#50=CYLINDRICAL_SURFACE('',#335,0.396875);
#51=CYLINDRICAL_SURFACE('',#344,1.5875);
#52=CYLINDRICAL_SURFACE('',#346,1.5875);
#53=CYLINDRICAL_SURFACE('',#352,0.396875);
#54=CYLINDRICAL_SURFACE('',#355,0.396875);
#55=ADVANCED_FACE('',(#72),#70,.T.);
#56=ADVANCED_FACE('',(#73),#71,.T.);
#57=ADVANCED_FACE('',(#74),#49,.T.);
#58=ADVANCED_FACE('',(#75),#46,.F.);
#59=ADVANCED_FACE('',(#76),#50,.T.);
#60=ADVANCED_FACE('',(#77),#47,.F.);
#61=ADVANCED_FACE('',(#78),#28,.T.);
#62=ADVANCED_FACE('',(#79),#29,.T.);
#63=ADVANCED_FACE('',(#80),#51,.T.);
#64=ADVANCED_FACE('',(#81),#52,.T.);
#65=ADVANCED_FACE('',(#82),#30,.T.);
#66=ADVANCED_FACE('',(#83),#31,.T.);
#67=ADVANCED_FACE('',(#84),#53,.T.);
#68=ADVANCED_FACE('',(#85),#48,.F.);
#69=ADVANCED_FACE('',(#86),#54,.T.);
#70=SPHERICAL_SURFACE('',#328,0.396875);
#71=SPHERICAL_SURFACE('',#330,0.396875);
#72=FACE_OUTER_BOUND('',#87,.T.);
#73=FACE_OUTER_BOUND('',#88,.T.);
#74=FACE_OUTER_BOUND('',#89,.T.);
#75=FACE_OUTER_BOUND('',#90,.T.);
#76=FACE_OUTER_BOUND('',#91,.T.);
#77=FACE_OUTER_BOUND('',#92,.T.);
#78=FACE_OUTER_BOUND('',#93,.T.);
#79=FACE_OUTER_BOUND('',#94,.T.);
#80=FACE_OUTER_BOUND('',#95,.T.);
#81=FACE_OUTER_BOUND('',#96,.T.);
#82=FACE_OUTER_BOUND('',#97,.T.);
#83=FACE_OUTER_BOUND('',#98,.T.);
#84=FACE_OUTER_BOUND('',#99,.T.);
#85=FACE_OUTER_BOUND('',#100,.T.);
#86=FACE_OUTER_BOUND('',#101,.T.);
#87=EDGE_LOOP('',(#102,#103,#104));
#88=EDGE_LOOP('',(#105,#106,#107));
#89=EDGE_LOOP('',(#108,#109,#110,#111));
#90=EDGE_LOOP('',(#112,#113));
#91=EDGE_LOOP('',(#114,#115,#116,#117));
#92=EDGE_LOOP('',(#118,#119));
#93=EDGE_LOOP('',(#120,#121,#122,#123));
#94=EDGE_LOOP('',(#124,#125,#126,#127));
#95=EDGE_LOOP('',(#128,#129,#130,#131));
#96=EDGE_LOOP('',(#132,#133,#134,#135));
#97=EDGE_LOOP('',(#136,#137,#138,#139));
#98=EDGE_LOOP('',(#140,#141,#142,#143));
#99=EDGE_LOOP('',(#144,#145,#146,#147));
#100=EDGE_LOOP('',(#148,#149));
#101=EDGE_LOOP('',(#150,#151,#152,#153));
#102=ORIENTED_EDGE('',*,*,#169,.F.);
#103=ORIENTED_EDGE('',*,*,#170,.F.);
#104=ORIENTED_EDGE('',*,*,#171,.T.);
#105=ORIENTED_EDGE('',*,*,#170,.T.);
#106=ORIENTED_EDGE('',*,*,#172,.F.);
#107=ORIENTED_EDGE('',*,*,#171,.F.);
#108=ORIENTED_EDGE('',*,*,#173,.F.);
#109=ORIENTED_EDGE('',*,*,#172,.T.);
#110=ORIENTED_EDGE('',*,*,#174,.T.);
#111=ORIENTED_EDGE('',*,*,#175,.T.);
#112=ORIENTED_EDGE('',*,*,#175,.F.);
#113=ORIENTED_EDGE('',*,*,#176,.F.);
#114=ORIENTED_EDGE('',*,*,#174,.F.);
#115=ORIENTED_EDGE('',*,*,#169,.T.);
#116=ORIENTED_EDGE('',*,*,#173,.T.);
#117=ORIENTED_EDGE('',*,*,#176,.T.);
#118=ORIENTED_EDGE('',*,*,#177,.F.);
#119=ORIENTED_EDGE('',*,*,#178,.F.);
#120=ORIENTED_EDGE('',*,*,#177,.T.);
#121=ORIENTED_EDGE('',*,*,#179,.F.);
#122=ORIENTED_EDGE('',*,*,#180,.F.);
#123=ORIENTED_EDGE('',*,*,#181,.T.);
#124=ORIENTED_EDGE('',*,*,#182,.F.);
#125=ORIENTED_EDGE('',*,*,#179,.T.);
#126=ORIENTED_EDGE('',*,*,#178,.T.);
#127=ORIENTED_EDGE('',*,*,#181,.F.);
#128=ORIENTED_EDGE('',*,*,#183,.T.);
#129=ORIENTED_EDGE('',*,*,#184,.T.);
#130=ORIENTED_EDGE('',*,*,#182,.T.);
#131=ORIENTED_EDGE('',*,*,#185,.F.);
#132=ORIENTED_EDGE('',*,*,#180,.T.);
#133=ORIENTED_EDGE('',*,*,#184,.F.);
#134=ORIENTED_EDGE('',*,*,#186,.T.);
#135=ORIENTED_EDGE('',*,*,#185,.T.);
#136=ORIENTED_EDGE('',*,*,#186,.F.);
#137=ORIENTED_EDGE('',*,*,#187,.F.);
#138=ORIENTED_EDGE('',*,*,#188,.F.);
#139=ORIENTED_EDGE('',*,*,#189,.T.);
#140=ORIENTED_EDGE('',*,*,#190,.F.);
#141=ORIENTED_EDGE('',*,*,#187,.T.);
#142=ORIENTED_EDGE('',*,*,#183,.F.);
#143=ORIENTED_EDGE('',*,*,#189,.F.);
#144=ORIENTED_EDGE('',*,*,#191,.F.);
#145=ORIENTED_EDGE('',*,*,#190,.T.);
#146=ORIENTED_EDGE('',*,*,#192,.T.);
#147=ORIENTED_EDGE('',*,*,#193,.T.);
#148=ORIENTED_EDGE('',*,*,#193,.F.);
#149=ORIENTED_EDGE('',*,*,#194,.F.);
#150=ORIENTED_EDGE('',*,*,#192,.F.);
#151=ORIENTED_EDGE('',*,*,#188,.T.);
#152=ORIENTED_EDGE('',*,*,#191,.T.);
#153=ORIENTED_EDGE('',*,*,#194,.T.);
#154=VERTEX_POINT('',#472);
#155=VERTEX_POINT('',#473);
#156=VERTEX_POINT('',#475);
#157=VERTEX_POINT('',#481);
#158=VERTEX_POINT('',#483);
#159=VERTEX_POINT('',#490);
#160=VERTEX_POINT('',#491);
#161=VERTEX_POINT('',#495);
#162=VERTEX_POINT('',#497);
#163=VERTEX_POINT('',#503);
#164=VERTEX_POINT('',#504);
#165=VERTEX_POINT('',#511);
#166=VERTEX_POINT('',#513);
#167=VERTEX_POINT('',#519);
#168=VERTEX_POINT('',#521);
#169=EDGE_CURVE('',#154,#155,#196,.T.);
#170=EDGE_CURVE('',#156,#154,#197,.T.);
#171=EDGE_CURVE('',#156,#155,#198,.T.);
#172=EDGE_CURVE('',#155,#154,#199,.T.);
#173=EDGE_CURVE('',#155,#157,#247,.T.);
#174=EDGE_CURVE('',#154,#158,#248,.T.);
#175=EDGE_CURVE('',#158,#157,#200,.T.);
#176=EDGE_CURVE('',#157,#158,#201,.T.);
#177=EDGE_CURVE('',#159,#160,#202,.T.);
#178=EDGE_CURVE('',#160,#159,#203,.T.);
#179=EDGE_CURVE('',#161,#160,#249,.T.);
#180=EDGE_CURVE('',#162,#161,#204,.T.);
#181=EDGE_CURVE('',#162,#159,#250,.T.);
#182=EDGE_CURVE('',#161,#162,#205,.T.);
#183=EDGE_CURVE('',#163,#164,#206,.T.);
#184=EDGE_CURVE('',#164,#161,#251,.T.);
#185=EDGE_CURVE('',#163,#162,#252,.T.);
#186=EDGE_CURVE('',#164,#163,#207,.T.);
#187=EDGE_CURVE('',#165,#164,#253,.T.);
#188=EDGE_CURVE('',#166,#165,#208,.T.);
#189=EDGE_CURVE('',#166,#163,#254,.T.);
#190=EDGE_CURVE('',#165,#166,#209,.T.);
#191=EDGE_CURVE('',#165,#167,#255,.T.);
#192=EDGE_CURVE('',#166,#168,#256,.T.);
#193=EDGE_CURVE('',#168,#167,#210,.T.);
#194=EDGE_CURVE('',#167,#168,#211,.T.);
#195=CIRCLE('',#314,0.396875);
#196=CIRCLE('',#325,0.396875);
#197=CIRCLE('',#326,0.396875);
#198=CIRCLE('',#327,0.396875);
#199=CIRCLE('',#329,0.396875);
#200=CIRCLE('',#331,0.396875);
#201=CIRCLE('',#333,0.396875);
#202=CIRCLE('',#336,1.0875);
#203=CIRCLE('',#337,1.0875);
#204=CIRCLE('',#339,1.5875);
#205=CIRCLE('',#341,1.5875);
#206=CIRCLE('',#343,1.5875);
#207=CIRCLE('',#345,1.5875);
#208=CIRCLE('',#347,0.396875);
#209=CIRCLE('',#349,0.396875);
#210=CIRCLE('',#351,0.396875);
#211=CIRCLE('',#353,0.396875);
#212=CURVE_STYLE('',#226,POSITIVE_LENGTH_MEASURE(0.7),#308);
#213=CURVE_STYLE('',#227,POSITIVE_LENGTH_MEASURE(0.7),#308);
#214=CURVE_STYLE('',#228,POSITIVE_LENGTH_MEASURE(0.7),#308);
#215=CURVE_STYLE('',#229,POSITIVE_LENGTH_MEASURE(0.7),#308);
#216=CURVE_STYLE('',#230,POSITIVE_LENGTH_MEASURE(0.13),#309);
#217=CURVE_STYLE('',#231,POSITIVE_LENGTH_MEASURE(0.13),#309);
#218=CURVE_STYLE('',#232,POSITIVE_LENGTH_MEASURE(0.13),#310);
#219=CURVE_STYLE('',#233,POSITIVE_LENGTH_MEASURE(0.13),#310);
#220=CURVE_STYLE('',#234,POSITIVE_LENGTH_MEASURE(0.13),#309);
#221=CURVE_STYLE('',#235,POSITIVE_LENGTH_MEASURE(0.13),#309);
#222=CURVE_STYLE('',#236,POSITIVE_LENGTH_MEASURE(0.13),#310);
#223=CURVE_STYLE('',#237,POSITIVE_LENGTH_MEASURE(0.13),#309);
#224=CURVE_STYLE('',#238,POSITIVE_LENGTH_MEASURE(0.13),#309);
#225=CURVE_STYLE('',#239,POSITIVE_LENGTH_MEASURE(0.13),#309);
#226=DRAUGHTING_PRE_DEFINED_CURVE_FONT('continuous');
#227=DRAUGHTING_PRE_DEFINED_CURVE_FONT('continuous');
#228=DRAUGHTING_PRE_DEFINED_CURVE_FONT('continuous');
#229=DRAUGHTING_PRE_DEFINED_CURVE_FONT('continuous');
#230=DRAUGHTING_PRE_DEFINED_CURVE_FONT('continuous');
#231=DRAUGHTING_PRE_DEFINED_CURVE_FONT('continuous');
#232=DRAUGHTING_PRE_DEFINED_CURVE_FONT('continuous');
#233=DRAUGHTING_PRE_DEFINED_CURVE_FONT('continuous');
#234=DRAUGHTING_PRE_DEFINED_CURVE_FONT('continuous');
#235=DRAUGHTING_PRE_DEFINED_CURVE_FONT('continuous');
#236=DRAUGHTING_PRE_DEFINED_CURVE_FONT('continuous');
#237=DRAUGHTING_PRE_DEFINED_CURVE_FONT('continuous');
#238=DRAUGHTING_PRE_DEFINED_CURVE_FONT('continuous');
#239=DRAUGHTING_PRE_DEFINED_CURVE_FONT('continuous');
#240=TRIMMED_CURVE('',#244,(PARAMETER_VALUE(0.)),(PARAMETER_VALUE(1.)),
 .T.,.PARAMETER.);
#241=TRIMMED_CURVE('',#245,(PARAMETER_VALUE(0.)),(PARAMETER_VALUE(1.)),
 .T.,.PARAMETER.);
#242=TRIMMED_CURVE('',#246,(PARAMETER_VALUE(0.)),(PARAMETER_VALUE(1.)),
 .T.,.PARAMETER.);
#243=TRIMMED_CURVE('',#195,(PARAMETER_VALUE(0.)),(PARAMETER_VALUE(90.)),
 .T.,.PARAMETER.);
#244=LINE('',#457,#257);
#245=LINE('',#458,#258);
#246=LINE('',#459,#259);
#247=LINE('',#480,#260);
#248=LINE('',#482,#261);
#249=LINE('',#494,#262);
#250=LINE('',#498,#263);
#251=LINE('',#505,#264);
#252=LINE('',#506,#265);
#253=LINE('',#510,#266);
#254=LINE('',#514,#267);
#255=LINE('',#518,#268);
#256=LINE('',#520,#269);
#257=VECTOR('',#358,1.203125);
#258=VECTOR('',#359,0.396875);
#259=VECTOR('',#360,1.6);
#260=VECTOR('',#395,1.);
#261=VECTOR('',#396,1.);
#262=VECTOR('',#413,1.);
#263=VECTOR('',#416,1.);
#264=VECTOR('',#425,1.);
#265=VECTOR('',#426,1.);
#266=VECTOR('',#433,1.);
#267=VECTOR('',#436,1.);
#268=VECTOR('',#443,1.);
#269=VECTOR('',#444,1.);
#270=PRESENTATION_LAYER_ASSIGNMENT('1','Layer 1',(#456,#240,#241,#242,#243,
#315,#316,#319,#320,#321,#322,#323,#324,#42,#43));
#271=PRESENTATION_LAYER_ASSIGNMENT('2','Layer 2',(#317,#318));
#272=STYLED_ITEM('',(#289),#456);
#273=STYLED_ITEM('',(#290),#240);
#274=STYLED_ITEM('',(#291),#241);
#275=STYLED_ITEM('',(#292),#242);
#276=STYLED_ITEM('',(#293),#243);
#277=STYLED_ITEM('',(#294),#315);
#278=STYLED_ITEM('',(#295),#316);
#279=STYLED_ITEM('',(#296),#317);
#280=STYLED_ITEM('',(#297),#318);
#281=STYLED_ITEM('',(#298),#319);
#282=STYLED_ITEM('',(#299),#320);
#283=STYLED_ITEM('',(#300),#321);
#284=STYLED_ITEM('',(#301),#322);
#285=STYLED_ITEM('',(#302),#323);
#286=STYLED_ITEM('',(#303),#324);
#287=STYLED_ITEM('',(#304),#42);
#288=STYLED_ITEM('',(#305),#43);
#289=PRESENTATION_STYLE_ASSIGNMENT((#306));
#290=PRESENTATION_STYLE_ASSIGNMENT((#212));
#291=PRESENTATION_STYLE_ASSIGNMENT((#213));
#292=PRESENTATION_STYLE_ASSIGNMENT((#214));
#293=PRESENTATION_STYLE_ASSIGNMENT((#215));
#294=PRESENTATION_STYLE_ASSIGNMENT((#216));
#295=PRESENTATION_STYLE_ASSIGNMENT((#217));
#296=PRESENTATION_STYLE_ASSIGNMENT((#218));
#297=PRESENTATION_STYLE_ASSIGNMENT((#219));
#298=PRESENTATION_STYLE_ASSIGNMENT((#220));
#299=PRESENTATION_STYLE_ASSIGNMENT((#221));
#300=PRESENTATION_STYLE_ASSIGNMENT((#222));
#301=PRESENTATION_STYLE_ASSIGNMENT((#223));
#302=PRESENTATION_STYLE_ASSIGNMENT((#224));
#303=PRESENTATION_STYLE_ASSIGNMENT((#225));
#304=PRESENTATION_STYLE_ASSIGNMENT((#32));
#305=PRESENTATION_STYLE_ASSIGNMENT((#33));
#306=POINT_STYLE('',#307,POSITIVE_LENGTH_MEASURE(3.),#308);
#307=PRE_DEFINED_POINT_MARKER_SYMBOL('plus');
#308=COLOUR_RGB('Medium Royal',0.301960784313725,0.427450980392157,0.701960784313725);
#309=COLOUR_RGB('Medium Maroon',0.6,0.4,0.4);
#310=COLOUR_RGB('Strong Fuchsia',0.505882352941176,0.254901960784314,0.403921568627451);
#311=COLOUR_RGB('light gray',0.8,0.8,0.8);
#312=COLOUR_RGB('medium gray',0.490196078431373,0.490196078431373,0.490196078431373);
#313=AXIS2_PLACEMENT_3D('',#455,#356,#357);
#314=AXIS2_PLACEMENT_3D('',#460,#361,#362);
#315=AXIS2_PLACEMENT_3D('',#461,#363,#364);
#316=AXIS2_PLACEMENT_3D('',#462,#365,#366);
#317=AXIS2_PLACEMENT_3D('CIP',#463,#367,#368);
#318=AXIS2_PLACEMENT_3D('PCS',#464,#369,#370);
#319=AXIS2_PLACEMENT_3D('MCS',#465,#371,#372);
#320=AXIS2_PLACEMENT_3D('',#466,#373,#374);
#321=AXIS2_PLACEMENT_3D('STEP_TEMP_EM1_1',#467,#375,#376);
#322=AXIS2_PLACEMENT_3D('',#468,#377,#378);
#323=AXIS2_PLACEMENT_3D('',#469,#379,#380);
#324=AXIS2_PLACEMENT_3D('',#470,#381,#382);
#325=AXIS2_PLACEMENT_3D('',#471,#383,#384);
#326=AXIS2_PLACEMENT_3D('',#474,#385,#386);
#327=AXIS2_PLACEMENT_3D('',#476,#387,#388);
#328=AXIS2_PLACEMENT_3D('',#477,#389,#390);
#329=AXIS2_PLACEMENT_3D('',#478,#391,#392);
#330=AXIS2_PLACEMENT_3D('',#479,#393,#394);
#331=AXIS2_PLACEMENT_3D('',#484,#397,#398);
#332=AXIS2_PLACEMENT_3D('',#485,#399,#400);
#333=AXIS2_PLACEMENT_3D('',#486,#401,#402);
#334=AXIS2_PLACEMENT_3D('',#487,#403,#404);
#335=AXIS2_PLACEMENT_3D('',#488,#405,#406);
#336=AXIS2_PLACEMENT_3D('',#489,#407,#408);
#337=AXIS2_PLACEMENT_3D('',#492,#409,#410);
#338=AXIS2_PLACEMENT_3D('',#493,#411,#412);
#339=AXIS2_PLACEMENT_3D('',#496,#414,#415);
#340=AXIS2_PLACEMENT_3D('',#499,#417,#418);
#341=AXIS2_PLACEMENT_3D('',#500,#419,#420);
#342=AXIS2_PLACEMENT_3D('',#501,#421,#422);
#343=AXIS2_PLACEMENT_3D('',#502,#423,#424);
#344=AXIS2_PLACEMENT_3D('',#507,#427,#428);
#345=AXIS2_PLACEMENT_3D('',#508,#429,#430);
#346=AXIS2_PLACEMENT_3D('',#509,#431,#432);
#347=AXIS2_PLACEMENT_3D('',#512,#434,#435);
#348=AXIS2_PLACEMENT_3D('',#515,#437,#438);
#349=AXIS2_PLACEMENT_3D('',#516,#439,#440);
#350=AXIS2_PLACEMENT_3D('',#517,#441,#442);
#351=AXIS2_PLACEMENT_3D('',#522,#445,#446);
#352=AXIS2_PLACEMENT_3D('',#523,#447,#448);
#353=AXIS2_PLACEMENT_3D('',#524,#449,#450);
#354=AXIS2_PLACEMENT_3D('',#525,#451,#452);
#355=AXIS2_PLACEMENT_3D('',#526,#453,#454);
#356=DIRECTION('',(0.,0.,1.));
#357=DIRECTION('',(1.,0.,0.));
#358=DIRECTION('',(0.,0.,1.));
#359=DIRECTION('',(1.,0.,0.));
#360=DIRECTION('',(0.,0.,-1.));
#361=DIRECTION('',(0.,1.,0.));
#362=DIRECTION('',(0.,0.,-1.));
#363=DIRECTION('',(0.,0.,1.));
#364=DIRECTION('',(1.,0.,0.));
#365=DIRECTION('',(0.,0.,1.));
#366=DIRECTION('',(1.,0.,0.));
#367=DIRECTION('',(0.,0.,1.));
#368=DIRECTION('',(1.,0.,0.));
#369=DIRECTION('',(0.,0.,1.));
#370=DIRECTION('',(1.,0.,0.));
#371=DIRECTION('',(0.,0.,1.));
#372=DIRECTION('',(1.,0.,0.));
#373=DIRECTION('',(0.,0.,1.));
#374=DIRECTION('',(1.,0.,0.));
#375=DIRECTION('',(0.,0.,1.));
#376=DIRECTION('',(1.,0.,0.));
#377=DIRECTION('',(0.,0.,1.));
#378=DIRECTION('',(1.,0.,0.));
#379=DIRECTION('',(0.,0.,1.));
#380=DIRECTION('',(1.,0.,0.));
#381=DIRECTION('',(0.,0.,1.));
#382=DIRECTION('',(1.,0.,0.));
#383=DIRECTION('',(0.,0.,1.));
#384=DIRECTION('',(0.,-1.,0.));
#385=DIRECTION('',(-1.,0.,0.));
#386=DIRECTION('',(0.,-1.,0.));
#387=DIRECTION('',(1.,0.,0.));
#388=DIRECTION('',(0.,1.,0.));
#389=DIRECTION('',(0.,-6.12323399573677E-17,-1.));
#390=DIRECTION('',(0.,-1.,0.));
#391=DIRECTION('',(0.,0.,1.));
#392=DIRECTION('',(0.,1.,0.));
#393=DIRECTION('',(0.,-6.12323399573677E-17,-1.));
#394=DIRECTION('',(0.,-1.,0.));
#395=DIRECTION('',(0.,0.,1.));
#396=DIRECTION('',(0.,0.,1.));
#397=DIRECTION('',(0.,0.,-1.));
#398=DIRECTION('',(0.,-1.,0.));
#399=DIRECTION('',(0.,0.,-1.));
#400=DIRECTION('',(0.,-1.,0.));
#401=DIRECTION('',(0.,0.,-1.));
#402=DIRECTION('',(0.,1.,0.));
#403=DIRECTION('',(0.,0.,-1.));
#404=DIRECTION('',(-1.,0.,0.));
#405=DIRECTION('',(0.,0.,-1.));
#406=DIRECTION('',(0.,-1.,0.));
#407=DIRECTION('',(0.,0.,-1.));
#408=DIRECTION('',(0.,1.,0.));
#409=DIRECTION('',(0.,0.,-1.));
#410=DIRECTION('',(0.,-1.,0.));
#411=DIRECTION('',(0.,0.,-1.));
#412=DIRECTION('',(0.,-1.,0.));
#413=DIRECTION('',(0.,0.707106781186597,0.707106781186498));
#414=DIRECTION('',(0.,0.,-1.));
#415=DIRECTION('',(0.,1.,0.));
#416=DIRECTION('',(0.,-0.707106781186597,0.707106781186498));
#417=DIRECTION('',(0.,0.,-1.));
#418=DIRECTION('',(0.,-1.,4.85072731084809E-17));
#419=DIRECTION('',(0.,0.,-1.));
#420=DIRECTION('',(0.,-1.,0.));
#421=DIRECTION('',(0.,0.,-1.));
#422=DIRECTION('',(0.,-1.,4.85072731084809E-17));
#423=DIRECTION('',(0.,0.,1.));
#424=DIRECTION('',(0.,1.,0.));
#425=DIRECTION('',(0.,0.,1.));
#426=DIRECTION('',(0.,0.,1.));
#427=DIRECTION('',(0.,0.,-1.));
#428=DIRECTION('',(0.,-1.,0.));
#429=DIRECTION('',(0.,0.,1.));
#430=DIRECTION('',(0.,-1.,0.));
#431=DIRECTION('',(0.,0.,-1.));
#432=DIRECTION('',(0.,-1.,0.));
#433=DIRECTION('',(0.,-0.258819045102493,0.965925826289076));
#434=DIRECTION('',(0.,0.,-1.));
#435=DIRECTION('',(0.,1.,0.));
#436=DIRECTION('',(0.,0.258819045102493,0.965925826289076));
#437=DIRECTION('',(0.,0.,1.));
#438=DIRECTION('',(0.,1.,8.70774628418499E-17));
#439=DIRECTION('',(0.,0.,-1.));
#440=DIRECTION('',(0.,-1.,0.));
#441=DIRECTION('',(0.,0.,1.));
#442=DIRECTION('',(0.,1.,8.70774628418499E-17));
#443=DIRECTION('',(0.,-4.274358644807E-14,-1.));
#444=DIRECTION('',(0.,4.274358644807E-14,-1.));
#445=DIRECTION('',(0.,0.,1.));
#446=DIRECTION('',(0.,1.,0.));
#447=DIRECTION('',(0.,0.,-1.));
#448=DIRECTION('',(0.,-1.,0.));
#449=DIRECTION('',(0.,0.,1.));
#450=DIRECTION('',(0.,-1.,0.));
#451=DIRECTION('',(0.,0.,1.));
#452=DIRECTION('',(1.,0.,0.));
#453=DIRECTION('',(0.,0.,-1.));
#454=DIRECTION('',(0.,-1.,0.));
#455=CARTESIAN_POINT('',(0.,0.,0.));
#456=CARTESIAN_POINT('CRP',(-0.396875,0.,0.));
#457=CARTESIAN_POINT('',(-0.396875,0.,0.396875));
#458=CARTESIAN_POINT('',(-0.396875,0.,1.6));
#459=CARTESIAN_POINT('',(0.,0.,1.6));
#460=CARTESIAN_POINT('',(0.,0.,0.396875));
#461=CARTESIAN_POINT('',(0.,0.,0.));
#462=CARTESIAN_POINT('',(0.,0.,0.));
#463=CARTESIAN_POINT('',(0.,0.,0.));
#464=CARTESIAN_POINT('',(0.,0.,38.1));
#465=CARTESIAN_POINT('',(0.,0.,19.05));
#466=CARTESIAN_POINT('',(0.,0.,0.));
#467=CARTESIAN_POINT('',(0.,0.,0.));
#468=CARTESIAN_POINT('',(0.,0.,0.));
#469=CARTESIAN_POINT('',(0.,0.,0.));
#470=CARTESIAN_POINT('',(0.,0.,0.));
#471=CARTESIAN_POINT('',(0.,0.,0.396875));
#472=CARTESIAN_POINT('',(0.,-0.396875,0.396875));
#473=CARTESIAN_POINT('',(0.,0.396875,0.396875));
#474=CARTESIAN_POINT('',(0.,0.,0.396875));
#475=CARTESIAN_POINT('',(0.,0.,0.));
#476=CARTESIAN_POINT('',(0.,0.,0.396875));
#477=CARTESIAN_POINT('',(0.,0.,0.396875));
#478=CARTESIAN_POINT('',(0.,0.,0.396875));
#479=CARTESIAN_POINT('',(0.,0.,0.396875));
#480=CARTESIAN_POINT('',(0.,0.396875,1.6));
#481=CARTESIAN_POINT('',(0.,0.396875,1.6));
#482=CARTESIAN_POINT('',(0.,-0.396875,1.6));
#483=CARTESIAN_POINT('',(0.,-0.396875,1.6));
#484=CARTESIAN_POINT('',(0.,0.,1.6));
#485=CARTESIAN_POINT('',(0.,0.,40.005));
#486=CARTESIAN_POINT('',(0.,0.,1.6));
#487=CARTESIAN_POINT('',(150.,150.,1.6));
#488=CARTESIAN_POINT('',(0.,0.,40.005));
#489=CARTESIAN_POINT('',(0.,0.,38.1));
#490=CARTESIAN_POINT('',(0.,1.0875,38.1));
#491=CARTESIAN_POINT('',(0.,-1.0875,38.1));
#492=CARTESIAN_POINT('',(0.,0.,38.1));
#493=CARTESIAN_POINT('',(0.,0.,38.1));
#494=CARTESIAN_POINT('',(0.,-1.0875,38.1));
#495=CARTESIAN_POINT('',(0.,-1.5875,37.6));
#496=CARTESIAN_POINT('',(0.,0.,37.6));
#497=CARTESIAN_POINT('',(0.,1.5875,37.6));
#498=CARTESIAN_POINT('',(0.,1.0875,38.1));
#499=CARTESIAN_POINT('',(0.,0.,37.85));
#500=CARTESIAN_POINT('',(0.,0.,37.6));
#501=CARTESIAN_POINT('',(0.,0.,37.85));
#502=CARTESIAN_POINT('',(0.,0.,6.443472992762));
#503=CARTESIAN_POINT('',(0.,1.5875,6.443472992762));
#504=CARTESIAN_POINT('',(0.,-1.5875,6.443472992762));
#505=CARTESIAN_POINT('',(0.,-1.5875,37.6));
#506=CARTESIAN_POINT('',(0.,1.5875,37.6));
#507=CARTESIAN_POINT('',(0.,0.,40.005));
#508=CARTESIAN_POINT('',(0.,0.,6.443472992762));
#509=CARTESIAN_POINT('',(0.,0.,40.005));
#510=CARTESIAN_POINT('',(0.,-1.5875,6.443472992762));
#511=CARTESIAN_POINT('',(0.,-0.396875,2.));
#512=CARTESIAN_POINT('',(0.,0.,2.));
#513=CARTESIAN_POINT('',(0.,0.396875,2.));
#514=CARTESIAN_POINT('',(0.,1.5875,6.443472992762));
#515=CARTESIAN_POINT('',(0.,0.,4.221736496381));
#516=CARTESIAN_POINT('',(0.,0.,2.));
#517=CARTESIAN_POINT('',(0.,0.,4.221736496381));
#518=CARTESIAN_POINT('',(0.,-0.396875,2.));
#519=CARTESIAN_POINT('',(0.,-0.396875,1.6));
#520=CARTESIAN_POINT('',(0.,0.396875,2.));
#521=CARTESIAN_POINT('',(0.,0.396875,1.6));
#522=CARTESIAN_POINT('',(0.,0.,1.6));
#523=CARTESIAN_POINT('',(0.,0.,40.005));
#524=CARTESIAN_POINT('',(0.,0.,1.6));
#525=CARTESIAN_POINT('',(-150.,150.,1.6));
#526=CARTESIAN_POINT('',(0.,0.,40.005));
#527=MECHANICAL_DESIGN_GEOMETRIC_PRESENTATION_REPRESENTATION('',(#272,#273,
#274,#275,#276,#277,#278,#279,#280,#281,#282,#283,#284,#285,#286,#287,#288),
#528);
#528=(
GEOMETRIC_REPRESENTATION_CONTEXT(3)
GLOBAL_UNCERTAINTY_ASSIGNED_CONTEXT((#529))
GLOBAL_UNIT_ASSIGNED_CONTEXT((#535,#531,#530))
REPRESENTATION_CONTEXT('MP2MBD1-32','TOP_LEVEL_ASSEMBLY_PART')
);
#529=UNCERTAINTY_MEASURE_WITH_UNIT(LENGTH_MEASURE(0.001),#535,
'DISTANCE_ACCURACY_VALUE','Maximum Tolerance applied to model');
#530=(
NAMED_UNIT(*)
SI_UNIT($,.STERADIAN.)
SOLID_ANGLE_UNIT()
);
#531=(
CONVERSION_BASED_UNIT('DEGREE',#533)
NAMED_UNIT(#532)
PLANE_ANGLE_UNIT()
);
#532=DIMENSIONAL_EXPONENTS(0.,0.,0.,0.,0.,0.,0.);
#533=PLANE_ANGLE_MEASURE_WITH_UNIT(PLANE_ANGLE_MEASURE(0.0174532925),#534);
#534=(
NAMED_UNIT(*)
PLANE_ANGLE_UNIT()
SI_UNIT($,.RADIAN.)
);
#535=(
LENGTH_UNIT()
NAMED_UNIT(*)
SI_UNIT(.MILLI.,.METRE.)
);
ENDSEC;
END-ISO-10303-21;
