ISO-10303-21;
HEADER;
/* Generated by software containing ST-Developer
 * from STEP Tools, Inc. (www.steptools.com) 
 */
/* OPTION: using custom schema-name function */

FILE_DESCRIPTION(
/* description */ (''),
/* implementation_level */ '2;1');

FILE_NAME(
/* name */ 'DLE1000S100P145.stp',
/* time_stamp */ '2021-04-15T11:08:50+09:00',
/* author */ (''),
/* organization */ (''),
/* preprocessor_version */ 'ST-DEVELOPER v16',
/* originating_system */ 'SIEMENS PLM Software NX 10.0',
/* authorisation */ '');

FILE_SCHEMA (('AUTOMOTIVE_DESIGN { 1 0 10303 214 3 1 1 1 }'));
ENDSEC;

DATA;
#10=CONSTRUCTIVE_GEOMETRY_REPRESENTATION_RELATIONSHIP(
'supplemental geometry','',#26,#11);
#11=CONSTRUCTIVE_GEOMETRY_REPRESENTATION('supplemental geometry',(#319,
#320,#321,#322,#323,#324,#325,#326,#327,#328,#329,#330,#331),#521);
#12=GEOMETRICALLY_BOUNDED_WIREFRAME_SHAPE_REPRESENTATION(
'DLE1000S100P145-None',(#27),#521);
#13=SHAPE_REPRESENTATION_RELATIONSHIP('None',
'relationship between DLE1000S100P145-None and DLE1000S100P145-None',#26,
#15);
#14=SHAPE_REPRESENTATION_RELATIONSHIP('None',
'relationship between DLE1000S100P145-None and DLE1000S100P145-None',#26,
#12);
#15=ADVANCED_BREP_SHAPE_REPRESENTATION('DLE1000S100P145-None',(#40,#41),
#521);
#16=SHAPE_DEFINITION_REPRESENTATION(#17,#26);
#17=PRODUCT_DEFINITION_SHAPE('','SHAPE FOR DLE1000S100P145_ASM.',#18);
#18=PRODUCT_DEFINITION('part definition','',#20,#19);
#19=PRODUCT_DEFINITION_CONTEXT('part definition',#25,'design');
#20=PRODUCT_DEFINITION_FORMATION_WITH_SPECIFIED_SOURCE(' ',' ',#22,
 .NOT_KNOWN.);
#21=PRODUCT_RELATED_PRODUCT_CATEGORY('part','',(#22));
#22=PRODUCT('DLE1000S100P145_ASM','DLE1000S100P145_ASM','NOT SPECIFIED',
(#23));
#23=PRODUCT_CONTEXT('',#25,'mechanical');
#24=APPLICATION_PROTOCOL_DEFINITION('international standard',
'automotive_design',2010,#25);
#25=APPLICATION_CONTEXT(
'core data for automotive mechanical design processes');
#26=SHAPE_REPRESENTATION('DLE1000S100P145-None',(#318),#521);
#27=GEOMETRIC_CURVE_SET('None',(#450,#451,#452,#453,#454,#220,#221,#222,
#223));
#28=CYLINDRICAL_SURFACE('',#343,5.);
#29=CYLINDRICAL_SURFACE('',#346,5.);
#30=SURFACE_STYLE_USAGE(.BOTH.,#32);
#31=SURFACE_STYLE_USAGE(.BOTH.,#33);
#32=SURFACE_SIDE_STYLE('',(#34));
#33=SURFACE_SIDE_STYLE('',(#35));
#34=SURFACE_STYLE_FILL_AREA(#36);
#35=SURFACE_STYLE_FILL_AREA(#37);
#36=FILL_AREA_STYLE('',(#38));
#37=FILL_AREA_STYLE('',(#39));
#38=FILL_AREA_STYLE_COLOUR('',#316);
#39=FILL_AREA_STYLE_COLOUR('',#317);
#40=MANIFOLD_SOLID_BREP('CUT',#42);
#41=MANIFOLD_SOLID_BREP('NOCUT',#43);
#42=CLOSED_SHELL('',(#47,#48,#49,#50,#51));
#43=CLOSED_SHELL('',(#52,#53,#54,#55,#56,#57,#58,#59));
#44=PLANE('',#339);
#45=PLANE('',#351);
#46=PLANE('',#355);
#47=ADVANCED_FACE('',(#68),#60,.T.);
#48=ADVANCED_FACE('',(#69),#61,.T.);
#49=ADVANCED_FACE('',(#70),#62,.T.);
#50=ADVANCED_FACE('',(#71),#44,.F.);
#51=ADVANCED_FACE('',(#72),#63,.T.);
#52=ADVANCED_FACE('',(#73),#28,.T.);
#53=ADVANCED_FACE('',(#74),#29,.T.);
#54=ADVANCED_FACE('',(#75),#64,.T.);
#55=ADVANCED_FACE('',(#76),#65,.T.);
#56=ADVANCED_FACE('',(#77),#45,.F.);
#57=ADVANCED_FACE('',(#78),#66,.T.);
#58=ADVANCED_FACE('',(#79),#46,.F.);
#59=ADVANCED_FACE('',(#80),#67,.T.);
#60=CONICAL_SURFACE('',#333,0.6375,71.52533891395);
#61=CONICAL_SURFACE('',#335,0.6375,71.52533891395);
#62=CONICAL_SURFACE('',#337,2.807840519764,72.5);
#63=CONICAL_SURFACE('',#340,2.807840519764,72.5);
#64=CONICAL_SURFACE('',#348,4.85,45.);
#65=CONICAL_SURFACE('',#350,4.85,45.);
#66=CONICAL_SURFACE('',#353,4.682840519764,72.5);
#67=CONICAL_SURFACE('',#356,4.682840519764,72.5);
#68=FACE_OUTER_BOUND('',#81,.T.);
#69=FACE_OUTER_BOUND('',#82,.T.);
#70=FACE_OUTER_BOUND('',#83,.T.);
#71=FACE_OUTER_BOUND('',#84,.T.);
#72=FACE_OUTER_BOUND('',#85,.T.);
#73=FACE_OUTER_BOUND('',#86,.T.);
#74=FACE_OUTER_BOUND('',#87,.T.);
#75=FACE_OUTER_BOUND('',#88,.T.);
#76=FACE_OUTER_BOUND('',#89,.T.);
#77=FACE_OUTER_BOUND('',#90,.T.);
#78=FACE_OUTER_BOUND('',#91,.T.);
#79=FACE_OUTER_BOUND('',#92,.T.);
#80=FACE_OUTER_BOUND('',#93,.T.);
#81=EDGE_LOOP('',(#94,#95,#96));
#82=EDGE_LOOP('',(#97,#98,#99));
#83=EDGE_LOOP('',(#100,#101,#102,#103));
#84=EDGE_LOOP('',(#104,#105));
#85=EDGE_LOOP('',(#106,#107,#108,#109));
#86=EDGE_LOOP('',(#110,#111,#112,#113));
#87=EDGE_LOOP('',(#114,#115,#116,#117));
#88=EDGE_LOOP('',(#118,#119,#120,#121));
#89=EDGE_LOOP('',(#122,#123,#124,#125));
#90=EDGE_LOOP('',(#126,#127));
#91=EDGE_LOOP('',(#128,#129,#130,#131));
#92=EDGE_LOOP('',(#132,#133));
#93=EDGE_LOOP('',(#134,#135,#136,#137));
#94=ORIENTED_EDGE('',*,*,#151,.F.);
#95=ORIENTED_EDGE('',*,*,#152,.T.);
#96=ORIENTED_EDGE('',*,*,#153,.F.);
#97=ORIENTED_EDGE('',*,*,#152,.F.);
#98=ORIENTED_EDGE('',*,*,#154,.T.);
#99=ORIENTED_EDGE('',*,*,#153,.T.);
#100=ORIENTED_EDGE('',*,*,#155,.F.);
#101=ORIENTED_EDGE('',*,*,#154,.F.);
#102=ORIENTED_EDGE('',*,*,#156,.T.);
#103=ORIENTED_EDGE('',*,*,#157,.T.);
#104=ORIENTED_EDGE('',*,*,#157,.F.);
#105=ORIENTED_EDGE('',*,*,#158,.F.);
#106=ORIENTED_EDGE('',*,*,#156,.F.);
#107=ORIENTED_EDGE('',*,*,#151,.T.);
#108=ORIENTED_EDGE('',*,*,#155,.T.);
#109=ORIENTED_EDGE('',*,*,#158,.T.);
#110=ORIENTED_EDGE('',*,*,#159,.T.);
#111=ORIENTED_EDGE('',*,*,#160,.T.);
#112=ORIENTED_EDGE('',*,*,#161,.T.);
#113=ORIENTED_EDGE('',*,*,#162,.F.);
#114=ORIENTED_EDGE('',*,*,#163,.T.);
#115=ORIENTED_EDGE('',*,*,#160,.F.);
#116=ORIENTED_EDGE('',*,*,#164,.T.);
#117=ORIENTED_EDGE('',*,*,#162,.T.);
#118=ORIENTED_EDGE('',*,*,#164,.F.);
#119=ORIENTED_EDGE('',*,*,#165,.T.);
#120=ORIENTED_EDGE('',*,*,#166,.T.);
#121=ORIENTED_EDGE('',*,*,#167,.F.);
#122=ORIENTED_EDGE('',*,*,#168,.T.);
#123=ORIENTED_EDGE('',*,*,#165,.F.);
#124=ORIENTED_EDGE('',*,*,#159,.F.);
#125=ORIENTED_EDGE('',*,*,#167,.T.);
#126=ORIENTED_EDGE('',*,*,#168,.F.);
#127=ORIENTED_EDGE('',*,*,#166,.F.);
#128=ORIENTED_EDGE('',*,*,#169,.T.);
#129=ORIENTED_EDGE('',*,*,#163,.F.);
#130=ORIENTED_EDGE('',*,*,#170,.F.);
#131=ORIENTED_EDGE('',*,*,#171,.T.);
#132=ORIENTED_EDGE('',*,*,#171,.F.);
#133=ORIENTED_EDGE('',*,*,#172,.F.);
#134=ORIENTED_EDGE('',*,*,#170,.T.);
#135=ORIENTED_EDGE('',*,*,#161,.F.);
#136=ORIENTED_EDGE('',*,*,#169,.F.);
#137=ORIENTED_EDGE('',*,*,#172,.T.);
#138=VERTEX_POINT('',#473);
#139=VERTEX_POINT('',#474);
#140=VERTEX_POINT('',#476);
#141=VERTEX_POINT('',#482);
#142=VERTEX_POINT('',#484);
#143=VERTEX_POINT('',#491);
#144=VERTEX_POINT('',#492);
#145=VERTEX_POINT('',#494);
#146=VERTEX_POINT('',#496);
#147=VERTEX_POINT('',#503);
#148=VERTEX_POINT('',#505);
#149=VERTEX_POINT('',#512);
#150=VERTEX_POINT('',#514);
#151=EDGE_CURVE('',#138,#139,#173,.T.);
#152=EDGE_CURVE('',#138,#140,#228,.T.);
#153=EDGE_CURVE('',#139,#140,#229,.T.);
#154=EDGE_CURVE('',#138,#139,#174,.T.);
#155=EDGE_CURVE('',#139,#141,#230,.T.);
#156=EDGE_CURVE('',#138,#142,#231,.T.);
#157=EDGE_CURVE('',#142,#141,#175,.T.);
#158=EDGE_CURVE('',#141,#142,#176,.T.);
#159=EDGE_CURVE('',#143,#144,#177,.T.);
#160=EDGE_CURVE('',#144,#145,#232,.T.);
#161=EDGE_CURVE('',#145,#146,#178,.T.);
#162=EDGE_CURVE('',#143,#146,#233,.T.);
#163=EDGE_CURVE('',#146,#145,#179,.T.);
#164=EDGE_CURVE('',#144,#143,#180,.T.);
#165=EDGE_CURVE('',#144,#147,#234,.T.);
#166=EDGE_CURVE('',#147,#148,#181,.T.);
#167=EDGE_CURVE('',#143,#148,#235,.T.);
#168=EDGE_CURVE('',#148,#147,#182,.T.);
#169=EDGE_CURVE('',#149,#145,#236,.T.);
#170=EDGE_CURVE('',#150,#146,#237,.T.);
#171=EDGE_CURVE('',#150,#149,#183,.T.);
#172=EDGE_CURVE('',#149,#150,#184,.T.);
#173=CIRCLE('',#332,1.25);
#174=CIRCLE('',#334,1.25);
#175=CIRCLE('',#336,4.365681039527);
#176=CIRCLE('',#338,4.365681039527);
#177=CIRCLE('',#341,5.);
#178=CIRCLE('',#342,5.);
#179=CIRCLE('',#344,5.);
#180=CIRCLE('',#345,5.);
#181=CIRCLE('',#347,4.7);
#182=CIRCLE('',#349,4.7);
#183=CIRCLE('',#352,4.365681039527);
#184=CIRCLE('',#354,4.365681039527);
#185=CURVE_STYLE('',#203,POSITIVE_LENGTH_MEASURE(0.18),#202);
#186=CURVE_STYLE('',#204,POSITIVE_LENGTH_MEASURE(0.18),#202);
#187=CURVE_STYLE('',#205,POSITIVE_LENGTH_MEASURE(0.18),#202);
#188=CURVE_STYLE('',#206,POSITIVE_LENGTH_MEASURE(0.18),#202);
#189=CURVE_STYLE('',#207,POSITIVE_LENGTH_MEASURE(0.13),#315);
#190=CURVE_STYLE('',#208,POSITIVE_LENGTH_MEASURE(0.13),#315);
#191=CURVE_STYLE('',#209,POSITIVE_LENGTH_MEASURE(0.13),#315);
#192=CURVE_STYLE('',#210,POSITIVE_LENGTH_MEASURE(0.13),#314);
#193=CURVE_STYLE('',#211,POSITIVE_LENGTH_MEASURE(0.13),#314);
#194=CURVE_STYLE('',#212,POSITIVE_LENGTH_MEASURE(0.18),#315);
#195=CURVE_STYLE('',#213,POSITIVE_LENGTH_MEASURE(0.13),#314);
#196=CURVE_STYLE('',#214,POSITIVE_LENGTH_MEASURE(0.13),#315);
#197=CURVE_STYLE('',#215,POSITIVE_LENGTH_MEASURE(0.13),#315);
#198=CURVE_STYLE('',#216,POSITIVE_LENGTH_MEASURE(0.13),#315);
#199=CURVE_STYLE('',#217,POSITIVE_LENGTH_MEASURE(0.13),#314);
#200=CURVE_STYLE('',#218,POSITIVE_LENGTH_MEASURE(0.13),#315);
#201=CURVE_STYLE('',#219,POSITIVE_LENGTH_MEASURE(0.13),#315);
#202=DRAUGHTING_PRE_DEFINED_COLOUR('blue');
#203=DRAUGHTING_PRE_DEFINED_CURVE_FONT('continuous');
#204=DRAUGHTING_PRE_DEFINED_CURVE_FONT('continuous');
#205=DRAUGHTING_PRE_DEFINED_CURVE_FONT('continuous');
#206=DRAUGHTING_PRE_DEFINED_CURVE_FONT('continuous');
#207=DRAUGHTING_PRE_DEFINED_CURVE_FONT('continuous');
#208=DRAUGHTING_PRE_DEFINED_CURVE_FONT('continuous');
#209=DRAUGHTING_PRE_DEFINED_CURVE_FONT('continuous');
#210=DRAUGHTING_PRE_DEFINED_CURVE_FONT('continuous');
#211=DRAUGHTING_PRE_DEFINED_CURVE_FONT('continuous');
#212=DRAUGHTING_PRE_DEFINED_CURVE_FONT('continuous');
#213=DRAUGHTING_PRE_DEFINED_CURVE_FONT('continuous');
#214=DRAUGHTING_PRE_DEFINED_CURVE_FONT('continuous');
#215=DRAUGHTING_PRE_DEFINED_CURVE_FONT('continuous');
#216=DRAUGHTING_PRE_DEFINED_CURVE_FONT('continuous');
#217=DRAUGHTING_PRE_DEFINED_CURVE_FONT('continuous');
#218=DRAUGHTING_PRE_DEFINED_CURVE_FONT('continuous');
#219=DRAUGHTING_PRE_DEFINED_CURVE_FONT('continuous');
#220=TRIMMED_CURVE('',#224,(PARAMETER_VALUE(0.)),(PARAMETER_VALUE(1.)),
 .T.,.PARAMETER.);
#221=TRIMMED_CURVE('',#225,(PARAMETER_VALUE(0.)),(PARAMETER_VALUE(1.)),
 .T.,.PARAMETER.);
#222=TRIMMED_CURVE('',#226,(PARAMETER_VALUE(0.)),(PARAMETER_VALUE(1.)),
 .T.,.PARAMETER.);
#223=TRIMMED_CURVE('',#227,(PARAMETER_VALUE(0.)),(PARAMETER_VALUE(1.)),
 .T.,.PARAMETER.);
#224=LINE('',#455,#238);
#225=LINE('',#456,#239);
#226=LINE('',#457,#240);
#227=LINE('',#458,#241);
#228=LINE('',#475,#242);
#229=LINE('',#477,#243);
#230=LINE('',#481,#244);
#231=LINE('',#483,#245);
#232=LINE('',#493,#246);
#233=LINE('',#497,#247);
#234=LINE('',#502,#248);
#235=LINE('',#506,#249);
#236=LINE('',#511,#250);
#237=LINE('',#513,#251);
#238=VECTOR('',#359,1.31792049612394);
#239=VECTOR('',#360,3.26688231459294);
#240=VECTOR('',#361,4.365681039527);
#241=VECTOR('',#362,1.4);
#242=VECTOR('',#391,1.);
#243=VECTOR('',#392,1.);
#244=VECTOR('',#399,1.);
#245=VECTOR('',#400,1.);
#246=VECTOR('',#413,1.);
#247=VECTOR('',#416,1.);
#248=VECTOR('',#425,1.);
#249=VECTOR('',#428,1.);
#250=VECTOR('',#437,1.);
#251=VECTOR('',#438,1.);
#252=PRESENTATION_LAYER_ASSIGNMENT('2','Layer 2',(#450,#451,#453,#322,#323,
#325));
#253=PRESENTATION_LAYER_ASSIGNMENT('3','Layer 3',(#452,#324));
#254=PRESENTATION_LAYER_ASSIGNMENT('1','Layer 1',(#454,#319,#320,#321,#326,
#327,#328,#329,#330,#331,#40,#41));
#255=PRESENTATION_LAYER_ASSIGNMENT('4','Layer 4',(#220,#221,#222,#223));
#256=STYLED_ITEM('',(#280),#450);
#257=STYLED_ITEM('',(#281),#451);
#258=STYLED_ITEM('',(#282),#452);
#259=STYLED_ITEM('',(#283),#453);
#260=STYLED_ITEM('',(#284),#454);
#261=STYLED_ITEM('',(#285),#220);
#262=STYLED_ITEM('',(#286),#221);
#263=STYLED_ITEM('',(#287),#222);
#264=STYLED_ITEM('',(#288),#223);
#265=STYLED_ITEM('',(#289),#319);
#266=STYLED_ITEM('',(#290),#320);
#267=STYLED_ITEM('',(#291),#321);
#268=STYLED_ITEM('',(#292),#322);
#269=STYLED_ITEM('',(#293),#323);
#270=STYLED_ITEM('',(#294),#324);
#271=STYLED_ITEM('',(#295),#325);
#272=STYLED_ITEM('',(#296),#326);
#273=STYLED_ITEM('',(#297),#327);
#274=STYLED_ITEM('',(#298),#328);
#275=STYLED_ITEM('',(#299),#329);
#276=STYLED_ITEM('',(#300),#330);
#277=STYLED_ITEM('',(#301),#331);
#278=STYLED_ITEM('',(#302),#40);
#279=STYLED_ITEM('',(#303),#41);
#280=PRESENTATION_STYLE_ASSIGNMENT((#304));
#281=PRESENTATION_STYLE_ASSIGNMENT((#305));
#282=PRESENTATION_STYLE_ASSIGNMENT((#306));
#283=PRESENTATION_STYLE_ASSIGNMENT((#307));
#284=PRESENTATION_STYLE_ASSIGNMENT((#308));
#285=PRESENTATION_STYLE_ASSIGNMENT((#185));
#286=PRESENTATION_STYLE_ASSIGNMENT((#186));
#287=PRESENTATION_STYLE_ASSIGNMENT((#187));
#288=PRESENTATION_STYLE_ASSIGNMENT((#188));
#289=PRESENTATION_STYLE_ASSIGNMENT((#189));
#290=PRESENTATION_STYLE_ASSIGNMENT((#190));
#291=PRESENTATION_STYLE_ASSIGNMENT((#191));
#292=PRESENTATION_STYLE_ASSIGNMENT((#192));
#293=PRESENTATION_STYLE_ASSIGNMENT((#193));
#294=PRESENTATION_STYLE_ASSIGNMENT((#194));
#295=PRESENTATION_STYLE_ASSIGNMENT((#195));
#296=PRESENTATION_STYLE_ASSIGNMENT((#196));
#297=PRESENTATION_STYLE_ASSIGNMENT((#197));
#298=PRESENTATION_STYLE_ASSIGNMENT((#198));
#299=PRESENTATION_STYLE_ASSIGNMENT((#199));
#300=PRESENTATION_STYLE_ASSIGNMENT((#200));
#301=PRESENTATION_STYLE_ASSIGNMENT((#201));
#302=PRESENTATION_STYLE_ASSIGNMENT((#30));
#303=PRESENTATION_STYLE_ASSIGNMENT((#31));
#304=POINT_STYLE('',#309,POSITIVE_LENGTH_MEASURE(3.),#314);
#305=POINT_STYLE('',#310,POSITIVE_LENGTH_MEASURE(3.),#314);
#306=POINT_STYLE('',#311,POSITIVE_LENGTH_MEASURE(3.),#315);
#307=POINT_STYLE('',#312,POSITIVE_LENGTH_MEASURE(3.),#314);
#308=POINT_STYLE('',#313,POSITIVE_LENGTH_MEASURE(3.),#314);
#309=PRE_DEFINED_POINT_MARKER_SYMBOL('plus');
#310=PRE_DEFINED_POINT_MARKER_SYMBOL('plus');
#311=PRE_DEFINED_POINT_MARKER_SYMBOL('plus');
#312=PRE_DEFINED_POINT_MARKER_SYMBOL('plus');
#313=PRE_DEFINED_POINT_MARKER_SYMBOL('plus');
#314=COLOUR_RGB('Medium Umber',0.372533760585946,0.313725490196078,0.270572976272221);
#315=COLOUR_RGB('Strong Stone',0.576470588235294,0.54508278019379,0.392156862745098);
#316=COLOUR_RGB('Light Gray',0.8,0.8,0.8);
#317=COLOUR_RGB('non-cutting part and shank',0.501960784313725,0.501960784313725,
0.501960784313725);
#318=AXIS2_PLACEMENT_3D('',#449,#357,#358);
#319=AXIS2_PLACEMENT_3D('',#459,#363,#364);
#320=AXIS2_PLACEMENT_3D('',#460,#365,#366);
#321=AXIS2_PLACEMENT_3D('',#461,#367,#368);
#322=AXIS2_PLACEMENT_3D('CIP',#462,#369,#370);
#323=AXIS2_PLACEMENT_3D('PCS',#463,#371,#372);
#324=AXIS2_PLACEMENT_3D('MCS',#464,#373,#374);
#325=AXIS2_PLACEMENT_3D('STEP_TEMP_4_1',#465,#375,#376);
#326=AXIS2_PLACEMENT_3D('',#466,#377,#378);
#327=AXIS2_PLACEMENT_3D('',#467,#379,#380);
#328=AXIS2_PLACEMENT_3D('',#468,#381,#382);
#329=AXIS2_PLACEMENT_3D('STEP_TEMP_4_2',#469,#383,#384);
#330=AXIS2_PLACEMENT_3D('',#470,#385,#386);
#331=AXIS2_PLACEMENT_3D('',#471,#387,#388);
#332=AXIS2_PLACEMENT_3D('',#472,#389,#390);
#333=AXIS2_PLACEMENT_3D('',#478,#393,#394);
#334=AXIS2_PLACEMENT_3D('',#479,#395,#396);
#335=AXIS2_PLACEMENT_3D('',#480,#397,#398);
#336=AXIS2_PLACEMENT_3D('',#485,#401,#402);
#337=AXIS2_PLACEMENT_3D('',#486,#403,#404);
#338=AXIS2_PLACEMENT_3D('',#487,#405,#406);
#339=AXIS2_PLACEMENT_3D('',#488,#407,#408);
#340=AXIS2_PLACEMENT_3D('',#489,#409,#410);
#341=AXIS2_PLACEMENT_3D('',#490,#411,#412);
#342=AXIS2_PLACEMENT_3D('',#495,#414,#415);
#343=AXIS2_PLACEMENT_3D('',#498,#417,#418);
#344=AXIS2_PLACEMENT_3D('',#499,#419,#420);
#345=AXIS2_PLACEMENT_3D('',#500,#421,#422);
#346=AXIS2_PLACEMENT_3D('',#501,#423,#424);
#347=AXIS2_PLACEMENT_3D('',#504,#426,#427);
#348=AXIS2_PLACEMENT_3D('',#507,#429,#430);
#349=AXIS2_PLACEMENT_3D('',#508,#431,#432);
#350=AXIS2_PLACEMENT_3D('',#509,#433,#434);
#351=AXIS2_PLACEMENT_3D('',#510,#435,#436);
#352=AXIS2_PLACEMENT_3D('',#515,#439,#440);
#353=AXIS2_PLACEMENT_3D('',#516,#441,#442);
#354=AXIS2_PLACEMENT_3D('',#517,#443,#444);
#355=AXIS2_PLACEMENT_3D('',#518,#445,#446);
#356=AXIS2_PLACEMENT_3D('',#519,#447,#448);
#357=DIRECTION('',(0.,0.,1.));
#358=DIRECTION('',(1.,0.,0.));
#359=DIRECTION('',(-0.948463889647544,0.,0.316885231644915));
#360=DIRECTION('',(-0.953716950748217,0.,0.300705799504305));
#361=DIRECTION('',(1.,0.,0.));
#362=DIRECTION('',(0.,0.,-1.));
#363=DIRECTION('',(0.,0.,1.));
#364=DIRECTION('',(1.,0.,0.));
#365=DIRECTION('',(0.,0.,1.));
#366=DIRECTION('',(1.,0.,0.));
#367=DIRECTION('',(0.,0.,1.));
#368=DIRECTION('',(1.,0.,0.));
#369=DIRECTION('',(0.,0.,1.));
#370=DIRECTION('',(1.,0.,0.));
#371=DIRECTION('',(0.,0.,1.));
#372=DIRECTION('',(1.,0.,0.));
#373=DIRECTION('',(0.,0.,1.));
#374=DIRECTION('',(1.,0.,0.));
#375=DIRECTION('',(0.,0.,1.));
#376=DIRECTION('',(1.,0.,0.));
#377=DIRECTION('',(0.,0.,1.));
#378=DIRECTION('',(1.,0.,0.));
#379=DIRECTION('',(0.,0.,1.));
#380=DIRECTION('',(1.,0.,0.));
#381=DIRECTION('',(0.,0.,1.));
#382=DIRECTION('',(1.,0.,0.));
#383=DIRECTION('',(0.,0.,1.));
#384=DIRECTION('',(1.,0.,0.));
#385=DIRECTION('',(0.,0.,1.));
#386=DIRECTION('',(1.,0.,0.));
#387=DIRECTION('',(0.,0.,1.));
#388=DIRECTION('',(1.,0.,0.));
#389=DIRECTION('',(0.,0.,1.));
#390=DIRECTION('',(0.,-1.,0.));
#391=DIRECTION('',(0.,0.948463889647554,-0.316885231644885));
#392=DIRECTION('',(0.,-0.948463889647554,-0.316885231644885));
#393=DIRECTION('',(0.,0.,1.));
#394=DIRECTION('',(0.,-1.,1.01857148029552E-17));
#395=DIRECTION('',(0.,0.,-1.));
#396=DIRECTION('',(0.,-1.,0.));
#397=DIRECTION('',(0.,0.,1.));
#398=DIRECTION('',(0.,-1.,1.01857148029552E-17));
#399=DIRECTION('',(0.,0.953716950748217,0.300705799504305));
#400=DIRECTION('',(0.,-0.953716950748217,0.300705799504305));
#401=DIRECTION('',(0.,0.,-1.));
#402=DIRECTION('',(0.,-1.,0.));
#403=DIRECTION('',(0.,0.,1.));
#404=DIRECTION('',(0.,-1.,2.15173513100886E-18));
#405=DIRECTION('',(0.,0.,-1.));
#406=DIRECTION('',(0.,1.,0.));
#407=DIRECTION('',(0.,0.,-1.));
#408=DIRECTION('',(1.,0.,0.));
#409=DIRECTION('',(0.,0.,1.));
#410=DIRECTION('',(0.,-1.,2.15173513100886E-18));
#411=DIRECTION('',(0.,0.,-1.));
#412=DIRECTION('',(0.,1.,0.));
#413=DIRECTION('',(0.,0.,-1.));
#414=DIRECTION('',(0.,0.,1.));
#415=DIRECTION('',(0.,-1.,0.));
#416=DIRECTION('',(0.,0.,-1.));
#417=DIRECTION('',(0.,0.,-1.));
#418=DIRECTION('',(0.,1.,0.));
#419=DIRECTION('',(0.,0.,1.));
#420=DIRECTION('',(0.,1.,0.));
#421=DIRECTION('',(0.,0.,-1.));
#422=DIRECTION('',(0.,-1.,0.));
#423=DIRECTION('',(0.,0.,-1.));
#424=DIRECTION('',(0.,1.,0.));
#425=DIRECTION('',(0.,0.707106781186498,0.707106781186598));
#426=DIRECTION('',(0.,0.,-1.));
#427=DIRECTION('',(0.,-1.,0.));
#428=DIRECTION('',(0.,-0.707106781186498,0.707106781186598));
#429=DIRECTION('',(0.,0.,-1.));
#430=DIRECTION('',(0.,1.,-1.38108054016166E-17));
#431=DIRECTION('',(0.,0.,-1.));
#432=DIRECTION('',(0.,1.,0.));
#433=DIRECTION('',(0.,0.,-1.));
#434=DIRECTION('',(0.,1.,-1.38108054016166E-17));
#435=DIRECTION('',(0.,0.,-1.));
#436=DIRECTION('',(0.,1.,0.));
#437=DIRECTION('',(0.,-0.953716950748217,0.300705799504305));
#438=DIRECTION('',(0.,0.953716950748217,0.300705799504305));
#439=DIRECTION('',(0.,0.,1.));
#440=DIRECTION('',(0.,1.,0.));
#441=DIRECTION('',(0.,0.,1.));
#442=DIRECTION('',(0.,-1.,1.78864067395174E-17));
#443=DIRECTION('',(0.,0.,1.));
#444=DIRECTION('',(0.,-1.,0.));
#445=DIRECTION('',(0.,0.,1.));
#446=DIRECTION('',(-1.,0.,0.));
#447=DIRECTION('',(0.,0.,1.));
#448=DIRECTION('',(0.,-1.,1.78864067395174E-17));
#449=CARTESIAN_POINT('',(0.,0.,0.));
#450=CARTESIAN_POINT('',(0.,0.,0.));
#451=CARTESIAN_POINT('',(0.,0.,84.));
#452=CARTESIAN_POINT('',(0.,0.,26.));
#453=CARTESIAN_POINT('',(0.,0.,0.));
#454=CARTESIAN_POINT('',(0.,0.,0.));
#455=CARTESIAN_POINT('',(0.,0.,0.));
#456=CARTESIAN_POINT('',(-1.25,0.,0.4176295417038));
#457=CARTESIAN_POINT('',(-4.365681039527,0.,1.4));
#458=CARTESIAN_POINT('',(0.,0.,1.4));
#459=CARTESIAN_POINT('',(0.,0.,0.));
#460=CARTESIAN_POINT('',(0.,0.,0.));
#461=CARTESIAN_POINT('',(0.,0.,0.));
#462=CARTESIAN_POINT('',(0.,0.,0.));
#463=CARTESIAN_POINT('',(0.,0.,84.));
#464=CARTESIAN_POINT('',(0.,0.,26.));
#465=CARTESIAN_POINT('',(0.,0.,0.));
#466=CARTESIAN_POINT('',(0.,0.,0.));
#467=CARTESIAN_POINT('',(0.,0.,0.));
#468=CARTESIAN_POINT('',(0.,0.,0.));
#469=CARTESIAN_POINT('',(0.,0.,0.));
#470=CARTESIAN_POINT('',(0.,0.,0.));
#471=CARTESIAN_POINT('',(0.,0.,0.));
#472=CARTESIAN_POINT('',(0.,-1.538853776228E-14,0.4176295417038));
#473=CARTESIAN_POINT('',(0.,-1.25,0.4176295417037));
#474=CARTESIAN_POINT('',(0.,1.25,0.4176295417037));
#475=CARTESIAN_POINT('',(0.,-1.25,0.4176295417037));
#476=CARTESIAN_POINT('',(0.,-1.532107773983E-14,-5.134781488891E-14));
#477=CARTESIAN_POINT('',(0.,1.25,0.4176295417037));
#478=CARTESIAN_POINT('',(0.,-1.538853776228E-14,0.2129910662689));
#479=CARTESIAN_POINT('',(0.,-1.526071702139E-14,0.4176295417037));
#480=CARTESIAN_POINT('',(0.,-1.538853776228E-14,0.2129910662689));
#481=CARTESIAN_POINT('',(0.,4.365681039527,1.4));
#482=CARTESIAN_POINT('',(0.,4.365681039527,1.4));
#483=CARTESIAN_POINT('',(0.,-4.365681039527,1.4));
#484=CARTESIAN_POINT('',(0.,-4.365681039527,1.4));
#485=CARTESIAN_POINT('',(0.,-1.526071702139E-14,1.4));
#486=CARTESIAN_POINT('',(0.,-1.526071702139E-14,0.9088147708518));
#487=CARTESIAN_POINT('',(0.,-1.526071702139E-14,1.4));
#488=CARTESIAN_POINT('',(150.,150.,1.4));
#489=CARTESIAN_POINT('',(0.,-1.526071702139E-14,0.9088147708518));
#490=CARTESIAN_POINT('',(0.,0.,83.7));
#491=CARTESIAN_POINT('',(0.,5.,83.7));
#492=CARTESIAN_POINT('',(0.,-5.,83.7));
#493=CARTESIAN_POINT('',(0.,-5.,83.7));
#494=CARTESIAN_POINT('',(0.,-5.,1.6));
#495=CARTESIAN_POINT('',(0.,-1.51521180566E-14,1.6));
#496=CARTESIAN_POINT('',(0.,5.,1.6));
#497=CARTESIAN_POINT('',(0.,5.,83.7));
#498=CARTESIAN_POINT('',(0.,0.,88.2));
#499=CARTESIAN_POINT('',(0.,-1.51521180566E-14,1.6));
#500=CARTESIAN_POINT('',(0.,0.,83.7));
#501=CARTESIAN_POINT('',(0.,0.,88.2));
#502=CARTESIAN_POINT('',(0.,-4.7,84.));
#503=CARTESIAN_POINT('',(0.,-4.7,84.));
#504=CARTESIAN_POINT('',(0.,0.,84.));
#505=CARTESIAN_POINT('',(0.,4.7,84.));
#506=CARTESIAN_POINT('',(0.,4.7,84.));
#507=CARTESIAN_POINT('',(0.,0.,83.85));
#508=CARTESIAN_POINT('',(0.,0.,84.));
#509=CARTESIAN_POINT('',(0.,0.,83.85));
#510=CARTESIAN_POINT('',(0.,0.,84.));
#511=CARTESIAN_POINT('',(0.,-5.,1.6));
#512=CARTESIAN_POINT('',(0.,-4.365681039527,1.4));
#513=CARTESIAN_POINT('',(0.,5.,1.6));
#514=CARTESIAN_POINT('',(0.,4.365681039527,1.4));
#515=CARTESIAN_POINT('',(0.,-1.51521180566E-14,1.4));
#516=CARTESIAN_POINT('',(0.,-1.51521180566E-14,1.5));
#517=CARTESIAN_POINT('',(0.,-1.51521180566E-14,1.4));
#518=CARTESIAN_POINT('',(-150.,150.,1.4));
#519=CARTESIAN_POINT('',(0.,-1.51521180566E-14,1.5));
#520=MECHANICAL_DESIGN_GEOMETRIC_PRESENTATION_REPRESENTATION('',(#256,#257,
#258,#259,#260,#261,#262,#263,#264,#265,#266,#267,#268,#269,#270,#271,#272,
#273,#274,#275,#276,#277,#278,#279),#521);
#521=(
GEOMETRIC_REPRESENTATION_CONTEXT(3)
GLOBAL_UNCERTAINTY_ASSIGNED_CONTEXT((#522))
GLOBAL_UNIT_ASSIGNED_CONTEXT((#528,#524,#523))
REPRESENTATION_CONTEXT('DLE1000S100P145','TOP_LEVEL_ASSEMBLY_PART')
);
#522=UNCERTAINTY_MEASURE_WITH_UNIT(LENGTH_MEASURE(2.E-5),#528,
'DISTANCE_ACCURACY_VALUE','Maximum Tolerance applied to model');
#523=(
NAMED_UNIT(*)
SI_UNIT($,.STERADIAN.)
SOLID_ANGLE_UNIT()
);
#524=(
CONVERSION_BASED_UNIT('DEGREE',#526)
NAMED_UNIT(#525)
PLANE_ANGLE_UNIT()
);
#525=DIMENSIONAL_EXPONENTS(0.,0.,0.,0.,0.,0.,0.);
#526=PLANE_ANGLE_MEASURE_WITH_UNIT(PLANE_ANGLE_MEASURE(0.0174532925),#527);
#527=(
NAMED_UNIT(*)
PLANE_ANGLE_UNIT()
SI_UNIT($,.RADIAN.)
);
#528=(
LENGTH_UNIT()
NAMED_UNIT(*)
SI_UNIT(.MILLI.,.METRE.)
);
ENDSEC;
END-ISO-10303-21;
