ISO-10303-21;
HEADER;
/* Generated by software containing ST-Developer
 * from STEP Tools, Inc. (www.steptools.com) 
 */
/* OPTION: using custom schema-name function */

FILE_DESCRIPTION(
/* description */ (''),
/* implementation_level */ '2;1');

FILE_NAME(
/* name */ 'TP080208N.stp',
/* time_stamp */ '2021-12-22T08:51:07+09:00',
/* author */ (''),
/* organization */ (''),
/* preprocessor_version */ 'ST-DEVELOPER v16',
/* originating_system */ 'SIEMENS PLM Software NX 10.0',
/* authorisation */ '');

FILE_SCHEMA (('AUTOMOTIVE_DESIGN { 1 0 10303 214 3 1 1 1 }'));
ENDSEC;

DATA;
#10=CONSTRUCTIVE_GEOMETRY_REPRESENTATION_RELATIONSHIP(
'supplemental geometry','',#26,#11);
#11=CONSTRUCTIVE_GEOMETRY_REPRESENTATION('supplemental geometry',(#333,
#334,#335),#534);
#12=GEOMETRICALLY_BOUNDED_WIREFRAME_SHAPE_REPRESENTATION(
'TP080208N-None',(#27),#534);
#13=SHAPE_REPRESENTATION_RELATIONSHIP('None',
'relationship between TP080208N-None and TP080208N-None',#26,#15);
#14=SHAPE_REPRESENTATION_RELATIONSHIP('None',
'relationship between TP080208N-None and TP080208N-None',#26,#12);
#15=ADVANCED_BREP_SHAPE_REPRESENTATION('TP080208N-None',(#33),#534);
#16=SHAPE_DEFINITION_REPRESENTATION(#17,#26);
#17=PRODUCT_DEFINITION_SHAPE('','',#18);
#18=PRODUCT_DEFINITION('part definition','',#20,#19);
#19=PRODUCT_DEFINITION_CONTEXT('part definition',#25,'design');
#20=PRODUCT_DEFINITION_FORMATION_WITH_SPECIFIED_SOURCE(' ',' ',#22,
 .NOT_KNOWN.);
#21=PRODUCT_RELATED_PRODUCT_CATEGORY('part','',(#22));
#22=PRODUCT('TP080208L','TP080208L','NOT SPECIFIED',(#23));
#23=PRODUCT_CONTEXT('',#25,'mechanical');
#24=APPLICATION_PROTOCOL_DEFINITION('international standard',
'automotive_design',2010,#25);
#25=APPLICATION_CONTEXT(
'core data for automotive mechanical design processes');
#26=SHAPE_REPRESENTATION('TP080208N-None',(#329),#534);
#27=GEOMETRIC_CURVE_SET('None',(#456,#457,#248,#249,#250,#251,#252,#253));
#28=SURFACE_STYLE_USAGE(.BOTH.,#29);
#29=SURFACE_SIDE_STYLE('',(#30));
#30=SURFACE_STYLE_FILL_AREA(#31);
#31=FILL_AREA_STYLE('',(#32));
#32=FILL_AREA_STYLE_COLOUR('',#212);
#33=MANIFOLD_SOLID_BREP('',#34);
#34=CLOSED_SHELL('',(#56,#57,#58,#59,#60,#61,#62,#63,#64,#65,#66,#67,#68,
#69));
#35=CYLINDRICAL_SURFACE('',#355,1.25);
#36=CYLINDRICAL_SURFACE('',#357,1.25);
#37=CYLINDRICAL_SURFACE('',#362,1.9);
#38=CYLINDRICAL_SURFACE('',#363,1.9);
#39=CONICAL_SURFACE('',#344,0.5686874321261,11.);
#40=CONICAL_SURFACE('',#347,0.5686874321261,11.);
#41=CONICAL_SURFACE('',#350,0.5686874321261,11.);
#42=CONICAL_SURFACE('',#359,1.575,44.);
#43=CONICAL_SURFACE('',#361,1.575,44.);
#44=FACE_OUTER_BOUND('',#81,.T.);
#45=FACE_OUTER_BOUND('',#82,.T.);
#46=FACE_OUTER_BOUND('',#83,.T.);
#47=FACE_OUTER_BOUND('',#84,.T.);
#48=FACE_OUTER_BOUND('',#85,.T.);
#49=FACE_OUTER_BOUND('',#86,.T.);
#50=FACE_OUTER_BOUND('',#89,.T.);
#51=FACE_OUTER_BOUND('',#90,.T.);
#52=FACE_OUTER_BOUND('',#91,.T.);
#53=FACE_OUTER_BOUND('',#92,.T.);
#54=FACE_OUTER_BOUND('',#93,.T.);
#55=FACE_OUTER_BOUND('',#94,.T.);
#56=ADVANCED_FACE('',(#75,#76),#70,.T.);
#57=ADVANCED_FACE('',(#44),#71,.T.);
#58=ADVANCED_FACE('',(#45),#39,.T.);
#59=ADVANCED_FACE('',(#46),#72,.T.);
#60=ADVANCED_FACE('',(#47),#40,.T.);
#61=ADVANCED_FACE('',(#48),#73,.T.);
#62=ADVANCED_FACE('',(#49),#41,.T.);
#63=ADVANCED_FACE('',(#77,#78),#74,.F.);
#64=ADVANCED_FACE('',(#50),#35,.F.);
#65=ADVANCED_FACE('',(#51),#36,.F.);
#66=ADVANCED_FACE('',(#52),#42,.F.);
#67=ADVANCED_FACE('',(#53),#43,.F.);
#68=ADVANCED_FACE('',(#54),#37,.F.);
#69=ADVANCED_FACE('',(#55),#38,.F.);
#70=PLANE('',#341);
#71=PLANE('',#342);
#72=PLANE('',#345);
#73=PLANE('',#348);
#74=PLANE('',#353);
#75=FACE_BOUND('',#79,.T.);
#76=FACE_BOUND('',#80,.T.);
#77=FACE_BOUND('',#87,.T.);
#78=FACE_BOUND('',#88,.T.);
#79=EDGE_LOOP('',(#95,#96,#97,#98,#99,#100));
#80=EDGE_LOOP('',(#101,#102));
#81=EDGE_LOOP('',(#103,#104,#105,#106));
#82=EDGE_LOOP('',(#107,#108,#109,#110));
#83=EDGE_LOOP('',(#111,#112,#113,#114));
#84=EDGE_LOOP('',(#115,#116,#117,#118));
#85=EDGE_LOOP('',(#119,#120,#121,#122));
#86=EDGE_LOOP('',(#123,#124,#125,#126));
#87=EDGE_LOOP('',(#127,#128,#129,#130,#131,#132));
#88=EDGE_LOOP('',(#133,#134));
#89=EDGE_LOOP('',(#135,#136,#137,#138));
#90=EDGE_LOOP('',(#139,#140,#141,#142));
#91=EDGE_LOOP('',(#143,#144,#145,#146));
#92=EDGE_LOOP('',(#147,#148,#149,#150));
#93=EDGE_LOOP('',(#151,#152,#153,#154));
#94=EDGE_LOOP('',(#155,#156,#157,#158));
#95=ORIENTED_EDGE('',*,*,#179,.F.);
#96=ORIENTED_EDGE('',*,*,#180,.F.);
#97=ORIENTED_EDGE('',*,*,#181,.F.);
#98=ORIENTED_EDGE('',*,*,#182,.F.);
#99=ORIENTED_EDGE('',*,*,#183,.F.);
#100=ORIENTED_EDGE('',*,*,#184,.F.);
#101=ORIENTED_EDGE('',*,*,#185,.F.);
#102=ORIENTED_EDGE('',*,*,#186,.F.);
#103=ORIENTED_EDGE('',*,*,#187,.T.);
#104=ORIENTED_EDGE('',*,*,#188,.T.);
#105=ORIENTED_EDGE('',*,*,#189,.T.);
#106=ORIENTED_EDGE('',*,*,#184,.T.);
#107=ORIENTED_EDGE('',*,*,#189,.F.);
#108=ORIENTED_EDGE('',*,*,#190,.T.);
#109=ORIENTED_EDGE('',*,*,#191,.F.);
#110=ORIENTED_EDGE('',*,*,#179,.T.);
#111=ORIENTED_EDGE('',*,*,#191,.T.);
#112=ORIENTED_EDGE('',*,*,#192,.F.);
#113=ORIENTED_EDGE('',*,*,#193,.T.);
#114=ORIENTED_EDGE('',*,*,#180,.T.);
#115=ORIENTED_EDGE('',*,*,#193,.F.);
#116=ORIENTED_EDGE('',*,*,#194,.T.);
#117=ORIENTED_EDGE('',*,*,#195,.F.);
#118=ORIENTED_EDGE('',*,*,#181,.T.);
#119=ORIENTED_EDGE('',*,*,#195,.T.);
#120=ORIENTED_EDGE('',*,*,#196,.T.);
#121=ORIENTED_EDGE('',*,*,#197,.T.);
#122=ORIENTED_EDGE('',*,*,#182,.T.);
#123=ORIENTED_EDGE('',*,*,#197,.F.);
#124=ORIENTED_EDGE('',*,*,#198,.T.);
#125=ORIENTED_EDGE('',*,*,#187,.F.);
#126=ORIENTED_EDGE('',*,*,#183,.T.);
#127=ORIENTED_EDGE('',*,*,#198,.F.);
#128=ORIENTED_EDGE('',*,*,#196,.F.);
#129=ORIENTED_EDGE('',*,*,#194,.F.);
#130=ORIENTED_EDGE('',*,*,#192,.T.);
#131=ORIENTED_EDGE('',*,*,#190,.F.);
#132=ORIENTED_EDGE('',*,*,#188,.F.);
#133=ORIENTED_EDGE('',*,*,#199,.F.);
#134=ORIENTED_EDGE('',*,*,#200,.F.);
#135=ORIENTED_EDGE('',*,*,#201,.T.);
#136=ORIENTED_EDGE('',*,*,#202,.T.);
#137=ORIENTED_EDGE('',*,*,#203,.F.);
#138=ORIENTED_EDGE('',*,*,#200,.T.);
#139=ORIENTED_EDGE('',*,*,#203,.T.);
#140=ORIENTED_EDGE('',*,*,#204,.T.);
#141=ORIENTED_EDGE('',*,*,#201,.F.);
#142=ORIENTED_EDGE('',*,*,#199,.T.);
#143=ORIENTED_EDGE('',*,*,#205,.F.);
#144=ORIENTED_EDGE('',*,*,#206,.T.);
#145=ORIENTED_EDGE('',*,*,#204,.F.);
#146=ORIENTED_EDGE('',*,*,#207,.F.);
#147=ORIENTED_EDGE('',*,*,#202,.F.);
#148=ORIENTED_EDGE('',*,*,#206,.F.);
#149=ORIENTED_EDGE('',*,*,#208,.F.);
#150=ORIENTED_EDGE('',*,*,#207,.T.);
#151=ORIENTED_EDGE('',*,*,#209,.F.);
#152=ORIENTED_EDGE('',*,*,#208,.T.);
#153=ORIENTED_EDGE('',*,*,#210,.T.);
#154=ORIENTED_EDGE('',*,*,#186,.T.);
#155=ORIENTED_EDGE('',*,*,#210,.F.);
#156=ORIENTED_EDGE('',*,*,#205,.T.);
#157=ORIENTED_EDGE('',*,*,#209,.T.);
#158=ORIENTED_EDGE('',*,*,#185,.T.);
#159=VERTEX_POINT('',#468);
#160=VERTEX_POINT('',#469);
#161=VERTEX_POINT('',#471);
#162=VERTEX_POINT('',#473);
#163=VERTEX_POINT('',#475);
#164=VERTEX_POINT('',#477);
#165=VERTEX_POINT('',#480);
#166=VERTEX_POINT('',#481);
#167=VERTEX_POINT('',#485);
#168=VERTEX_POINT('',#487);
#169=VERTEX_POINT('',#491);
#170=VERTEX_POINT('',#495);
#171=VERTEX_POINT('',#499);
#172=VERTEX_POINT('',#503);
#173=VERTEX_POINT('',#509);
#174=VERTEX_POINT('',#510);
#175=VERTEX_POINT('',#514);
#176=VERTEX_POINT('',#516);
#177=VERTEX_POINT('',#522);
#178=VERTEX_POINT('',#523);
#179=EDGE_CURVE('',#159,#160,#216,.T.);
#180=EDGE_CURVE('',#161,#159,#257,.T.);
#181=EDGE_CURVE('',#162,#161,#217,.T.);
#182=EDGE_CURVE('',#163,#162,#258,.T.);
#183=EDGE_CURVE('',#164,#163,#218,.T.);
#184=EDGE_CURVE('',#160,#164,#259,.T.);
#185=EDGE_CURVE('',#165,#166,#219,.T.);
#186=EDGE_CURVE('',#166,#165,#220,.T.);
#187=EDGE_CURVE('',#164,#167,#260,.T.);
#188=EDGE_CURVE('',#167,#168,#261,.T.);
#189=EDGE_CURVE('',#168,#160,#262,.T.);
#190=EDGE_CURVE('',#168,#169,#221,.T.);
#191=EDGE_CURVE('',#159,#169,#263,.T.);
#192=EDGE_CURVE('',#170,#169,#264,.T.);
#193=EDGE_CURVE('',#170,#161,#265,.T.);
#194=EDGE_CURVE('',#170,#171,#222,.T.);
#195=EDGE_CURVE('',#162,#171,#266,.T.);
#196=EDGE_CURVE('',#171,#172,#267,.T.);
#197=EDGE_CURVE('',#172,#163,#268,.T.);
#198=EDGE_CURVE('',#172,#167,#223,.T.);
#199=EDGE_CURVE('',#173,#174,#224,.T.);
#200=EDGE_CURVE('',#174,#173,#225,.T.);
#201=EDGE_CURVE('',#173,#175,#269,.T.);
#202=EDGE_CURVE('',#175,#176,#226,.T.);
#203=EDGE_CURVE('',#174,#176,#270,.T.);
#204=EDGE_CURVE('',#176,#175,#227,.T.);
#205=EDGE_CURVE('',#177,#178,#228,.T.);
#206=EDGE_CURVE('',#177,#175,#271,.T.);
#207=EDGE_CURVE('',#178,#176,#272,.T.);
#208=EDGE_CURVE('',#178,#177,#229,.T.);
#209=EDGE_CURVE('',#178,#165,#273,.T.);
#210=EDGE_CURVE('',#177,#166,#274,.T.);
#211=COLOUR_RGB('Strong Stone',0.576470588235294,0.54508278019379,0.392156862745098);
#212=COLOUR_RGB('cutting part',0.8,0.8,0.8);
#213=CIRCLE('',#330,0.8);
#214=CIRCLE('',#331,0.8);
#215=CIRCLE('',#332,0.8);
#216=CIRCLE('',#336,0.8);
#217=CIRCLE('',#337,0.8);
#218=CIRCLE('',#338,0.8);
#219=CIRCLE('',#339,1.9);
#220=CIRCLE('',#340,1.9);
#221=CIRCLE('',#343,0.3373748642522);
#222=CIRCLE('',#346,0.3373748642522);
#223=CIRCLE('',#349,0.3373748642522);
#224=CIRCLE('',#351,1.25);
#225=CIRCLE('',#352,1.25);
#226=CIRCLE('',#354,1.25);
#227=CIRCLE('',#356,1.25);
#228=CIRCLE('',#358,1.9);
#229=CIRCLE('',#360,1.9);
#230=CURVE_STYLE('',#239,POSITIVE_LENGTH_MEASURE(0.18),#328);
#231=CURVE_STYLE('',#240,POSITIVE_LENGTH_MEASURE(0.18),#328);
#232=CURVE_STYLE('',#241,POSITIVE_LENGTH_MEASURE(0.18),#328);
#233=CURVE_STYLE('',#242,POSITIVE_LENGTH_MEASURE(0.18),#328);
#234=CURVE_STYLE('',#243,POSITIVE_LENGTH_MEASURE(0.18),#328);
#235=CURVE_STYLE('',#244,POSITIVE_LENGTH_MEASURE(0.18),#328);
#236=CURVE_STYLE('',#245,POSITIVE_LENGTH_MEASURE(0.13),#327);
#237=CURVE_STYLE('',#246,POSITIVE_LENGTH_MEASURE(0.13),#327);
#238=CURVE_STYLE('',#247,POSITIVE_LENGTH_MEASURE(0.13),#211);
#239=DRAUGHTING_PRE_DEFINED_CURVE_FONT('continuous');
#240=DRAUGHTING_PRE_DEFINED_CURVE_FONT('continuous');
#241=DRAUGHTING_PRE_DEFINED_CURVE_FONT('continuous');
#242=DRAUGHTING_PRE_DEFINED_CURVE_FONT('continuous');
#243=DRAUGHTING_PRE_DEFINED_CURVE_FONT('continuous');
#244=DRAUGHTING_PRE_DEFINED_CURVE_FONT('continuous');
#245=DRAUGHTING_PRE_DEFINED_CURVE_FONT('continuous');
#246=DRAUGHTING_PRE_DEFINED_CURVE_FONT('continuous');
#247=DRAUGHTING_PRE_DEFINED_CURVE_FONT('continuous');
#248=TRIMMED_CURVE('',#254,(PARAMETER_VALUE(0.)),(PARAMETER_VALUE(1.)),
 .T.,.PARAMETER.);
#249=TRIMMED_CURVE('',#255,(PARAMETER_VALUE(0.)),(PARAMETER_VALUE(1.)),
 .T.,.PARAMETER.);
#250=TRIMMED_CURVE('',#256,(PARAMETER_VALUE(0.)),(PARAMETER_VALUE(1.)),
 .T.,.PARAMETER.);
#251=TRIMMED_CURVE('',#213,(PARAMETER_VALUE(0.)),(PARAMETER_VALUE(120.)),
 .T.,.PARAMETER.);
#252=TRIMMED_CURVE('',#214,(PARAMETER_VALUE(0.)),(PARAMETER_VALUE(119.9999999996)),
 .T.,.PARAMETER.);
#253=TRIMMED_CURVE('',#215,(PARAMETER_VALUE(0.)),(PARAMETER_VALUE(119.9999999996)),
 .T.,.PARAMETER.);
#254=LINE('',#458,#275);
#255=LINE('',#459,#276);
#256=LINE('',#460,#277);
#257=LINE('',#470,#278);
#258=LINE('',#474,#279);
#259=LINE('',#478,#280);
#260=LINE('',#484,#281);
#261=LINE('',#486,#282);
#262=LINE('',#488,#283);
#263=LINE('',#492,#284);
#264=LINE('',#494,#285);
#265=LINE('',#496,#286);
#266=LINE('',#500,#287);
#267=LINE('',#502,#288);
#268=LINE('',#504,#289);
#269=LINE('',#513,#290);
#270=LINE('',#517,#291);
#271=LINE('',#524,#292);
#272=LINE('',#525,#293);
#273=LINE('',#529,#294);
#274=LINE('',#530,#295);
#275=VECTOR('',#366,5.473280551918);
#276=VECTOR('',#367,5.47328055191882);
#277=VECTOR('',#368,5.47328055192682);
#278=VECTOR('',#383,1.);
#279=VECTOR('',#386,1.);
#280=VECTOR('',#389,1.);
#281=VECTOR('',#396,1.);
#282=VECTOR('',#397,1.);
#283=VECTOR('',#398,1.);
#284=VECTOR('',#403,1.);
#285=VECTOR('',#406,1.);
#286=VECTOR('',#407,1.);
#287=VECTOR('',#412,1.);
#288=VECTOR('',#415,1.);
#289=VECTOR('',#416,1.);
#290=VECTOR('',#429,1.);
#291=VECTOR('',#432,1.);
#292=VECTOR('',#441,1.);
#293=VECTOR('',#442,1.);
#294=VECTOR('',#449,1.);
#295=VECTOR('',#450,1.);
#296=PRESENTATION_LAYER_ASSIGNMENT('5','Layer 5',(#456,#333));
#297=PRESENTATION_LAYER_ASSIGNMENT('1','Layer 1',(#457,#334,#335,#33));
#298=PRESENTATION_LAYER_ASSIGNMENT('2','Layer 2',(#248,#249,#250,#251,#252,
#253));
#299=STYLED_ITEM('',(#311),#456);
#300=STYLED_ITEM('',(#312),#457);
#301=STYLED_ITEM('',(#313),#248);
#302=STYLED_ITEM('',(#314),#249);
#303=STYLED_ITEM('',(#315),#250);
#304=STYLED_ITEM('',(#316),#251);
#305=STYLED_ITEM('',(#317),#252);
#306=STYLED_ITEM('',(#318),#253);
#307=STYLED_ITEM('',(#319),#333);
#308=STYLED_ITEM('',(#320),#334);
#309=STYLED_ITEM('',(#321),#335);
#310=STYLED_ITEM('',(#322),#33);
#311=PRESENTATION_STYLE_ASSIGNMENT((#323));
#312=PRESENTATION_STYLE_ASSIGNMENT((#324));
#313=PRESENTATION_STYLE_ASSIGNMENT((#230));
#314=PRESENTATION_STYLE_ASSIGNMENT((#231));
#315=PRESENTATION_STYLE_ASSIGNMENT((#232));
#316=PRESENTATION_STYLE_ASSIGNMENT((#233));
#317=PRESENTATION_STYLE_ASSIGNMENT((#234));
#318=PRESENTATION_STYLE_ASSIGNMENT((#235));
#319=PRESENTATION_STYLE_ASSIGNMENT((#236));
#320=PRESENTATION_STYLE_ASSIGNMENT((#237));
#321=PRESENTATION_STYLE_ASSIGNMENT((#238));
#322=PRESENTATION_STYLE_ASSIGNMENT((#28));
#323=POINT_STYLE('',#325,POSITIVE_LENGTH_MEASURE(3.),#327);
#324=POINT_STYLE('',#326,POSITIVE_LENGTH_MEASURE(3.),#327);
#325=PRE_DEFINED_POINT_MARKER_SYMBOL('plus');
#326=PRE_DEFINED_POINT_MARKER_SYMBOL('plus');
#327=DRAUGHTING_PRE_DEFINED_COLOUR('yellow');
#328=DRAUGHTING_PRE_DEFINED_COLOUR('blue');
#329=AXIS2_PLACEMENT_3D('',#455,#364,#365);
#330=AXIS2_PLACEMENT_3D('',#461,#369,#370);
#331=AXIS2_PLACEMENT_3D('',#462,#371,#372);
#332=AXIS2_PLACEMENT_3D('',#463,#373,#374);
#333=AXIS2_PLACEMENT_3D('MCS',#464,#375,#376);
#334=AXIS2_PLACEMENT_3D('PCS',#465,#377,#378);
#335=AXIS2_PLACEMENT_3D('',#466,#379,#380);
#336=AXIS2_PLACEMENT_3D('',#467,#381,#382);
#337=AXIS2_PLACEMENT_3D('',#472,#384,#385);
#338=AXIS2_PLACEMENT_3D('',#476,#387,#388);
#339=AXIS2_PLACEMENT_3D('',#479,#390,#391);
#340=AXIS2_PLACEMENT_3D('',#482,#392,#393);
#341=AXIS2_PLACEMENT_3D('',#483,#394,#395);
#342=AXIS2_PLACEMENT_3D('',#489,#399,#400);
#343=AXIS2_PLACEMENT_3D('',#490,#401,#402);
#344=AXIS2_PLACEMENT_3D('',#493,#404,#405);
#345=AXIS2_PLACEMENT_3D('',#497,#408,#409);
#346=AXIS2_PLACEMENT_3D('',#498,#410,#411);
#347=AXIS2_PLACEMENT_3D('',#501,#413,#414);
#348=AXIS2_PLACEMENT_3D('',#505,#417,#418);
#349=AXIS2_PLACEMENT_3D('',#506,#419,#420);
#350=AXIS2_PLACEMENT_3D('',#507,#421,#422);
#351=AXIS2_PLACEMENT_3D('',#508,#423,#424);
#352=AXIS2_PLACEMENT_3D('',#511,#425,#426);
#353=AXIS2_PLACEMENT_3D('',#512,#427,#428);
#354=AXIS2_PLACEMENT_3D('',#515,#430,#431);
#355=AXIS2_PLACEMENT_3D('',#518,#433,#434);
#356=AXIS2_PLACEMENT_3D('',#519,#435,#436);
#357=AXIS2_PLACEMENT_3D('',#520,#437,#438);
#358=AXIS2_PLACEMENT_3D('',#521,#439,#440);
#359=AXIS2_PLACEMENT_3D('',#526,#443,#444);
#360=AXIS2_PLACEMENT_3D('',#527,#445,#446);
#361=AXIS2_PLACEMENT_3D('',#528,#447,#448);
#362=AXIS2_PLACEMENT_3D('',#531,#451,#452);
#363=AXIS2_PLACEMENT_3D('',#532,#453,#454);
#364=DIRECTION('',(0.,0.,1.));
#365=DIRECTION('',(1.,0.,0.));
#366=DIRECTION('',(-1.,0.,0.));
#367=DIRECTION('',(0.500000000000017,0.866025403784429,0.));
#368=DIRECTION('',(0.500000000000017,-0.866025403784429,0.));
#369=DIRECTION('',(0.,0.,-1.));
#370=DIRECTION('',(0.,-1.,0.));
#371=DIRECTION('',(0.,0.,-1.));
#372=DIRECTION('',(-0.866025403784138,0.500000000000522,0.));
#373=DIRECTION('',(0.,0.,-1.));
#374=DIRECTION('',(0.866025403787542,0.499999999994624,0.));
#375=DIRECTION('',(0.,0.,1.));
#376=DIRECTION('',(1.,0.,0.));
#377=DIRECTION('',(0.,0.,1.));
#378=DIRECTION('',(1.,0.,0.));
#379=DIRECTION('',(0.,0.,1.));
#380=DIRECTION('',(1.,0.,0.));
#381=DIRECTION('',(0.,0.,-1.));
#382=DIRECTION('',(0.,-1.,0.));
#383=DIRECTION('',(-1.,0.,0.));
#384=DIRECTION('',(0.,0.,-1.));
#385=DIRECTION('',(0.866025403787542,0.499999999994624,0.));
#386=DIRECTION('',(0.500000000000017,-0.866025403784429,0.));
#387=DIRECTION('',(0.,0.,-1.));
#388=DIRECTION('',(-0.866025403784138,0.500000000000522,0.));
#389=DIRECTION('',(0.500000000000017,0.866025403784429,0.));
#390=DIRECTION('',(0.,0.,1.));
#391=DIRECTION('',(1.,0.,0.));
#392=DIRECTION('',(0.,0.,1.));
#393=DIRECTION('',(-1.,0.,0.));
#394=DIRECTION('',(0.,0.,1.));
#395=DIRECTION('',(-1.,0.,0.));
#396=DIRECTION('',(0.165245437266595,-0.0954044976883273,-0.981627183447672));
#397=DIRECTION('',(-0.500000000000017,-0.866025403784429,0.));
#398=DIRECTION('',(-0.165245437266693,0.0954044976882762,0.981627183447661));
#399=DIRECTION('',(-0.85011407791108,0.490813591723789,-0.190808995376496));
#400=DIRECTION('',(0.499999999999953,0.866025403784465,-1.42145002321606E-14));
#401=DIRECTION('',(0.,0.,1.));
#402=DIRECTION('',(-0.866025403785192,0.499999999998696,0.));
#403=DIRECTION('',(-2.34449769554089E-13,0.190808995376591,-0.981627183447655));
#404=DIRECTION('',(0.,0.,1.));
#405=DIRECTION('',(0.,-1.,-1.25689126537226E-16));
#406=DIRECTION('',(-1.,0.,0.));
#407=DIRECTION('',(-2.34449769554089E-13,-0.190808995376591,0.981627183447655));
#408=DIRECTION('',(0.,-0.981627183447674,-0.190808995376495));
#409=DIRECTION('',(-1.,0.,0.));
#410=DIRECTION('',(0.,0.,1.));
#411=DIRECTION('',(5.05698769943874E-12,-1.,0.));
#412=DIRECTION('',(-0.165245437266998,-0.0954044976874688,-0.981627183447688));
#413=DIRECTION('',(0.,0.,1.));
#414=DIRECTION('',(0.866025403784429,0.500000000000017,-1.25689126537226E-16));
#415=DIRECTION('',(-0.500000000000017,0.866025403784429,0.));
#416=DIRECTION('',(0.165245437266098,0.0954044976889991,0.98162718344769));
#417=DIRECTION('',(0.85011407791108,0.490813591723789,-0.190808995376496));
#418=DIRECTION('',(0.499999999999953,-0.866025403784465,1.42145002321606E-14));
#419=DIRECTION('',(0.,0.,1.));
#420=DIRECTION('',(0.866025403787499,0.4999999999947,0.));
#421=DIRECTION('',(0.,0.,1.));
#422=DIRECTION('',(-0.866025403784429,0.500000000000017,-1.25689126537226E-16));
#423=DIRECTION('',(0.,0.,-1.));
#424=DIRECTION('',(-1.,0.,0.));
#425=DIRECTION('',(0.,0.,-1.));
#426=DIRECTION('',(1.,0.,0.));
#427=DIRECTION('',(0.,0.,1.));
#428=DIRECTION('',(-1.,0.,0.));
#429=DIRECTION('',(3.1261796421E-14,0.,1.));
#430=DIRECTION('',(0.,0.,1.));
#431=DIRECTION('',(-1.,0.,0.));
#432=DIRECTION('',(-3.1261796421E-14,0.,1.));
#433=DIRECTION('',(0.,0.,-1.));
#434=DIRECTION('',(1.,0.,0.));
#435=DIRECTION('',(0.,0.,1.));
#436=DIRECTION('',(1.,0.,0.));
#437=DIRECTION('',(0.,0.,-1.));
#438=DIRECTION('',(1.,0.,0.));
#439=DIRECTION('',(0.,0.,-1.));
#440=DIRECTION('',(-1.,0.,0.));
#441=DIRECTION('',(0.694658370458974,0.,-0.719339800338673));
#442=DIRECTION('',(-0.694658370458974,0.,-0.719339800338673));
#443=DIRECTION('',(0.,0.,1.));
#444=DIRECTION('',(-1.,0.,-3.19455382498947E-17));
#445=DIRECTION('',(0.,0.,-1.));
#446=DIRECTION('',(1.,0.,0.));
#447=DIRECTION('',(0.,0.,1.));
#448=DIRECTION('',(-1.,0.,-3.19455382498947E-17));
#449=DIRECTION('',(2.164934898019E-14,0.,1.));
#450=DIRECTION('',(-2.164934898019E-14,0.,1.));
#451=DIRECTION('',(0.,0.,-1.));
#452=DIRECTION('',(1.,0.,0.));
#453=DIRECTION('',(0.,0.,-1.));
#454=DIRECTION('',(1.,0.,0.));
#455=CARTESIAN_POINT('',(0.,0.,0.));
#456=CARTESIAN_POINT('',(0.,0.,0.));
#457=CARTESIAN_POINT('',(-4.122280922014,-2.38,0.));
#458=CARTESIAN_POINT('',(2.736640275959,-2.38,0.));
#459=CARTESIAN_POINT('',(-3.429460598987,-1.180000000001,0.));
#460=CARTESIAN_POINT('',(0.6928203230249,3.560000000004,0.));
#461=CARTESIAN_POINT('',(-2.736640275959,-1.58,0.));
#462=CARTESIAN_POINT('',(2.22044604925031E-16,3.16,0.));
#463=CARTESIAN_POINT('',(2.736640275959,-1.58,0.));
#464=CARTESIAN_POINT('',(0.,0.,0.));
#465=CARTESIAN_POINT('',(-4.122280922014,-2.38,0.));
#466=CARTESIAN_POINT('',(0.,0.,0.));
#467=CARTESIAN_POINT('',(-2.736640275959,-1.58,0.));
#468=CARTESIAN_POINT('',(-2.736640275959,-2.38,0.));
#469=CARTESIAN_POINT('',(-3.429460598986,-1.18,0.));
#470=CARTESIAN_POINT('',(2.736640275959,-2.38,0.));
#471=CARTESIAN_POINT('',(2.736640275959,-2.38,0.));
#472=CARTESIAN_POINT('',(2.736640275959,-1.58,0.));
#473=CARTESIAN_POINT('',(3.429460598987,-1.180000000001,-1.730284999839E-14));
#474=CARTESIAN_POINT('',(0.6928203230267,3.560000000001,-2.581465839618E-14));
#475=CARTESIAN_POINT('',(0.6928203230253,3.560000000004,0.));
#476=CARTESIAN_POINT('',(0.,3.16,0.));
#477=CARTESIAN_POINT('',(-0.6928203230275,3.56,0.));
#478=CARTESIAN_POINT('',(-3.429460598986,-1.18,0.));
#479=CARTESIAN_POINT('',(0.,0.,0.));
#480=CARTESIAN_POINT('',(1.9,0.,0.));
#481=CARTESIAN_POINT('',(-1.9,0.,0.));
#482=CARTESIAN_POINT('',(0.,0.,0.));
#483=CARTESIAN_POINT('',(0.,0.,0.));
#484=CARTESIAN_POINT('',(-0.6928203230275,3.56,0.));
#485=CARTESIAN_POINT('',(-0.2921752030408,3.328687432126,-2.38));
#486=CARTESIAN_POINT('',(-0.2921752030408,3.328687432126,-2.38));
#487=CARTESIAN_POINT('',(-3.028815479,-1.411312567874,-2.38));
#488=CARTESIAN_POINT('',(-3.028815479,-1.411312567874,-2.38));
#489=CARTESIAN_POINT('',(0.560002400096,5.729952609327,0.));
#490=CARTESIAN_POINT('',(-2.736640275959,-1.58,-2.38));
#491=CARTESIAN_POINT('',(-2.736640275961,-1.917374864252,-2.38));
#492=CARTESIAN_POINT('',(-2.736640275959,-2.38,0.));
#493=CARTESIAN_POINT('',(-2.736640275959,-1.58,-1.19));
#494=CARTESIAN_POINT('',(2.73664027596,-1.917374864252,-2.38));
#495=CARTESIAN_POINT('',(2.73664027596,-1.917374864252,-2.38));
#496=CARTESIAN_POINT('',(2.73664027596,-1.917374864252,-2.38));
#497=CARTESIAN_POINT('',(-5.242285722206,-2.38,0.));
#498=CARTESIAN_POINT('',(2.736640275959,-1.58,-2.38));
#499=CARTESIAN_POINT('',(3.028815478999,-1.411312567873,-2.38));
#500=CARTESIAN_POINT('',(3.429460598987,-1.180000000001,-1.730284999839E-14));
#501=CARTESIAN_POINT('',(2.736640275959,-1.58,-1.19));
#502=CARTESIAN_POINT('',(3.028815478999,-1.411312567873,-2.38));
#503=CARTESIAN_POINT('',(0.2921752030412,3.328687432126,-2.38));
#504=CARTESIAN_POINT('',(0.2921752030412,3.328687432126,-2.38));
#505=CARTESIAN_POINT('',(4.68228332211,-3.349952609327,0.));
#506=CARTESIAN_POINT('',(0.,3.16,-2.38));
#507=CARTESIAN_POINT('',(0.,3.16,-1.19));
#508=CARTESIAN_POINT('',(0.,0.,-2.38));
#509=CARTESIAN_POINT('',(-1.25,0.,-2.38));
#510=CARTESIAN_POINT('',(1.25,0.,-2.38));
#511=CARTESIAN_POINT('',(0.,0.,-2.38));
#512=CARTESIAN_POINT('',(0.,0.,-2.38));
#513=CARTESIAN_POINT('',(-1.25,0.,-1.073094703964));
#514=CARTESIAN_POINT('',(-1.25,0.,-1.073094703964));
#515=CARTESIAN_POINT('',(0.,0.,-1.073094703964));
#516=CARTESIAN_POINT('',(1.25,0.,-1.073094703964));
#517=CARTESIAN_POINT('',(1.25,0.,-1.073094703964));
#518=CARTESIAN_POINT('',(0.,0.,0.119));
#519=CARTESIAN_POINT('',(0.,0.,-1.073094703964));
#520=CARTESIAN_POINT('',(0.,0.,0.119));
#521=CARTESIAN_POINT('',(0.,0.,-0.4));
#522=CARTESIAN_POINT('',(-1.9,0.,-0.4));
#523=CARTESIAN_POINT('',(1.9,0.,-0.4));
#524=CARTESIAN_POINT('',(-1.9,0.,-0.4));
#525=CARTESIAN_POINT('',(1.9,0.,-0.4));
#526=CARTESIAN_POINT('',(0.,0.,-0.736547351982));
#527=CARTESIAN_POINT('',(0.,0.,-0.4));
#528=CARTESIAN_POINT('',(0.,0.,-0.736547351982));
#529=CARTESIAN_POINT('',(1.9,0.,0.));
#530=CARTESIAN_POINT('',(-1.9,0.,0.));
#531=CARTESIAN_POINT('',(0.,0.,0.119));
#532=CARTESIAN_POINT('',(0.,0.,0.119));
#533=MECHANICAL_DESIGN_GEOMETRIC_PRESENTATION_REPRESENTATION('',(#299,#300,
#301,#302,#303,#304,#305,#306,#307,#308,#309,#310),#534);
#534=(
GEOMETRIC_REPRESENTATION_CONTEXT(3)
GLOBAL_UNCERTAINTY_ASSIGNED_CONTEXT((#535))
GLOBAL_UNIT_ASSIGNED_CONTEXT((#541,#537,#536))
REPRESENTATION_CONTEXT('TP080208N','TOP_LEVEL_ASSEMBLY_PART')
);
#535=UNCERTAINTY_MEASURE_WITH_UNIT(LENGTH_MEASURE(2.E-5),#541,
'DISTANCE_ACCURACY_VALUE','Maximum Tolerance applied to model');
#536=(
NAMED_UNIT(*)
SI_UNIT($,.STERADIAN.)
SOLID_ANGLE_UNIT()
);
#537=(
CONVERSION_BASED_UNIT('DEGREE',#539)
NAMED_UNIT(#538)
PLANE_ANGLE_UNIT()
);
#538=DIMENSIONAL_EXPONENTS(0.,0.,0.,0.,0.,0.,0.);
#539=PLANE_ANGLE_MEASURE_WITH_UNIT(PLANE_ANGLE_MEASURE(0.0174532925),#540);
#540=(
NAMED_UNIT(*)
PLANE_ANGLE_UNIT()
SI_UNIT($,.RADIAN.)
);
#541=(
LENGTH_UNIT()
NAMED_UNIT(*)
SI_UNIT(.MILLI.,.METRE.)
);
ENDSEC;
END-ISO-10303-21;
