ISO-10303-21;
HEADER;
FILE_DESCRIPTION((''),'2;1');
FILE_NAME('SP150412N','2023-09-05T16:28:50',('tlyac01'),('PTC Japan'),
'CREO PARAMETRIC BY PTC INC, 2021424','CREO PARAMETRIC BY PTC INC, 2021424','');
FILE_SCHEMA(('AUTOMOTIVE_DESIGN { 1 0 10303 214 1 1 1 1 }'));
ENDSEC;
DATA;
#35=CARTESIAN_POINT('',(-6.747726906833E0,6.747726906833E0,0.E0));
#36=DIRECTION('',(0.E0,0.E0,-1.E0));
#37=DIRECTION('',(-1.E0,0.E0,0.E0));
#38=AXIS2_PLACEMENT_3D('',#35,#36,#37);
#40=DRAUGHTING_PRE_DEFINED_CURVE_FONT('continuous');
#41=CURVE_STYLE('',#40,POSITIVE_LENGTH_MEASURE(2.E-2),#21);
#42=PRESENTATION_STYLE_ASSIGNMENT((#41));
#43=STYLED_ITEM('',(#42),#39);
#44=DIRECTION('',(1.E0,0.E0,0.E0));
#45=VECTOR('',#44,1.349545381367E1);
#46=CARTESIAN_POINT('',(-6.747726906833E0,7.9375E0,0.E0));
#47=LINE('',#46,#45);
#48=CURVE_STYLE('',#40,POSITIVE_LENGTH_MEASURE(2.E-2),#21);
#49=PRESENTATION_STYLE_ASSIGNMENT((#48));
#50=STYLED_ITEM('',(#49),#47);
#51=CARTESIAN_POINT('',(6.747726906833E0,6.747726906833E0,0.E0));
#52=DIRECTION('',(0.E0,0.E0,-1.E0));
#53=DIRECTION('',(0.E0,1.E0,0.E0));
#54=AXIS2_PLACEMENT_3D('',#51,#52,#53);
#56=CURVE_STYLE('',#40,POSITIVE_LENGTH_MEASURE(2.E-2),#21);
#57=PRESENTATION_STYLE_ASSIGNMENT((#56));
#58=STYLED_ITEM('',(#57),#55);
#59=DIRECTION('',(0.E0,-1.E0,0.E0));
#60=VECTOR('',#59,1.349545381367E1);
#61=CARTESIAN_POINT('',(7.9375E0,6.747726906833E0,0.E0));
#62=LINE('',#61,#60);
#63=CURVE_STYLE('',#40,POSITIVE_LENGTH_MEASURE(2.E-2),#21);
#64=PRESENTATION_STYLE_ASSIGNMENT((#63));
#65=STYLED_ITEM('',(#64),#62);
#66=CARTESIAN_POINT('',(6.747726906833E0,-6.747726906833E0,0.E0));
#67=DIRECTION('',(0.E0,0.E0,-1.E0));
#68=DIRECTION('',(1.E0,0.E0,0.E0));
#69=AXIS2_PLACEMENT_3D('',#66,#67,#68);
#71=CURVE_STYLE('',#40,POSITIVE_LENGTH_MEASURE(2.E-2),#21);
#72=PRESENTATION_STYLE_ASSIGNMENT((#71));
#73=STYLED_ITEM('',(#72),#70);
#74=DIRECTION('',(-1.E0,0.E0,0.E0));
#75=VECTOR('',#74,1.349545381367E1);
#76=CARTESIAN_POINT('',(6.747726906833E0,-7.9375E0,0.E0));
#77=LINE('',#76,#75);
#78=CURVE_STYLE('',#40,POSITIVE_LENGTH_MEASURE(2.E-2),#21);
#79=PRESENTATION_STYLE_ASSIGNMENT((#78));
#80=STYLED_ITEM('',(#79),#77);
#81=CARTESIAN_POINT('',(-6.747726906833E0,-6.747726906833E0,0.E0));
#82=DIRECTION('',(0.E0,0.E0,-1.E0));
#83=DIRECTION('',(0.E0,-1.E0,0.E0));
#84=AXIS2_PLACEMENT_3D('',#81,#82,#83);
#86=CURVE_STYLE('',#40,POSITIVE_LENGTH_MEASURE(2.E-2),#21);
#87=PRESENTATION_STYLE_ASSIGNMENT((#86));
#88=STYLED_ITEM('',(#87),#85);
#89=DIRECTION('',(0.E0,1.E0,0.E0));
#90=VECTOR('',#89,1.349545381367E1);
#91=CARTESIAN_POINT('',(-7.9375E0,-6.747726906833E0,0.E0));
#92=LINE('',#91,#90);
#93=CURVE_STYLE('',#40,POSITIVE_LENGTH_MEASURE(2.E-2),#21);
#94=PRESENTATION_STYLE_ASSIGNMENT((#93));
#95=STYLED_ITEM('',(#94),#92);
#96=DIRECTION('',(0.E0,-1.908089953765E-1,-9.816271834477E-1));
#97=VECTOR('',#96,4.849091467987E0);
#98=CARTESIAN_POINT('',(-6.747726906833E0,7.9375E0,0.E0));
#99=LINE('',#98,#97);
#100=CURVE_STYLE('',#40,POSITIVE_LENGTH_MEASURE(2.E-2),#21);
#101=PRESENTATION_STYLE_ASSIGNMENT((#100));
#102=STYLED_ITEM('',(#101),#99);
#103=DIRECTION('',(1.908089953765E-1,0.E0,-9.816271834477E-1));
#104=VECTOR('',#103,4.849091467987E0);
#105=CARTESIAN_POINT('',(-7.9375E0,6.747726906833E0,0.E0));
#106=LINE('',#105,#104);
#107=CURVE_STYLE('',#40,POSITIVE_LENGTH_MEASURE(2.E-2),#21);
#108=PRESENTATION_STYLE_ASSIGNMENT((#107));
#109=STYLED_ITEM('',(#108),#106);
#110=DIRECTION('',(1.908089953765E-1,0.E0,-9.816271834477E-1));
#111=VECTOR('',#110,4.849091467987E0);
#112=CARTESIAN_POINT('',(-7.9375E0,-6.747726906833E0,0.E0));
#113=LINE('',#112,#111);
#114=CURVE_STYLE('',#40,POSITIVE_LENGTH_MEASURE(2.E-2),#21);
#115=PRESENTATION_STYLE_ASSIGNMENT((#114));
#116=STYLED_ITEM('',(#115),#113);
#117=DIRECTION('',(0.E0,1.908089953765E-1,-9.816271834477E-1));
#118=VECTOR('',#117,4.849091467987E0);
#119=CARTESIAN_POINT('',(-6.747726906833E0,-7.9375E0,0.E0));
#120=LINE('',#119,#118);
#121=CURVE_STYLE('',#40,POSITIVE_LENGTH_MEASURE(2.E-2),#21);
#122=PRESENTATION_STYLE_ASSIGNMENT((#121));
#123=STYLED_ITEM('',(#122),#120);
#124=DIRECTION('',(0.E0,1.908089953765E-1,-9.816271834477E-1));
#125=VECTOR('',#124,4.849091467987E0);
#126=CARTESIAN_POINT('',(6.747726906833E0,-7.9375E0,0.E0));
#127=LINE('',#126,#125);
#128=CURVE_STYLE('',#40,POSITIVE_LENGTH_MEASURE(2.E-2),#21);
#129=PRESENTATION_STYLE_ASSIGNMENT((#128));
#130=STYLED_ITEM('',(#129),#127);
#131=DIRECTION('',(-1.908089953765E-1,0.E0,-9.816271834477E-1));
#132=VECTOR('',#131,4.849091467987E0);
#133=CARTESIAN_POINT('',(7.9375E0,-6.747726906833E0,0.E0));
#134=LINE('',#133,#132);
#135=CURVE_STYLE('',#40,POSITIVE_LENGTH_MEASURE(2.E-2),#21);
#136=PRESENTATION_STYLE_ASSIGNMENT((#135));
#137=STYLED_ITEM('',(#136),#134);
#138=DIRECTION('',(-1.908089953765E-1,0.E0,-9.816271834477E-1));
#139=VECTOR('',#138,4.849091467987E0);
#140=CARTESIAN_POINT('',(7.9375E0,6.747726906833E0,0.E0));
#141=LINE('',#140,#139);
#142=CURVE_STYLE('',#40,POSITIVE_LENGTH_MEASURE(2.E-2),#21);
#143=PRESENTATION_STYLE_ASSIGNMENT((#142));
#144=STYLED_ITEM('',(#143),#141);
#145=DIRECTION('',(0.E0,-1.908089953765E-1,-9.816271834477E-1));
#146=VECTOR('',#145,4.849091467987E0);
#147=CARTESIAN_POINT('',(6.747726906833E0,7.9375E0,0.E0));
#148=LINE('',#147,#146);
#149=CURVE_STYLE('',#40,POSITIVE_LENGTH_MEASURE(2.E-2),#21);
#150=PRESENTATION_STYLE_ASSIGNMENT((#149));
#151=STYLED_ITEM('',(#150),#148);
#152=CARTESIAN_POINT('',(-6.747726906833E0,6.747726906833E0,-4.76E0));
#153=DIRECTION('',(0.E0,0.E0,-1.E0));
#154=DIRECTION('',(-1.E0,0.E0,0.E0));
#155=AXIS2_PLACEMENT_3D('',#152,#153,#154);
#157=CURVE_STYLE('',#40,POSITIVE_LENGTH_MEASURE(2.E-2),#21);
#158=PRESENTATION_STYLE_ASSIGNMENT((#157));
#159=STYLED_ITEM('',(#158),#156);
#160=DIRECTION('',(0.E0,-1.E0,0.E0));
#161=VECTOR('',#160,1.349545381367E1);
#162=CARTESIAN_POINT('',(-7.012249728504E0,6.747726906833E0,-4.76E0));
#163=LINE('',#162,#161);
#164=CURVE_STYLE('',#40,POSITIVE_LENGTH_MEASURE(2.E-2),#21);
#165=PRESENTATION_STYLE_ASSIGNMENT((#164));
#166=STYLED_ITEM('',(#165),#163);
#167=CARTESIAN_POINT('',(-6.747726906833E0,-6.747726906833E0,-4.76E0));
#168=DIRECTION('',(0.E0,0.E0,-1.E0));
#169=DIRECTION('',(0.E0,-1.E0,0.E0));
#170=AXIS2_PLACEMENT_3D('',#167,#168,#169);
#172=CURVE_STYLE('',#40,POSITIVE_LENGTH_MEASURE(2.E-2),#21);
#173=PRESENTATION_STYLE_ASSIGNMENT((#172));
#174=STYLED_ITEM('',(#173),#171);
#175=DIRECTION('',(1.E0,0.E0,0.E0));
#176=VECTOR('',#175,1.349545381367E1);
#177=CARTESIAN_POINT('',(-6.747726906833E0,-7.012249728504E0,-4.76E0));
#178=LINE('',#177,#176);
#179=CURVE_STYLE('',#40,POSITIVE_LENGTH_MEASURE(2.E-2),#21);
#180=PRESENTATION_STYLE_ASSIGNMENT((#179));
#181=STYLED_ITEM('',(#180),#178);
#182=CARTESIAN_POINT('',(6.747726906833E0,-6.747726906833E0,-4.76E0));
#183=DIRECTION('',(0.E0,0.E0,-1.E0));
#184=DIRECTION('',(1.E0,0.E0,0.E0));
#185=AXIS2_PLACEMENT_3D('',#182,#183,#184);
#187=CURVE_STYLE('',#40,POSITIVE_LENGTH_MEASURE(2.E-2),#21);
#188=PRESENTATION_STYLE_ASSIGNMENT((#187));
#189=STYLED_ITEM('',(#188),#186);
#190=DIRECTION('',(0.E0,1.E0,0.E0));
#191=VECTOR('',#190,1.349545381367E1);
#192=CARTESIAN_POINT('',(7.012249728504E0,-6.747726906833E0,-4.76E0));
#193=LINE('',#192,#191);
#194=CURVE_STYLE('',#40,POSITIVE_LENGTH_MEASURE(2.E-2),#21);
#195=PRESENTATION_STYLE_ASSIGNMENT((#194));
#196=STYLED_ITEM('',(#195),#193);
#197=CARTESIAN_POINT('',(6.747726906833E0,6.747726906833E0,-4.76E0));
#198=DIRECTION('',(0.E0,0.E0,-1.E0));
#199=DIRECTION('',(0.E0,1.E0,0.E0));
#200=AXIS2_PLACEMENT_3D('',#197,#198,#199);
#202=CURVE_STYLE('',#40,POSITIVE_LENGTH_MEASURE(2.E-2),#21);
#203=PRESENTATION_STYLE_ASSIGNMENT((#202));
#204=STYLED_ITEM('',(#203),#201);
#205=DIRECTION('',(-1.E0,0.E0,0.E0));
#206=VECTOR('',#205,1.349545381367E1);
#207=CARTESIAN_POINT('',(6.747726906833E0,7.012249728504E0,-4.76E0));
#208=LINE('',#207,#206);
#209=CURVE_STYLE('',#40,POSITIVE_LENGTH_MEASURE(2.E-2),#21);
#210=PRESENTATION_STYLE_ASSIGNMENT((#209));
#211=STYLED_ITEM('',(#210),#208);
#212=CARTESIAN_POINT('',(-7.9375E0,6.747726906833E0,0.E0));
#213=CARTESIAN_POINT('',(-6.747726906833E0,7.9375E0,0.E0));
#214=VERTEX_POINT('',#212);
#215=VERTEX_POINT('',#213);
#216=CARTESIAN_POINT('',(-7.9375E0,-6.747726906833E0,0.E0));
#217=VERTEX_POINT('',#216);
#218=CARTESIAN_POINT('',(-6.747726906833E0,-7.9375E0,0.E0));
#219=VERTEX_POINT('',#218);
#220=CARTESIAN_POINT('',(6.747726906833E0,-7.9375E0,0.E0));
#221=VERTEX_POINT('',#220);
#222=CARTESIAN_POINT('',(7.9375E0,-6.747726906833E0,0.E0));
#223=VERTEX_POINT('',#222);
#224=CARTESIAN_POINT('',(7.9375E0,6.747726906833E0,0.E0));
#225=VERTEX_POINT('',#224);
#226=CARTESIAN_POINT('',(6.747726906833E0,7.9375E0,0.E0));
#227=VERTEX_POINT('',#226);
#228=CARTESIAN_POINT('',(-7.012249728504E0,6.747726906833E0,-4.76E0));
#229=CARTESIAN_POINT('',(-6.747726906833E0,7.012249728504E0,-4.76E0));
#230=VERTEX_POINT('',#228);
#231=VERTEX_POINT('',#229);
#232=CARTESIAN_POINT('',(-7.012249728504E0,-6.747726906833E0,-4.76E0));
#233=VERTEX_POINT('',#232);
#234=CARTESIAN_POINT('',(-6.747726906833E0,-7.012249728504E0,-4.76E0));
#235=VERTEX_POINT('',#234);
#236=CARTESIAN_POINT('',(6.747726906833E0,-7.012249728504E0,-4.76E0));
#237=VERTEX_POINT('',#236);
#238=CARTESIAN_POINT('',(7.012249728504E0,-6.747726906833E0,-4.76E0));
#239=VERTEX_POINT('',#238);
#240=CARTESIAN_POINT('',(7.012249728504E0,6.747726906833E0,-4.76E0));
#241=VERTEX_POINT('',#240);
#242=CARTESIAN_POINT('',(6.747726906833E0,7.012249728504E0,-4.76E0));
#243=VERTEX_POINT('',#242);
#244=CARTESIAN_POINT('',(0.E0,0.E0,0.E0));
#245=DIRECTION('',(0.E0,0.E0,1.E0));
#246=DIRECTION('',(1.E0,0.E0,0.E0));
#247=AXIS2_PLACEMENT_3D('',#244,#245,#246);
#248=PLANE('',#247);
#250=ORIENTED_EDGE('',*,*,#249,.T.);
#252=ORIENTED_EDGE('',*,*,#251,.T.);
#254=ORIENTED_EDGE('',*,*,#253,.T.);
#256=ORIENTED_EDGE('',*,*,#255,.T.);
#258=ORIENTED_EDGE('',*,*,#257,.T.);
#260=ORIENTED_EDGE('',*,*,#259,.T.);
#262=ORIENTED_EDGE('',*,*,#261,.T.);
#264=ORIENTED_EDGE('',*,*,#263,.T.);
#265=EDGE_LOOP('',(#250,#252,#254,#256,#258,#260,#262,#264));
#266=FACE_OUTER_BOUND('',#265,.F.);
#268=CARTESIAN_POINT('',(-6.747726906833E0,6.747726906833E0,-2.38E0));
#269=DIRECTION('',(0.E0,0.E0,1.E0));
#270=DIRECTION('',(1.E0,0.E0,0.E0));
#271=AXIS2_PLACEMENT_3D('',#268,#269,#270);
#272=CONICAL_SURFACE('',#271,7.271479574194E-1,1.1E1);
#273=ORIENTED_EDGE('',*,*,#249,.F.);
#275=ORIENTED_EDGE('',*,*,#274,.T.);
#277=ORIENTED_EDGE('',*,*,#276,.T.);
#279=ORIENTED_EDGE('',*,*,#278,.F.);
#280=EDGE_LOOP('',(#273,#275,#277,#279));
#281=FACE_OUTER_BOUND('',#280,.F.);
#283=CARTESIAN_POINT('',(-7.9375E0,7.867731707025E0,0.E0));
#284=DIRECTION('',(-9.816271834477E-1,0.E0,-1.908089953765E-1));
#285=DIRECTION('',(0.E0,-1.E0,0.E0));
#286=AXIS2_PLACEMENT_3D('',#283,#284,#285);
#287=PLANE('',#286);
#288=ORIENTED_EDGE('',*,*,#263,.F.);
#290=ORIENTED_EDGE('',*,*,#289,.T.);
#292=ORIENTED_EDGE('',*,*,#291,.F.);
#293=ORIENTED_EDGE('',*,*,#274,.F.);
#294=EDGE_LOOP('',(#288,#290,#292,#293));
#295=FACE_OUTER_BOUND('',#294,.F.);
#297=CARTESIAN_POINT('',(-6.747726906833E0,-6.747726906833E0,-2.38E0));
#298=DIRECTION('',(0.E0,0.E0,1.E0));
#299=DIRECTION('',(1.E0,0.E0,0.E0));
#300=AXIS2_PLACEMENT_3D('',#297,#298,#299);
#301=CONICAL_SURFACE('',#300,7.271479574194E-1,1.1E1);
#302=ORIENTED_EDGE('',*,*,#261,.F.);
#304=ORIENTED_EDGE('',*,*,#303,.T.);
#306=ORIENTED_EDGE('',*,*,#305,.T.);
#307=ORIENTED_EDGE('',*,*,#289,.F.);
#308=EDGE_LOOP('',(#302,#304,#306,#307));
#309=FACE_OUTER_BOUND('',#308,.F.);
#311=CARTESIAN_POINT('',(-7.867731707025E0,-7.9375E0,0.E0));
#312=DIRECTION('',(0.E0,-9.816271834477E-1,-1.908089953765E-1));
#313=DIRECTION('',(1.E0,0.E0,0.E0));
#314=AXIS2_PLACEMENT_3D('',#311,#312,#313);
#315=PLANE('',#314);
#316=ORIENTED_EDGE('',*,*,#259,.F.);
#318=ORIENTED_EDGE('',*,*,#317,.T.);
#320=ORIENTED_EDGE('',*,*,#319,.F.);
#321=ORIENTED_EDGE('',*,*,#303,.F.);
#322=EDGE_LOOP('',(#316,#318,#320,#321));
#323=FACE_OUTER_BOUND('',#322,.F.);
#325=CARTESIAN_POINT('',(6.747726906833E0,-6.747726906833E0,-2.38E0));
#326=DIRECTION('',(0.E0,0.E0,1.E0));
#327=DIRECTION('',(1.E0,0.E0,0.E0));
#328=AXIS2_PLACEMENT_3D('',#325,#326,#327);
#329=CONICAL_SURFACE('',#328,7.271479574194E-1,1.1E1);
#330=ORIENTED_EDGE('',*,*,#257,.F.);
#332=ORIENTED_EDGE('',*,*,#331,.T.);
#334=ORIENTED_EDGE('',*,*,#333,.T.);
#335=ORIENTED_EDGE('',*,*,#317,.F.);
#336=EDGE_LOOP('',(#330,#332,#334,#335));
#337=FACE_OUTER_BOUND('',#336,.F.);
#339=CARTESIAN_POINT('',(7.9375E0,-7.867731707025E0,0.E0));
#340=DIRECTION('',(9.816271834477E-1,0.E0,-1.908089953765E-1));
#341=DIRECTION('',(0.E0,1.E0,0.E0));
#342=AXIS2_PLACEMENT_3D('',#339,#340,#341);
#343=PLANE('',#342);
#344=ORIENTED_EDGE('',*,*,#255,.F.);
#346=ORIENTED_EDGE('',*,*,#345,.T.);
#348=ORIENTED_EDGE('',*,*,#347,.F.);
#349=ORIENTED_EDGE('',*,*,#331,.F.);
#350=EDGE_LOOP('',(#344,#346,#348,#349));
#351=FACE_OUTER_BOUND('',#350,.F.);
#353=CARTESIAN_POINT('',(6.747726906833E0,6.747726906833E0,-2.38E0));
#354=DIRECTION('',(0.E0,0.E0,1.E0));
#355=DIRECTION('',(1.E0,0.E0,0.E0));
#356=AXIS2_PLACEMENT_3D('',#353,#354,#355);
#357=CONICAL_SURFACE('',#356,7.271479574194E-1,1.1E1);
#358=ORIENTED_EDGE('',*,*,#253,.F.);
#360=ORIENTED_EDGE('',*,*,#359,.T.);
#362=ORIENTED_EDGE('',*,*,#361,.T.);
#363=ORIENTED_EDGE('',*,*,#345,.F.);
#364=EDGE_LOOP('',(#358,#360,#362,#363));
#365=FACE_OUTER_BOUND('',#364,.F.);
#367=CARTESIAN_POINT('',(7.867731707025E0,7.9375E0,0.E0));
#368=DIRECTION('',(0.E0,9.816271834477E-1,-1.908089953765E-1));
#369=DIRECTION('',(-1.E0,0.E0,0.E0));
#370=AXIS2_PLACEMENT_3D('',#367,#368,#369);
#371=PLANE('',#370);
#372=ORIENTED_EDGE('',*,*,#251,.F.);
#373=ORIENTED_EDGE('',*,*,#278,.T.);
#375=ORIENTED_EDGE('',*,*,#374,.F.);
#376=ORIENTED_EDGE('',*,*,#359,.F.);
#377=EDGE_LOOP('',(#372,#373,#375,#376));
#378=FACE_OUTER_BOUND('',#377,.F.);
#380=CARTESIAN_POINT('',(0.E0,0.E0,-4.76E0));
#381=DIRECTION('',(0.E0,0.E0,1.E0));
#382=DIRECTION('',(1.E0,0.E0,0.E0));
#383=AXIS2_PLACEMENT_3D('',#380,#381,#382);
#384=PLANE('',#383);
#385=ORIENTED_EDGE('',*,*,#276,.F.);
#386=ORIENTED_EDGE('',*,*,#291,.T.);
#387=ORIENTED_EDGE('',*,*,#305,.F.);
#388=ORIENTED_EDGE('',*,*,#319,.T.);
#389=ORIENTED_EDGE('',*,*,#333,.F.);
#390=ORIENTED_EDGE('',*,*,#347,.T.);
#391=ORIENTED_EDGE('',*,*,#361,.F.);
#392=ORIENTED_EDGE('',*,*,#374,.T.);
#393=EDGE_LOOP('',(#385,#386,#387,#388,#389,#390,#391,#392));
#394=FACE_OUTER_BOUND('',#393,.F.);
#398=FILL_AREA_STYLE_COLOUR('',#21);
#399=FILL_AREA_STYLE('',(#398));
#400=SURFACE_STYLE_FILL_AREA(#399);
#401=SURFACE_SIDE_STYLE('',(#400));
#402=SURFACE_STYLE_USAGE(.BOTH.,#401);
#403=PRESENTATION_STYLE_ASSIGNMENT((#402));
#34=STYLED_ITEM('',(#403),#397);
#404=CARTESIAN_POINT('',(0.E0,0.E0,0.E0));
#405=DIRECTION('',(0.E0,0.E0,1.E0));
#406=DIRECTION('',(1.E0,0.E0,0.E0));
#407=AXIS2_PLACEMENT_3D('MCS',#404,#405,#406);
#408=CURVE_STYLE('',#40,POSITIVE_LENGTH_MEASURE(2.E-2),#31);
#409=PRESENTATION_STYLE_ASSIGNMENT((#408));
#410=STYLED_ITEM('',(#409),#407);
#411=CARTESIAN_POINT('',(-7.9375E0,-7.9375E0,0.E0));
#412=DIRECTION('',(0.E0,0.E0,1.E0));
#413=DIRECTION('',(1.E0,0.E0,0.E0));
#414=AXIS2_PLACEMENT_3D('PCS',#411,#412,#413);
#415=CURVE_STYLE('',#40,POSITIVE_LENGTH_MEASURE(2.E-2),#31);
#416=PRESENTATION_STYLE_ASSIGNMENT((#415));
#417=STYLED_ITEM('',(#416),#414);
#418=DIRECTION('',(1.E0,0.E0,0.E0));
#419=VECTOR('',#418,1.349545381367E1);
#420=CARTESIAN_POINT('',(-6.747726906833E0,7.9375E0,0.E0));
#421=LINE('',#420,#419);
#423=CURVE_STYLE('',#40,POSITIVE_LENGTH_MEASURE(2.E-2),#2);
#424=PRESENTATION_STYLE_ASSIGNMENT((#423));
#425=STYLED_ITEM('',(#424),#422);
#427=CARTESIAN_POINT('',(6.747726906833E0,6.747726906833E0,0.E0));
#428=DIRECTION('',(0.E0,0.E0,-1.E0));
#429=DIRECTION('',(0.E0,1.E0,0.E0));
#430=AXIS2_PLACEMENT_3D('',#427,#428,#429);
#433=CURVE_STYLE('',#40,POSITIVE_LENGTH_MEASURE(2.E-2),#2);
#434=PRESENTATION_STYLE_ASSIGNMENT((#433));
#435=STYLED_ITEM('',(#434),#432);
#437=DIRECTION('',(0.E0,-1.E0,0.E0));
#438=VECTOR('',#437,1.349545381367E1);
#439=CARTESIAN_POINT('',(7.9375E0,6.747726906833E0,0.E0));
#440=LINE('',#439,#438);
#442=CURVE_STYLE('',#40,POSITIVE_LENGTH_MEASURE(2.E-2),#2);
#443=PRESENTATION_STYLE_ASSIGNMENT((#442));
#444=STYLED_ITEM('',(#443),#441);
#446=CARTESIAN_POINT('',(6.747726906833E0,-6.747726906833E0,0.E0));
#447=DIRECTION('',(0.E0,0.E0,-1.E0));
#448=DIRECTION('',(1.E0,0.E0,0.E0));
#449=AXIS2_PLACEMENT_3D('',#446,#447,#448);
#452=CURVE_STYLE('',#40,POSITIVE_LENGTH_MEASURE(2.E-2),#2);
#453=PRESENTATION_STYLE_ASSIGNMENT((#452));
#454=STYLED_ITEM('',(#453),#451);
#456=DIRECTION('',(-1.E0,0.E0,0.E0));
#457=VECTOR('',#456,1.349545381367E1);
#458=CARTESIAN_POINT('',(6.747726906833E0,-7.9375E0,0.E0));
#459=LINE('',#458,#457);
#461=CURVE_STYLE('',#40,POSITIVE_LENGTH_MEASURE(2.E-2),#2);
#462=PRESENTATION_STYLE_ASSIGNMENT((#461));
#463=STYLED_ITEM('',(#462),#460);
#465=CARTESIAN_POINT('',(-6.747726906833E0,-6.747726906833E0,0.E0));
#466=DIRECTION('',(0.E0,0.E0,-1.E0));
#467=DIRECTION('',(0.E0,-1.E0,0.E0));
#468=AXIS2_PLACEMENT_3D('',#465,#466,#467);
#471=CURVE_STYLE('',#40,POSITIVE_LENGTH_MEASURE(2.E-2),#2);
#472=PRESENTATION_STYLE_ASSIGNMENT((#471));
#473=STYLED_ITEM('',(#472),#470);
#475=DIRECTION('',(0.E0,1.E0,0.E0));
#476=VECTOR('',#475,1.349545381367E1);
#477=CARTESIAN_POINT('',(-7.9375E0,-6.747726906833E0,0.E0));
#478=LINE('',#477,#476);
#480=CURVE_STYLE('',#40,POSITIVE_LENGTH_MEASURE(2.E-2),#2);
#481=PRESENTATION_STYLE_ASSIGNMENT((#480));
#482=STYLED_ITEM('',(#481),#479);
#484=CARTESIAN_POINT('',(-6.747726906833E0,6.747726906833E0,0.E0));
#485=DIRECTION('',(0.E0,0.E0,-1.E0));
#486=DIRECTION('',(-1.E0,0.E0,0.E0));
#487=AXIS2_PLACEMENT_3D('',#484,#485,#486);
#490=CURVE_STYLE('',#40,POSITIVE_LENGTH_MEASURE(2.E-2),#2);
#491=PRESENTATION_STYLE_ASSIGNMENT((#490));
#492=STYLED_ITEM('',(#491),#489);
#496=PRESENTATION_LAYER_ASSIGNMENT('ALL_CSYS','',(#407,#414));
#497=PRESENTATION_LAYER_ASSIGNMENT('ALL_CURVES','',(#494));
#498=PRESENTATION_LAYER_ASSIGNMENT('ALL_FEATURES','',(#407,#414,#494));
#501=PLANE_ANGLE_MEASURE_WITH_UNIT(PLANE_ANGLE_MEASURE(1.745329251994E-2),#500);
#502=(CONVERSION_BASED_UNIT('DEGREE',#501)NAMED_UNIT(*)PLANE_ANGLE_UNIT());
#504=UNCERTAINTY_MEASURE_WITH_UNIT(LENGTH_MEASURE(1.E-3),#499,
'distance_accuracy_value',
'Maximum model space distance between geometric entities at asserted connectivities');
#495=GEOMETRIC_CURVE_SET('',(#494));
#509=CARTESIAN_POINT('',(0.E0,0.E0,0.E0));
#510=DIRECTION('',(0.E0,0.E0,1.E0));
#511=DIRECTION('',(1.E0,0.E0,0.E0));
#514=SHAPE_REPRESENTATION_RELATIONSHIP('','',#513,#506);
#515=SHAPE_REPRESENTATION_RELATIONSHIP('','',#513,#507);
#516=CONSTRUCTIVE_GEOMETRY_REPRESENTATION_RELATIONSHIP('','',#513,#508);
#517=MECHANICAL_DESIGN_GEOMETRIC_PRESENTATION_REPRESENTATION('',(#43,#50,#58,
#65,#73,#80,#88,#95,#102,#109,#116,#123,#130,#137,#144,#151,#159,#166,#174,#181,
#189,#196,#204,#211,#34,#410,#417,#425,#435,#444,#454,#463,#473,#482,#492),
#505);
#518=APPLICATION_CONTEXT('automotive_design');
#519=APPLICATION_PROTOCOL_DEFINITION('international standard',
'automotive_design',2001,#518);
#520=PRODUCT_DEFINITION_CONTEXT('part definition',#518,'design');
#521=PRODUCT_CONTEXT('',#518,'mechanical');
#522=PRODUCT('SP150412N','SP150412N','NOT SPECIFIED',(#521));
#523=PRODUCT_DEFINITION_FORMATION('2','LAST_VERSION',#522);
#531=DERIVED_UNIT_ELEMENT(#530,2.E0);
#532=DERIVED_UNIT((#531));
#533=MEASURE_REPRESENTATION_ITEM('surface area measure',AREA_MEASURE(
7.313443330216E2),#532);
#538=DERIVED_UNIT_ELEMENT(#537,3.E0);
#539=DERIVED_UNIT((#538));
#540=MEASURE_REPRESENTATION_ITEM('volume measure',VOLUME_MEASURE(
1.062742642913E3),#539);
#544=CARTESIAN_POINT('centre point',(0.E0,1.144631931102E-14,
-2.283751207337E0));
#549=DERIVED_UNIT_ELEMENT(#548,2.E0);
#550=DERIVED_UNIT((#549));
#551=MEASURE_REPRESENTATION_ITEM('surface area measure',AREA_MEASURE(
7.313443330216E2),#550);
#556=DERIVED_UNIT_ELEMENT(#555,3.E0);
#557=DERIVED_UNIT((#556));
#558=MEASURE_REPRESENTATION_ITEM('volume measure',VOLUME_MEASURE(
1.062742642913E3),#557);
#562=CARTESIAN_POINT('centre point',(0.E0,1.144631931102E-14,
-2.283751207337E0));
#567=PRODUCT_RELATED_PRODUCT_CATEGORY('part','',(#522));
#1=COLOUR_RGB('',0.E0,0.E0,2.E-1);
#2=DRAUGHTING_PRE_DEFINED_COLOUR('blue');
#3=COLOUR_RGB('',0.E0,9.490196078431E-1,1.E0);
#4=DRAUGHTING_PRE_DEFINED_COLOUR('green');
#5=COLOUR_RGB('',1.098039215686E-1,1.098039215686E-1,1.098039215686E-1);
#6=COLOUR_RGB('',2.E-1,2.E-1,6.E-1);
#7=COLOUR_RGB('',2.E-1,4.E-1,8.E-1);
#8=COLOUR_RGB('',2.745098039216E-1,1.960784313725E-1,3.921568627451E-1);
#9=COLOUR_RGB('',3.01961E-1,3.01961E-1,3.01961E-1);
#10=COLOUR_RGB('',3.921568627451E-1,1.176470588235E-2,1.176470588235E-2);
#11=COLOUR_RGB('',3.92157E-1,3.92157E-1,3.92157E-1);
#12=COLOUR_RGB('',4.117647058824E-1,0.E0,2.196078431373E-1);
#13=COLOUR_RGB('',4.117647058824E-1,2.627450980392E-1,1.137254901961E-1);
#14=COLOUR_RGB('',5.01961E-1,5.01961E-1,5.01961E-1);
#15=COLOUR_RGB('',5.137254901961E-1,0.E0,0.E0);
#16=COLOUR_RGB('',5.764705882353E-1,5.450980392157E-1,3.921568627451E-1);
#17=COLOUR_RGB('',6.E-1,4.E-1,2.E-1);
#18=COLOUR_RGB('',6.35294E-1,6.86275E-1,7.4902E-1);
#19=COLOUR_RGB('',7.05882E-1,7.05882E-1,7.05882E-1);
#20=COLOUR_RGB('',7.84314E-1,5.29412E-1,7.84314E-1);
#21=COLOUR_RGB('',8.E-1,8.E-1,8.E-1);
#22=COLOUR_RGB('',8.23529E-1,8.23529E-1,8.23529E-1);
#23=COLOUR_RGB('',8.784313725490E-1,9.490196078431E-1,1.E0);
#24=COLOUR_RGB('',9.215686274510E-1,7.058823529412E-1,4.705882352941E-1);
#25=COLOUR_RGB('',9.80392E-1,9.80392E-1,9.80392E-1);
#26=DRAUGHTING_PRE_DEFINED_COLOUR('red');
#27=COLOUR_RGB('',1.E0,0.E0,2.E-1);
#28=COLOUR_RGB('',1.E0,6.66667E-1,0.E0);
#29=COLOUR_RGB('',1.E0,7.63913E-1,1.92109E-1);
#30=COLOUR_RGB('',1.E0,8.39216E-1,8.90196E-1);
#31=DRAUGHTING_PRE_DEFINED_COLOUR('yellow');
#32=COLOUR_RGB('',1.E0,1.E0,5.294117647059E-1);
#33=COLOUR_RGB('',1.E0,1.E0,9.41176E-1);
#39=CIRCLE('',#38,1.189773093167E0);
#55=CIRCLE('',#54,1.189773093167E0);
#70=CIRCLE('',#69,1.189773093167E0);
#85=CIRCLE('',#84,1.189773093167E0);
#156=CIRCLE('',#155,2.645228216717E-1);
#171=CIRCLE('',#170,2.645228216717E-1);
#186=CIRCLE('',#185,2.645228216717E-1);
#201=CIRCLE('',#200,2.645228216717E-1);
#249=EDGE_CURVE('',#214,#215,#39,.T.);
#251=EDGE_CURVE('',#215,#227,#47,.T.);
#253=EDGE_CURVE('',#227,#225,#55,.T.);
#255=EDGE_CURVE('',#225,#223,#62,.T.);
#257=EDGE_CURVE('',#223,#221,#70,.T.);
#259=EDGE_CURVE('',#221,#219,#77,.T.);
#261=EDGE_CURVE('',#219,#217,#85,.T.);
#263=EDGE_CURVE('',#217,#214,#92,.T.);
#267=ADVANCED_FACE('',(#266),#248,.T.);
#274=EDGE_CURVE('',#214,#230,#106,.T.);
#276=EDGE_CURVE('',#230,#231,#156,.T.);
#278=EDGE_CURVE('',#215,#231,#99,.T.);
#282=ADVANCED_FACE('',(#281),#272,.T.);
#289=EDGE_CURVE('',#217,#233,#113,.T.);
#291=EDGE_CURVE('',#230,#233,#163,.T.);
#296=ADVANCED_FACE('',(#295),#287,.T.);
#303=EDGE_CURVE('',#219,#235,#120,.T.);
#305=EDGE_CURVE('',#235,#233,#171,.T.);
#310=ADVANCED_FACE('',(#309),#301,.T.);
#317=EDGE_CURVE('',#221,#237,#127,.T.);
#319=EDGE_CURVE('',#235,#237,#178,.T.);
#324=ADVANCED_FACE('',(#323),#315,.T.);
#331=EDGE_CURVE('',#223,#239,#134,.T.);
#333=EDGE_CURVE('',#239,#237,#186,.T.);
#338=ADVANCED_FACE('',(#337),#329,.T.);
#345=EDGE_CURVE('',#225,#241,#141,.T.);
#347=EDGE_CURVE('',#239,#241,#193,.T.);
#352=ADVANCED_FACE('',(#351),#343,.T.);
#359=EDGE_CURVE('',#227,#243,#148,.T.);
#361=EDGE_CURVE('',#243,#241,#201,.T.);
#366=ADVANCED_FACE('',(#365),#357,.T.);
#374=EDGE_CURVE('',#243,#231,#208,.T.);
#379=ADVANCED_FACE('',(#378),#371,.T.);
#395=ADVANCED_FACE('',(#394),#384,.F.);
#396=CLOSED_SHELL('',(#267,#282,#296,#310,#324,#338,#352,#366,#379,#395));
#397=MANIFOLD_SOLID_BREP('',#396);
#422=TRIMMED_CURVE('',#421,(PARAMETER_VALUE(0.E0)),(PARAMETER_VALUE(1.E0)),.T.,
.UNSPECIFIED.);
#426=COMPOSITE_CURVE_SEGMENT(.CONTINUOUS.,.T.,#422);
#431=CIRCLE('',#430,1.189773093167E0);
#432=TRIMMED_CURVE('',#431,(PARAMETER_VALUE(0.E0)),(PARAMETER_VALUE(9.E1)),.T.,
.UNSPECIFIED.);
#436=COMPOSITE_CURVE_SEGMENT(.CONTINUOUS.,.T.,#432);
#441=TRIMMED_CURVE('',#440,(PARAMETER_VALUE(0.E0)),(PARAMETER_VALUE(1.E0)),.T.,
.UNSPECIFIED.);
#445=COMPOSITE_CURVE_SEGMENT(.CONTINUOUS.,.T.,#441);
#450=CIRCLE('',#449,1.189773093167E0);
#451=TRIMMED_CURVE('',#450,(PARAMETER_VALUE(0.E0)),(PARAMETER_VALUE(9.E1)),.T.,
.UNSPECIFIED.);
#455=COMPOSITE_CURVE_SEGMENT(.CONTINUOUS.,.T.,#451);
#460=TRIMMED_CURVE('',#459,(PARAMETER_VALUE(0.E0)),(PARAMETER_VALUE(1.E0)),.T.,
.UNSPECIFIED.);
#464=COMPOSITE_CURVE_SEGMENT(.CONTINUOUS.,.T.,#460);
#469=CIRCLE('',#468,1.189773093167E0);
#470=TRIMMED_CURVE('',#469,(PARAMETER_VALUE(0.E0)),(PARAMETER_VALUE(9.E1)),.T.,
.UNSPECIFIED.);
#474=COMPOSITE_CURVE_SEGMENT(.CONTINUOUS.,.T.,#470);
#479=TRIMMED_CURVE('',#478,(PARAMETER_VALUE(0.E0)),(PARAMETER_VALUE(1.E0)),.T.,
.UNSPECIFIED.);
#483=COMPOSITE_CURVE_SEGMENT(.CONTINUOUS.,.T.,#479);
#488=CIRCLE('',#487,1.189773093167E0);
#489=TRIMMED_CURVE('',#488,(PARAMETER_VALUE(0.E0)),(PARAMETER_VALUE(9.E1)),.T.,
.UNSPECIFIED.);
#493=COMPOSITE_CURVE_SEGMENT(.CONTINUOUS.,.T.,#489);
#494=COMPOSITE_CURVE('',(#426,#436,#445,#455,#464,#474,#483,#493),.F.);
#499=(LENGTH_UNIT()NAMED_UNIT(*)SI_UNIT(.MILLI.,.METRE.));
#500=(NAMED_UNIT(*)PLANE_ANGLE_UNIT()SI_UNIT($,.RADIAN.));
#503=(NAMED_UNIT(*)SI_UNIT($,.STERADIAN.)SOLID_ANGLE_UNIT());
#505=(GEOMETRIC_REPRESENTATION_CONTEXT(3)GLOBAL_UNCERTAINTY_ASSIGNED_CONTEXT((
#504))GLOBAL_UNIT_ASSIGNED_CONTEXT((#499,#502,#503))REPRESENTATION_CONTEXT
('ID1','3'));
#506=ADVANCED_BREP_SHAPE_REPRESENTATION('',(#397),#505);
#507=GEOMETRICALLY_BOUNDED_WIREFRAME_SHAPE_REPRESENTATION('',(#495),#505);
#508=CONSTRUCTIVE_GEOMETRY_REPRESENTATION('supplemental geometry',(#407,#414),
#505);
#512=AXIS2_PLACEMENT_3D('',#509,#510,#511);
#513=SHAPE_REPRESENTATION('',(#512),#505);
#524=PRODUCT_DEFINITION('part definition','',#523,#520);
#525=PRODUCT_DEFINITION_SHAPE('','SHAPE FOR SP150412N.',#524);
#526=SHAPE_ASPECT('','solid data associated with SP150412N',#525,.F.);
#527=PROPERTY_DEFINITION('',
'shape for solid data with which properties are associated',#526);
#528=SHAPE_REPRESENTATION('',(#397),#505);
#529=SHAPE_DEFINITION_REPRESENTATION(#527,#528);
#530=(LENGTH_UNIT()NAMED_UNIT(*)SI_UNIT(.MILLI.,.METRE.));
#534=PROPERTY_DEFINITION('geometric validation property','area of SP150412N',
#526);
#535=REPRESENTATION('surface area',(#533),#505);
#536=PROPERTY_DEFINITION_REPRESENTATION(#534,#535);
#537=(LENGTH_UNIT()NAMED_UNIT(*)SI_UNIT(.MILLI.,.METRE.));
#541=PROPERTY_DEFINITION('geometric validation property','volume of SP150412N',
#526);
#542=REPRESENTATION('volume',(#540),#505);
#543=PROPERTY_DEFINITION_REPRESENTATION(#541,#542);
#545=PROPERTY_DEFINITION('geometric validation property',
'centroid of SP150412N',#526);
#546=REPRESENTATION('centroid',(#544),#505);
#547=PROPERTY_DEFINITION_REPRESENTATION(#545,#546);
#548=(LENGTH_UNIT()NAMED_UNIT(*)SI_UNIT(.MILLI.,.METRE.));
#552=PROPERTY_DEFINITION('geometric validation property','area of SP150412N',
#525);
#553=REPRESENTATION('surface area',(#551),#505);
#554=PROPERTY_DEFINITION_REPRESENTATION(#552,#553);
#555=(LENGTH_UNIT()NAMED_UNIT(*)SI_UNIT(.MILLI.,.METRE.));
#559=PROPERTY_DEFINITION('geometric validation property','volume of SP150412N',
#525);
#560=REPRESENTATION('volume',(#558),#505);
#561=PROPERTY_DEFINITION_REPRESENTATION(#559,#560);
#563=PROPERTY_DEFINITION('geometric validation property',
'centroid of SP150412N',#525);
#564=REPRESENTATION('centroid',(#562),#505);
#565=PROPERTY_DEFINITION_REPRESENTATION(#563,#564);
#566=SHAPE_DEFINITION_REPRESENTATION(#525,#513);
ENDSEC;
END-ISO-10303-21;
