ISO-10303-21;
HEADER;
/* Generated by software containing ST-Developer
 * from STEP Tools, Inc. (www.steptools.com) 
 */
/* OPTION: using custom schema-name function */

FILE_DESCRIPTION(
/* description */ (''),
/* implementation_level */ '2;1');

FILE_NAME(
/* name */ 'CN190612N.stp',
/* time_stamp */ '2021-11-11T11:52:02+09:00',
/* author */ (''),
/* organization */ (''),
/* preprocessor_version */ 'ST-DEVELOPER v16',
/* originating_system */ 'SIEMENS PLM Software NX 10.0',
/* authorisation */ '');

FILE_SCHEMA (('AUTOMOTIVE_DESIGN { 1 0 10303 214 3 1 1 1 }'));
ENDSEC;

DATA;
#10=CONSTRUCTIVE_GEOMETRY_REPRESENTATION_RELATIONSHIP(
'supplemental geometry','',#26,#11);
#11=CONSTRUCTIVE_GEOMETRY_REPRESENTATION('supplemental geometry',(#330,
#331,#332),#520);
#12=GEOMETRICALLY_BOUNDED_WIREFRAME_SHAPE_REPRESENTATION(
'CN190612N-None',(#27),#520);
#13=SHAPE_REPRESENTATION_RELATIONSHIP('None',
'relationship between CN190612N-None and CN190612N-None',#26,#15);
#14=SHAPE_REPRESENTATION_RELATIONSHIP('None',
'relationship between CN190612N-None and CN190612N-None',#26,#12);
#15=ADVANCED_BREP_SHAPE_REPRESENTATION('CN190612N-None',(#33),#520);
#16=SHAPE_DEFINITION_REPRESENTATION(#17,#26);
#17=PRODUCT_DEFINITION_SHAPE('','',#18);
#18=PRODUCT_DEFINITION('part definition','',#20,#19);
#19=PRODUCT_DEFINITION_CONTEXT('part definition',#25,'design');
#20=PRODUCT_DEFINITION_FORMATION_WITH_SPECIFIED_SOURCE(' ',' ',#22,
 .NOT_KNOWN.);
#21=PRODUCT_RELATED_PRODUCT_CATEGORY('part','',(#22));
#22=PRODUCT('CN190612L','CN190612L','NOT SPECIFIED',(#23));
#23=PRODUCT_CONTEXT('',#25,'mechanical');
#24=APPLICATION_PROTOCOL_DEFINITION('international standard',
'automotive_design',2010,#25);
#25=APPLICATION_CONTEXT(
'core data for automotive mechanical design processes');
#26=SHAPE_REPRESENTATION('CN190612N-None',(#325),#520);
#27=GEOMETRIC_CURVE_SET('None',(#444,#445,#237,#238,#239,#240,#241,#242,
#243,#244));
#28=SURFACE_STYLE_USAGE(.BOTH.,#29);
#29=SURFACE_SIDE_STYLE('',(#30));
#30=SURFACE_STYLE_FILL_AREA(#31);
#31=FILL_AREA_STYLE('',(#32));
#32=FILL_AREA_STYLE_COLOUR('',#198);
#33=MANIFOLD_SOLID_BREP('',#34);
#34=CLOSED_SHELL('',(#51,#52,#53,#54,#55,#56,#57,#58,#59,#60,#61,#62));
#35=CYLINDRICAL_SURFACE('',#341,1.2);
#36=CYLINDRICAL_SURFACE('',#348,1.2);
#37=CYLINDRICAL_SURFACE('',#350,1.2);
#38=CYLINDRICAL_SURFACE('',#353,1.2);
#39=CYLINDRICAL_SURFACE('',#355,3.965);
#40=CYLINDRICAL_SURFACE('',#356,3.965);
#41=FACE_OUTER_BOUND('',#75,.T.);
#42=FACE_OUTER_BOUND('',#78,.T.);
#43=FACE_OUTER_BOUND('',#79,.T.);
#44=FACE_OUTER_BOUND('',#80,.T.);
#45=FACE_OUTER_BOUND('',#81,.T.);
#46=FACE_OUTER_BOUND('',#82,.T.);
#47=FACE_OUTER_BOUND('',#83,.T.);
#48=FACE_OUTER_BOUND('',#84,.T.);
#49=FACE_OUTER_BOUND('',#85,.T.);
#50=FACE_OUTER_BOUND('',#86,.T.);
#51=ADVANCED_FACE('',(#69,#70),#63,.T.);
#52=ADVANCED_FACE('',(#41),#35,.T.);
#53=ADVANCED_FACE('',(#71,#72),#64,.F.);
#54=ADVANCED_FACE('',(#42),#36,.T.);
#55=ADVANCED_FACE('',(#43),#65,.T.);
#56=ADVANCED_FACE('',(#44),#37,.T.);
#57=ADVANCED_FACE('',(#45),#66,.T.);
#58=ADVANCED_FACE('',(#46),#67,.T.);
#59=ADVANCED_FACE('',(#47),#38,.T.);
#60=ADVANCED_FACE('',(#48),#68,.T.);
#61=ADVANCED_FACE('',(#49),#39,.F.);
#62=ADVANCED_FACE('',(#50),#40,.F.);
#63=PLANE('',#339);
#64=PLANE('',#347);
#65=PLANE('',#349);
#66=PLANE('',#351);
#67=PLANE('',#352);
#68=PLANE('',#354);
#69=FACE_BOUND('',#73,.T.);
#70=FACE_BOUND('',#74,.T.);
#71=FACE_BOUND('',#76,.T.);
#72=FACE_BOUND('',#77,.T.);
#73=EDGE_LOOP('',(#87,#88,#89,#90,#91,#92,#93,#94));
#74=EDGE_LOOP('',(#95,#96));
#75=EDGE_LOOP('',(#97,#98,#99,#100));
#76=EDGE_LOOP('',(#101,#102,#103,#104,#105,#106,#107,#108));
#77=EDGE_LOOP('',(#109,#110));
#78=EDGE_LOOP('',(#111,#112,#113,#114));
#79=EDGE_LOOP('',(#115,#116,#117,#118));
#80=EDGE_LOOP('',(#119,#120,#121,#122));
#81=EDGE_LOOP('',(#123,#124,#125,#126));
#82=EDGE_LOOP('',(#127,#128,#129,#130));
#83=EDGE_LOOP('',(#131,#132,#133,#134));
#84=EDGE_LOOP('',(#135,#136,#137,#138));
#85=EDGE_LOOP('',(#139,#140,#141,#142));
#86=EDGE_LOOP('',(#143,#144,#145,#146));
#87=ORIENTED_EDGE('',*,*,#167,.F.);
#88=ORIENTED_EDGE('',*,*,#168,.F.);
#89=ORIENTED_EDGE('',*,*,#169,.F.);
#90=ORIENTED_EDGE('',*,*,#170,.F.);
#91=ORIENTED_EDGE('',*,*,#171,.F.);
#92=ORIENTED_EDGE('',*,*,#172,.F.);
#93=ORIENTED_EDGE('',*,*,#173,.F.);
#94=ORIENTED_EDGE('',*,*,#174,.F.);
#95=ORIENTED_EDGE('',*,*,#175,.F.);
#96=ORIENTED_EDGE('',*,*,#176,.F.);
#97=ORIENTED_EDGE('',*,*,#177,.F.);
#98=ORIENTED_EDGE('',*,*,#174,.T.);
#99=ORIENTED_EDGE('',*,*,#178,.F.);
#100=ORIENTED_EDGE('',*,*,#179,.T.);
#101=ORIENTED_EDGE('',*,*,#180,.F.);
#102=ORIENTED_EDGE('',*,*,#181,.F.);
#103=ORIENTED_EDGE('',*,*,#182,.F.);
#104=ORIENTED_EDGE('',*,*,#179,.F.);
#105=ORIENTED_EDGE('',*,*,#183,.F.);
#106=ORIENTED_EDGE('',*,*,#184,.F.);
#107=ORIENTED_EDGE('',*,*,#185,.F.);
#108=ORIENTED_EDGE('',*,*,#186,.F.);
#109=ORIENTED_EDGE('',*,*,#187,.F.);
#110=ORIENTED_EDGE('',*,*,#188,.F.);
#111=ORIENTED_EDGE('',*,*,#189,.F.);
#112=ORIENTED_EDGE('',*,*,#170,.T.);
#113=ORIENTED_EDGE('',*,*,#190,.F.);
#114=ORIENTED_EDGE('',*,*,#186,.T.);
#115=ORIENTED_EDGE('',*,*,#169,.T.);
#116=ORIENTED_EDGE('',*,*,#191,.T.);
#117=ORIENTED_EDGE('',*,*,#180,.T.);
#118=ORIENTED_EDGE('',*,*,#190,.T.);
#119=ORIENTED_EDGE('',*,*,#191,.F.);
#120=ORIENTED_EDGE('',*,*,#168,.T.);
#121=ORIENTED_EDGE('',*,*,#192,.F.);
#122=ORIENTED_EDGE('',*,*,#181,.T.);
#123=ORIENTED_EDGE('',*,*,#182,.T.);
#124=ORIENTED_EDGE('',*,*,#192,.T.);
#125=ORIENTED_EDGE('',*,*,#167,.T.);
#126=ORIENTED_EDGE('',*,*,#177,.T.);
#127=ORIENTED_EDGE('',*,*,#185,.T.);
#128=ORIENTED_EDGE('',*,*,#193,.T.);
#129=ORIENTED_EDGE('',*,*,#171,.T.);
#130=ORIENTED_EDGE('',*,*,#189,.T.);
#131=ORIENTED_EDGE('',*,*,#194,.F.);
#132=ORIENTED_EDGE('',*,*,#172,.T.);
#133=ORIENTED_EDGE('',*,*,#193,.F.);
#134=ORIENTED_EDGE('',*,*,#184,.T.);
#135=ORIENTED_EDGE('',*,*,#173,.T.);
#136=ORIENTED_EDGE('',*,*,#194,.T.);
#137=ORIENTED_EDGE('',*,*,#183,.T.);
#138=ORIENTED_EDGE('',*,*,#178,.T.);
#139=ORIENTED_EDGE('',*,*,#195,.F.);
#140=ORIENTED_EDGE('',*,*,#188,.T.);
#141=ORIENTED_EDGE('',*,*,#196,.T.);
#142=ORIENTED_EDGE('',*,*,#176,.T.);
#143=ORIENTED_EDGE('',*,*,#196,.F.);
#144=ORIENTED_EDGE('',*,*,#187,.T.);
#145=ORIENTED_EDGE('',*,*,#195,.T.);
#146=ORIENTED_EDGE('',*,*,#175,.T.);
#147=VERTEX_POINT('',#458);
#148=VERTEX_POINT('',#459);
#149=VERTEX_POINT('',#461);
#150=VERTEX_POINT('',#463);
#151=VERTEX_POINT('',#465);
#152=VERTEX_POINT('',#467);
#153=VERTEX_POINT('',#469);
#154=VERTEX_POINT('',#471);
#155=VERTEX_POINT('',#474);
#156=VERTEX_POINT('',#475);
#157=VERTEX_POINT('',#479);
#158=VERTEX_POINT('',#481);
#159=VERTEX_POINT('',#485);
#160=VERTEX_POINT('',#486);
#161=VERTEX_POINT('',#488);
#162=VERTEX_POINT('',#491);
#163=VERTEX_POINT('',#493);
#164=VERTEX_POINT('',#495);
#165=VERTEX_POINT('',#498);
#166=VERTEX_POINT('',#499);
#167=EDGE_CURVE('',#147,#148,#249,.T.);
#168=EDGE_CURVE('',#149,#147,#203,.T.);
#169=EDGE_CURVE('',#150,#149,#250,.T.);
#170=EDGE_CURVE('',#151,#150,#204,.T.);
#171=EDGE_CURVE('',#152,#151,#251,.T.);
#172=EDGE_CURVE('',#153,#152,#205,.T.);
#173=EDGE_CURVE('',#154,#153,#252,.T.);
#174=EDGE_CURVE('',#148,#154,#206,.T.);
#175=EDGE_CURVE('',#155,#156,#207,.T.);
#176=EDGE_CURVE('',#156,#155,#208,.T.);
#177=EDGE_CURVE('',#148,#157,#253,.T.);
#178=EDGE_CURVE('',#158,#154,#254,.T.);
#179=EDGE_CURVE('',#158,#157,#209,.T.);
#180=EDGE_CURVE('',#159,#160,#255,.T.);
#181=EDGE_CURVE('',#161,#159,#210,.T.);
#182=EDGE_CURVE('',#157,#161,#256,.T.);
#183=EDGE_CURVE('',#162,#158,#257,.T.);
#184=EDGE_CURVE('',#163,#162,#211,.T.);
#185=EDGE_CURVE('',#164,#163,#258,.T.);
#186=EDGE_CURVE('',#160,#164,#212,.T.);
#187=EDGE_CURVE('',#165,#166,#213,.T.);
#188=EDGE_CURVE('',#166,#165,#214,.T.);
#189=EDGE_CURVE('',#151,#164,#259,.T.);
#190=EDGE_CURVE('',#160,#150,#260,.T.);
#191=EDGE_CURVE('',#149,#159,#261,.T.);
#192=EDGE_CURVE('',#161,#147,#262,.T.);
#193=EDGE_CURVE('',#163,#152,#263,.T.);
#194=EDGE_CURVE('',#153,#162,#264,.T.);
#195=EDGE_CURVE('',#166,#155,#265,.T.);
#196=EDGE_CURVE('',#165,#156,#266,.T.);
#197=COLOUR_RGB('Strong Stone',0.576470588235294,0.54508278019379,0.392156862745098);
#198=COLOUR_RGB('cutting part',0.8,0.8,0.8);
#199=CIRCLE('',#326,1.2);
#200=CIRCLE('',#327,1.2);
#201=CIRCLE('',#328,1.2);
#202=CIRCLE('',#329,1.2);
#203=CIRCLE('',#333,1.2);
#204=CIRCLE('',#334,1.2);
#205=CIRCLE('',#335,1.2);
#206=CIRCLE('',#336,1.2);
#207=CIRCLE('',#337,3.965);
#208=CIRCLE('',#338,3.965);
#209=CIRCLE('',#340,1.2);
#210=CIRCLE('',#342,1.2);
#211=CIRCLE('',#343,1.2);
#212=CIRCLE('',#344,1.2);
#213=CIRCLE('',#345,3.965);
#214=CIRCLE('',#346,3.965);
#215=CURVE_STYLE('',#226,POSITIVE_LENGTH_MEASURE(0.18),#324);
#216=CURVE_STYLE('',#227,POSITIVE_LENGTH_MEASURE(0.18),#324);
#217=CURVE_STYLE('',#228,POSITIVE_LENGTH_MEASURE(0.18),#324);
#218=CURVE_STYLE('',#229,POSITIVE_LENGTH_MEASURE(0.18),#324);
#219=CURVE_STYLE('',#230,POSITIVE_LENGTH_MEASURE(0.18),#324);
#220=CURVE_STYLE('',#231,POSITIVE_LENGTH_MEASURE(0.18),#324);
#221=CURVE_STYLE('',#232,POSITIVE_LENGTH_MEASURE(0.18),#324);
#222=CURVE_STYLE('',#233,POSITIVE_LENGTH_MEASURE(0.18),#324);
#223=CURVE_STYLE('',#234,POSITIVE_LENGTH_MEASURE(0.13),#323);
#224=CURVE_STYLE('',#235,POSITIVE_LENGTH_MEASURE(0.13),#323);
#225=CURVE_STYLE('',#236,POSITIVE_LENGTH_MEASURE(0.13),#197);
#226=DRAUGHTING_PRE_DEFINED_CURVE_FONT('continuous');
#227=DRAUGHTING_PRE_DEFINED_CURVE_FONT('continuous');
#228=DRAUGHTING_PRE_DEFINED_CURVE_FONT('continuous');
#229=DRAUGHTING_PRE_DEFINED_CURVE_FONT('continuous');
#230=DRAUGHTING_PRE_DEFINED_CURVE_FONT('continuous');
#231=DRAUGHTING_PRE_DEFINED_CURVE_FONT('continuous');
#232=DRAUGHTING_PRE_DEFINED_CURVE_FONT('continuous');
#233=DRAUGHTING_PRE_DEFINED_CURVE_FONT('continuous');
#234=DRAUGHTING_PRE_DEFINED_CURVE_FONT('continuous');
#235=DRAUGHTING_PRE_DEFINED_CURVE_FONT('continuous');
#236=DRAUGHTING_PRE_DEFINED_CURVE_FONT('continuous');
#237=TRIMMED_CURVE('',#245,(PARAMETER_VALUE(0.)),(PARAMETER_VALUE(1.)),
 .T.,.PARAMETER.);
#238=TRIMMED_CURVE('',#246,(PARAMETER_VALUE(0.)),(PARAMETER_VALUE(1.)),
 .T.,.PARAMETER.);
#239=TRIMMED_CURVE('',#247,(PARAMETER_VALUE(0.)),(PARAMETER_VALUE(1.)),
 .T.,.PARAMETER.);
#240=TRIMMED_CURVE('',#248,(PARAMETER_VALUE(0.)),(PARAMETER_VALUE(1.)),
 .T.,.PARAMETER.);
#241=TRIMMED_CURVE('',#199,(PARAMETER_VALUE(0.)),(PARAMETER_VALUE(79.99999999949)),
 .T.,.PARAMETER.);
#242=TRIMMED_CURVE('',#200,(PARAMETER_VALUE(0.)),(PARAMETER_VALUE(99.99999999912)),
 .T.,.PARAMETER.);
#243=TRIMMED_CURVE('',#201,(PARAMETER_VALUE(0.)),(PARAMETER_VALUE(79.99999999949)),
 .T.,.PARAMETER.);
#244=TRIMMED_CURVE('',#202,(PARAMETER_VALUE(0.)),(PARAMETER_VALUE(99.99999999912)),
 .T.,.PARAMETER.);
#245=LINE('',#446,#267);
#246=LINE('',#447,#268);
#247=LINE('',#448,#269);
#248=LINE('',#449,#270);
#249=LINE('',#457,#271);
#250=LINE('',#462,#272);
#251=LINE('',#466,#273);
#252=LINE('',#470,#274);
#253=LINE('',#478,#275);
#254=LINE('',#480,#276);
#255=LINE('',#484,#277);
#256=LINE('',#489,#278);
#257=LINE('',#490,#279);
#258=LINE('',#494,#280);
#259=LINE('',#502,#281);
#260=LINE('',#503,#282);
#261=LINE('',#505,#283);
#262=LINE('',#507,#284);
#263=LINE('',#510,#285);
#264=LINE('',#512,#286);
#265=LINE('',#515,#287);
#266=LINE('',#516,#288);
#267=VECTOR('',#359,16.9068530879);
#268=VECTOR('',#360,16.9068530879298);
#269=VECTOR('',#361,16.9068530879);
#270=VECTOR('',#362,16.9068530879298);
#271=VECTOR('',#377,1.);
#272=VECTOR('',#380,1.);
#273=VECTOR('',#383,1.);
#274=VECTOR('',#386,1.);
#275=VECTOR('',#395,1.);
#276=VECTOR('',#396,1.);
#277=VECTOR('',#401,1.);
#278=VECTOR('',#404,1.);
#279=VECTOR('',#405,1.);
#280=VECTOR('',#408,1.);
#281=VECTOR('',#417,1.);
#282=VECTOR('',#418,1.);
#283=VECTOR('',#421,1.);
#284=VECTOR('',#424,1.);
#285=VECTOR('',#429,1.);
#286=VECTOR('',#432,1.);
#287=VECTOR('',#437,1.);
#288=VECTOR('',#438,1.);
#289=PRESENTATION_LAYER_ASSIGNMENT('1','Layer 1',(#444,#445,#330,#331,#332,
#33));
#290=PRESENTATION_LAYER_ASSIGNMENT('2','Layer 2',(#237,#238,#239,#240,#241,
#242,#243,#244));
#291=STYLED_ITEM('',(#305),#444);
#292=STYLED_ITEM('',(#306),#445);
#293=STYLED_ITEM('',(#307),#237);
#294=STYLED_ITEM('',(#308),#238);
#295=STYLED_ITEM('',(#309),#239);
#296=STYLED_ITEM('',(#310),#240);
#297=STYLED_ITEM('',(#311),#241);
#298=STYLED_ITEM('',(#312),#242);
#299=STYLED_ITEM('',(#313),#243);
#300=STYLED_ITEM('',(#314),#244);
#301=STYLED_ITEM('',(#315),#330);
#302=STYLED_ITEM('',(#316),#331);
#303=STYLED_ITEM('',(#317),#332);
#304=STYLED_ITEM('',(#318),#33);
#305=PRESENTATION_STYLE_ASSIGNMENT((#319));
#306=PRESENTATION_STYLE_ASSIGNMENT((#320));
#307=PRESENTATION_STYLE_ASSIGNMENT((#215));
#308=PRESENTATION_STYLE_ASSIGNMENT((#216));
#309=PRESENTATION_STYLE_ASSIGNMENT((#217));
#310=PRESENTATION_STYLE_ASSIGNMENT((#218));
#311=PRESENTATION_STYLE_ASSIGNMENT((#219));
#312=PRESENTATION_STYLE_ASSIGNMENT((#220));
#313=PRESENTATION_STYLE_ASSIGNMENT((#221));
#314=PRESENTATION_STYLE_ASSIGNMENT((#222));
#315=PRESENTATION_STYLE_ASSIGNMENT((#223));
#316=PRESENTATION_STYLE_ASSIGNMENT((#224));
#317=PRESENTATION_STYLE_ASSIGNMENT((#225));
#318=PRESENTATION_STYLE_ASSIGNMENT((#28));
#319=POINT_STYLE('',#321,POSITIVE_LENGTH_MEASURE(3.),#323);
#320=POINT_STYLE('',#322,POSITIVE_LENGTH_MEASURE(3.),#323);
#321=PRE_DEFINED_POINT_MARKER_SYMBOL('plus');
#322=PRE_DEFINED_POINT_MARKER_SYMBOL('plus');
#323=DRAUGHTING_PRE_DEFINED_COLOUR('yellow');
#324=DRAUGHTING_PRE_DEFINED_COLOUR('blue');
#325=AXIS2_PLACEMENT_3D('',#443,#357,#358);
#326=AXIS2_PLACEMENT_3D('',#450,#363,#364);
#327=AXIS2_PLACEMENT_3D('',#451,#365,#366);
#328=AXIS2_PLACEMENT_3D('',#452,#367,#368);
#329=AXIS2_PLACEMENT_3D('',#453,#369,#370);
#330=AXIS2_PLACEMENT_3D('MCS',#454,#371,#372);
#331=AXIS2_PLACEMENT_3D('PCS',#455,#373,#374);
#332=AXIS2_PLACEMENT_3D('',#456,#375,#376);
#333=AXIS2_PLACEMENT_3D('',#460,#378,#379);
#334=AXIS2_PLACEMENT_3D('',#464,#381,#382);
#335=AXIS2_PLACEMENT_3D('',#468,#384,#385);
#336=AXIS2_PLACEMENT_3D('',#472,#387,#388);
#337=AXIS2_PLACEMENT_3D('',#473,#389,#390);
#338=AXIS2_PLACEMENT_3D('',#476,#391,#392);
#339=AXIS2_PLACEMENT_3D('',#477,#393,#394);
#340=AXIS2_PLACEMENT_3D('',#482,#397,#398);
#341=AXIS2_PLACEMENT_3D('',#483,#399,#400);
#342=AXIS2_PLACEMENT_3D('',#487,#402,#403);
#343=AXIS2_PLACEMENT_3D('',#492,#406,#407);
#344=AXIS2_PLACEMENT_3D('',#496,#409,#410);
#345=AXIS2_PLACEMENT_3D('',#497,#411,#412);
#346=AXIS2_PLACEMENT_3D('',#500,#413,#414);
#347=AXIS2_PLACEMENT_3D('',#501,#415,#416);
#348=AXIS2_PLACEMENT_3D('',#504,#419,#420);
#349=AXIS2_PLACEMENT_3D('',#506,#422,#423);
#350=AXIS2_PLACEMENT_3D('',#508,#425,#426);
#351=AXIS2_PLACEMENT_3D('',#509,#427,#428);
#352=AXIS2_PLACEMENT_3D('',#511,#430,#431);
#353=AXIS2_PLACEMENT_3D('',#513,#433,#434);
#354=AXIS2_PLACEMENT_3D('',#514,#435,#436);
#355=AXIS2_PLACEMENT_3D('',#517,#439,#440);
#356=AXIS2_PLACEMENT_3D('',#518,#441,#442);
#357=DIRECTION('',(0.,0.,1.));
#358=DIRECTION('',(1.,0.,0.));
#359=DIRECTION('',(1.,0.,0.));
#360=DIRECTION('',(-0.173648177666902,-0.984807753012213,0.));
#361=DIRECTION('',(-1.,0.,0.));
#362=DIRECTION('',(0.173648177666902,0.984807753012213,0.));
#363=DIRECTION('',(0.,0.,-1.));
#364=DIRECTION('',(-0.984807753010663,0.173648177675694,0.));
#365=DIRECTION('',(0.,0.,-1.));
#366=DIRECTION('',(-3.32488666228888E-14,1.,0.));
#367=DIRECTION('',(0.,0.,-1.));
#368=DIRECTION('',(0.984807753010663,-0.173648177675694,0.));
#369=DIRECTION('',(0.,0.,-1.));
#370=DIRECTION('',(3.32488666228888E-14,-1.,0.));
#371=DIRECTION('',(0.,0.,1.));
#372=DIRECTION('',(1.,0.,0.));
#373=DIRECTION('',(0.,0.,1.));
#374=DIRECTION('',(1.,0.,0.));
#375=DIRECTION('',(0.,0.,1.));
#376=DIRECTION('',(1.,0.,0.));
#377=DIRECTION('',(0.173648177666902,0.984807753012213,0.));
#378=DIRECTION('',(0.,0.,-1.));
#379=DIRECTION('',(3.32488666228888E-14,-1.,0.));
#380=DIRECTION('',(-1.,0.,0.));
#381=DIRECTION('',(0.,0.,-1.));
#382=DIRECTION('',(0.984807753010662,-0.173648177675694,0.));
#383=DIRECTION('',(-0.173648177666902,-0.984807753012213,0.));
#384=DIRECTION('',(0.,0.,-1.));
#385=DIRECTION('',(-3.32488666228888E-14,1.,0.));
#386=DIRECTION('',(1.,0.,0.));
#387=DIRECTION('',(0.,0.,-1.));
#388=DIRECTION('',(-0.984807753010662,0.173648177675694,0.));
#389=DIRECTION('',(0.,0.,1.));
#390=DIRECTION('',(0.642787609686505,-0.766044443119007,0.));
#391=DIRECTION('',(0.,0.,1.));
#392=DIRECTION('',(-0.642787609686505,0.766044443119007,0.));
#393=DIRECTION('',(0.,0.,1.));
#394=DIRECTION('',(-0.642787609686505,0.766044443119006,0.));
#395=DIRECTION('',(0.,0.,-1.));
#396=DIRECTION('',(0.,0.,1.));
#397=DIRECTION('',(0.,0.,1.));
#398=DIRECTION('',(1.30104260698261E-14,1.,0.));
#399=DIRECTION('',(0.,0.,-1.));
#400=DIRECTION('',(0.984807753012213,-0.173648177666902,0.));
#401=DIRECTION('',(1.,0.,0.));
#402=DIRECTION('',(0.,0.,1.));
#403=DIRECTION('',(-0.98480775301486,0.173648177651892,0.));
#404=DIRECTION('',(-0.173648177666902,-0.984807753012213,0.));
#405=DIRECTION('',(-1.,0.,0.));
#406=DIRECTION('',(0.,0.,1.));
#407=DIRECTION('',(0.98480775301486,-0.173648177651892,0.));
#408=DIRECTION('',(0.173648177666902,0.984807753012213,0.));
#409=DIRECTION('',(0.,0.,1.));
#410=DIRECTION('',(-1.30104260698261E-14,-1.,0.));
#411=DIRECTION('',(0.,0.,-1.));
#412=DIRECTION('',(-0.642787609686505,0.766044443119007,0.));
#413=DIRECTION('',(0.,0.,-1.));
#414=DIRECTION('',(0.642787609686505,-0.766044443119007,0.));
#415=DIRECTION('',(0.,0.,1.));
#416=DIRECTION('',(-0.642787609686505,0.766044443119006,0.));
#417=DIRECTION('',(0.,0.,-1.));
#418=DIRECTION('',(0.,0.,1.));
#419=DIRECTION('',(0.,0.,-1.));
#420=DIRECTION('',(-0.984807753012213,0.173648177666902,0.));
#421=DIRECTION('',(0.,0.,-1.));
#422=DIRECTION('',(0.,-1.,0.));
#423=DIRECTION('',(-1.,0.,0.));
#424=DIRECTION('',(0.,0.,1.));
#425=DIRECTION('',(0.,0.,-1.));
#426=DIRECTION('',(0.,1.,0.));
#427=DIRECTION('',(-0.984807753012213,0.173648177666902,0.));
#428=DIRECTION('',(0.173648177666902,0.984807753012213,0.));
#429=DIRECTION('',(0.,0.,1.));
#430=DIRECTION('',(0.984807753012213,-0.173648177666902,0.));
#431=DIRECTION('',(-0.173648177666902,-0.984807753012213,0.));
#432=DIRECTION('',(0.,0.,-1.));
#433=DIRECTION('',(0.,0.,-1.));
#434=DIRECTION('',(0.,-1.,0.));
#435=DIRECTION('',(0.,1.,0.));
#436=DIRECTION('',(1.,0.,0.));
#437=DIRECTION('',(0.,0.,1.));
#438=DIRECTION('',(0.,0.,1.));
#439=DIRECTION('',(0.,0.,-1.));
#440=DIRECTION('',(0.642787609686505,-0.766044443119006,0.));
#441=DIRECTION('',(0.,0.,-1.));
#442=DIRECTION('',(0.642787609686505,-0.766044443119006,0.));
#443=CARTESIAN_POINT('',(0.,0.,0.));
#444=CARTESIAN_POINT('',(0.,0.,0.));
#445=CARTESIAN_POINT('',(-11.35145296946,-9.525,0.));
#446=CARTESIAN_POINT('',(-6.985504429551,9.525,0.));
#447=CARTESIAN_POINT('',(11.10311796196,8.116622186818,0.));
#448=CARTESIAN_POINT('',(6.985504429551,-9.525,0.));
#449=CARTESIAN_POINT('',(-11.10311796196,-8.116622186818,0.));
#450=CARTESIAN_POINT('',(-6.985504429551,8.325,0.));
#451=CARTESIAN_POINT('',(9.921348658347,8.325,0.));
#452=CARTESIAN_POINT('',(6.985504429551,-8.325,0.));
#453=CARTESIAN_POINT('',(-9.921348658347,-8.325,0.));
#454=CARTESIAN_POINT('',(0.,0.,0.));
#455=CARTESIAN_POINT('',(-11.35145296946,-9.525,0.));
#456=CARTESIAN_POINT('',(0.,0.,0.));
#457=CARTESIAN_POINT('',(-11.10311796196,-8.116622186806,0.));
#458=CARTESIAN_POINT('',(-11.10311796196,-8.116622186818,0.));
#459=CARTESIAN_POINT('',(-8.167273733164,8.533377813211,0.));
#460=CARTESIAN_POINT('',(-9.921348658347,-8.325,0.));
#461=CARTESIAN_POINT('',(-9.921348658347,-9.525,0.));
#462=CARTESIAN_POINT('',(6.985504429551,-9.525,0.));
#463=CARTESIAN_POINT('',(6.985504429551,-9.525,0.));
#464=CARTESIAN_POINT('',(6.985504429551,-8.325,0.));
#465=CARTESIAN_POINT('',(8.167273733165,-8.533377813204,0.));
#466=CARTESIAN_POINT('',(11.10311796196,8.116622186806,0.));
#467=CARTESIAN_POINT('',(11.10311796196,8.116622186818,0.));
#468=CARTESIAN_POINT('',(9.921348658347,8.325,0.));
#469=CARTESIAN_POINT('',(9.921348658347,9.525,0.));
#470=CARTESIAN_POINT('',(-6.985504429551,9.525,0.));
#471=CARTESIAN_POINT('',(-6.985504429551,9.525,0.));
#472=CARTESIAN_POINT('',(-6.985504429551,8.325,0.));
#473=CARTESIAN_POINT('',(0.,0.,0.));
#474=CARTESIAN_POINT('',(2.548652872407,-3.037366216967,0.));
#475=CARTESIAN_POINT('',(-2.548652872407,3.037366216967,0.));
#476=CARTESIAN_POINT('',(0.,0.,0.));
#477=CARTESIAN_POINT('',(0.,0.,0.));
#478=CARTESIAN_POINT('',(-8.167273733165,8.533377813204,0.));
#479=CARTESIAN_POINT('',(-8.167273733164,8.533377813211,-6.35));
#480=CARTESIAN_POINT('',(-6.985504429551,9.525,-6.35));
#481=CARTESIAN_POINT('',(-6.985504429551,9.525,-6.35));
#482=CARTESIAN_POINT('',(-6.985504429551,8.325,-6.35));
#483=CARTESIAN_POINT('',(-6.985504429551,8.325,8.27786));
#484=CARTESIAN_POINT('',(-9.921348658347,-9.525,-6.35));
#485=CARTESIAN_POINT('',(-9.921348658347,-9.525,-6.35));
#486=CARTESIAN_POINT('',(6.985504429551,-9.525,-6.35));
#487=CARTESIAN_POINT('',(-9.921348658347,-8.325,-6.35));
#488=CARTESIAN_POINT('',(-11.10311796196,-8.116622186806,-6.35));
#489=CARTESIAN_POINT('',(-8.167273733165,8.533377813204,-6.35));
#490=CARTESIAN_POINT('',(9.921348658347,9.525,-6.35));
#491=CARTESIAN_POINT('',(9.921348658347,9.525,-6.35));
#492=CARTESIAN_POINT('',(9.921348658347,8.325,-6.35));
#493=CARTESIAN_POINT('',(11.10311796196,8.116622186806,-6.35));
#494=CARTESIAN_POINT('',(8.167273733165,-8.533377813204,-6.35));
#495=CARTESIAN_POINT('',(8.167273733164,-8.533377813211,-6.35));
#496=CARTESIAN_POINT('',(6.985504429551,-8.325,-6.35));
#497=CARTESIAN_POINT('',(0.,0.,-6.35));
#498=CARTESIAN_POINT('',(-2.548652872407,3.037366216967,-6.35));
#499=CARTESIAN_POINT('',(2.548652872407,-3.037366216967,-6.35));
#500=CARTESIAN_POINT('',(0.,0.,-6.35));
#501=CARTESIAN_POINT('',(0.,0.,-6.35));
#502=CARTESIAN_POINT('',(8.167273733165,-8.533377813204,0.));
#503=CARTESIAN_POINT('',(6.985504429551,-9.525,-6.35));
#504=CARTESIAN_POINT('',(6.985504429551,-8.325,8.27786));
#505=CARTESIAN_POINT('',(-9.921348658347,-9.525,0.));
#506=CARTESIAN_POINT('',(-11.35145296946,-9.525,0.));
#507=CARTESIAN_POINT('',(-11.10311796196,-8.116622186806,-6.35));
#508=CARTESIAN_POINT('',(-9.921348658347,-8.325,8.27786));
#509=CARTESIAN_POINT('',(-7.992423986964,9.525,0.));
#510=CARTESIAN_POINT('',(11.10311796196,8.116622186806,-6.35));
#511=CARTESIAN_POINT('',(7.992423986964,-9.525,0.));
#512=CARTESIAN_POINT('',(9.921348658347,9.525,0.));
#513=CARTESIAN_POINT('',(9.921348658347,8.325,8.27786));
#514=CARTESIAN_POINT('',(11.35145296946,9.525,0.));
#515=CARTESIAN_POINT('',(2.548652872407,-3.037366216967,0.));
#516=CARTESIAN_POINT('',(-2.548652872407,3.037366216967,0.));
#517=CARTESIAN_POINT('',(0.,0.,0.3175));
#518=CARTESIAN_POINT('',(0.,0.,0.3175));
#519=MECHANICAL_DESIGN_GEOMETRIC_PRESENTATION_REPRESENTATION('',(#291,#292,
#293,#294,#295,#296,#297,#298,#299,#300,#301,#302,#303,#304),#520);
#520=(
GEOMETRIC_REPRESENTATION_CONTEXT(3)
GLOBAL_UNCERTAINTY_ASSIGNED_CONTEXT((#521))
GLOBAL_UNIT_ASSIGNED_CONTEXT((#527,#523,#522))
REPRESENTATION_CONTEXT('CN190612N','TOP_LEVEL_ASSEMBLY_PART')
);
#521=UNCERTAINTY_MEASURE_WITH_UNIT(LENGTH_MEASURE(2.E-5),#527,
'DISTANCE_ACCURACY_VALUE','Maximum Tolerance applied to model');
#522=(
NAMED_UNIT(*)
SI_UNIT($,.STERADIAN.)
SOLID_ANGLE_UNIT()
);
#523=(
CONVERSION_BASED_UNIT('DEGREE',#525)
NAMED_UNIT(#524)
PLANE_ANGLE_UNIT()
);
#524=DIMENSIONAL_EXPONENTS(0.,0.,0.,0.,0.,0.,0.);
#525=PLANE_ANGLE_MEASURE_WITH_UNIT(PLANE_ANGLE_MEASURE(0.0174532925),#526);
#526=(
NAMED_UNIT(*)
PLANE_ANGLE_UNIT()
SI_UNIT($,.RADIAN.)
);
#527=(
LENGTH_UNIT()
NAMED_UNIT(*)
SI_UNIT(.MILLI.,.METRE.)
);
ENDSEC;
END-ISO-10303-21;
