ISO-10303-21;
HEADER;
/* Generated by software containing ST-Developer
 * from STEP Tools, Inc. (www.steptools.com) 
 */
/* OPTION: using custom schema-name function */

FILE_DESCRIPTION(
/* description */ (''),
/* implementation_level */ '2;1');

FILE_NAME(
/* name */ 'TP080204N.stp',
/* time_stamp */ '2021-11-11T11:52:00+09:00',
/* author */ (''),
/* organization */ (''),
/* preprocessor_version */ 'ST-DEVELOPER v16',
/* originating_system */ 'SIEMENS PLM Software NX 10.0',
/* authorisation */ '');

FILE_SCHEMA (('AUTOMOTIVE_DESIGN { 1 0 10303 214 3 1 1 1 }'));
ENDSEC;

DATA;
#10=CONSTRUCTIVE_GEOMETRY_REPRESENTATION_RELATIONSHIP(
'supplemental geometry','',#26,#11);
#11=CONSTRUCTIVE_GEOMETRY_REPRESENTATION('supplemental geometry',(#336,
#337,#338),#531);
#12=GEOMETRICALLY_BOUNDED_WIREFRAME_SHAPE_REPRESENTATION(
'TP080204N-None',(#27),#531);
#13=SHAPE_REPRESENTATION_RELATIONSHIP('None',
'relationship between TP080204N-None and TP080204N-None',#26,#15);
#14=SHAPE_REPRESENTATION_RELATIONSHIP('None',
'relationship between TP080204N-None and TP080204N-None',#26,#12);
#15=ADVANCED_BREP_SHAPE_REPRESENTATION('TP080204N-None',(#33),#531);
#16=SHAPE_DEFINITION_REPRESENTATION(#17,#26);
#17=PRODUCT_DEFINITION_SHAPE('','',#18);
#18=PRODUCT_DEFINITION('part definition','',#20,#19);
#19=PRODUCT_DEFINITION_CONTEXT('part definition',#25,'design');
#20=PRODUCT_DEFINITION_FORMATION_WITH_SPECIFIED_SOURCE(' ',' ',#22,
 .NOT_KNOWN.);
#21=PRODUCT_RELATED_PRODUCT_CATEGORY('part','',(#22));
#22=PRODUCT('TP080204L','TP080204L','NOT SPECIFIED',(#23));
#23=PRODUCT_CONTEXT('',#25,'mechanical');
#24=APPLICATION_PROTOCOL_DEFINITION('international standard',
'automotive_design',2010,#25);
#25=APPLICATION_CONTEXT(
'core data for automotive mechanical design processes');
#26=SHAPE_REPRESENTATION('TP080204N-None',(#332),#531);
#27=GEOMETRIC_CURVE_SET('None',(#453,#454,#245,#246,#247,#248,#249,#250));
#28=SURFACE_STYLE_USAGE(.BOTH.,#29);
#29=SURFACE_SIDE_STYLE('',(#30));
#30=SURFACE_STYLE_FILL_AREA(#31);
#31=FILL_AREA_STYLE('',(#32));
#32=FILL_AREA_STYLE_COLOUR('',#212);
#33=MANIFOLD_SOLID_BREP('',#34);
#34=CLOSED_SHELL('',(#56,#57,#58,#59,#60,#61,#62,#63,#64,#65,#66,#67,#68,
#69));
#35=CYLINDRICAL_SURFACE('',#355,1.25);
#36=CYLINDRICAL_SURFACE('',#357,1.25);
#37=CYLINDRICAL_SURFACE('',#362,1.9);
#38=CYLINDRICAL_SURFACE('',#363,1.9);
#39=CONICAL_SURFACE('',#345,0.204,11.);
#40=CONICAL_SURFACE('',#352,0.204,11.);
#41=CONICAL_SURFACE('',#353,0.204,11.);
#42=CONICAL_SURFACE('',#359,1.575,44.);
#43=CONICAL_SURFACE('',#361,1.575,44.);
#44=FACE_OUTER_BOUND('',#81,.T.);
#45=FACE_OUTER_BOUND('',#82,.T.);
#46=FACE_OUTER_BOUND('',#85,.T.);
#47=FACE_OUTER_BOUND('',#86,.T.);
#48=FACE_OUTER_BOUND('',#87,.T.);
#49=FACE_OUTER_BOUND('',#88,.T.);
#50=FACE_OUTER_BOUND('',#89,.T.);
#51=FACE_OUTER_BOUND('',#90,.T.);
#52=FACE_OUTER_BOUND('',#91,.T.);
#53=FACE_OUTER_BOUND('',#92,.T.);
#54=FACE_OUTER_BOUND('',#93,.T.);
#55=FACE_OUTER_BOUND('',#94,.T.);
#56=ADVANCED_FACE('',(#75,#76),#70,.T.);
#57=ADVANCED_FACE('',(#44),#39,.T.);
#58=ADVANCED_FACE('',(#45),#71,.T.);
#59=ADVANCED_FACE('',(#77,#78),#72,.F.);
#60=ADVANCED_FACE('',(#46),#73,.T.);
#61=ADVANCED_FACE('',(#47),#74,.T.);
#62=ADVANCED_FACE('',(#48),#40,.T.);
#63=ADVANCED_FACE('',(#49),#41,.T.);
#64=ADVANCED_FACE('',(#50),#35,.F.);
#65=ADVANCED_FACE('',(#51),#36,.F.);
#66=ADVANCED_FACE('',(#52),#42,.F.);
#67=ADVANCED_FACE('',(#53),#43,.F.);
#68=ADVANCED_FACE('',(#54),#37,.F.);
#69=ADVANCED_FACE('',(#55),#38,.F.);
#70=PLANE('',#344);
#71=PLANE('',#346);
#72=PLANE('',#349);
#73=PLANE('',#350);
#74=PLANE('',#351);
#75=FACE_BOUND('',#79,.T.);
#76=FACE_BOUND('',#80,.T.);
#77=FACE_BOUND('',#83,.T.);
#78=FACE_BOUND('',#84,.T.);
#79=EDGE_LOOP('',(#95,#96,#97,#98,#99,#100));
#80=EDGE_LOOP('',(#101,#102));
#81=EDGE_LOOP('',(#103,#104,#105));
#82=EDGE_LOOP('',(#106,#107,#108,#109,#110,#111));
#83=EDGE_LOOP('',(#112,#113,#114));
#84=EDGE_LOOP('',(#115,#116));
#85=EDGE_LOOP('',(#117,#118,#119,#120,#121,#122));
#86=EDGE_LOOP('',(#123,#124,#125,#126,#127,#128));
#87=EDGE_LOOP('',(#129,#130,#131));
#88=EDGE_LOOP('',(#132,#133,#134));
#89=EDGE_LOOP('',(#135,#136,#137,#138));
#90=EDGE_LOOP('',(#139,#140,#141,#142));
#91=EDGE_LOOP('',(#143,#144,#145,#146));
#92=EDGE_LOOP('',(#147,#148,#149,#150));
#93=EDGE_LOOP('',(#151,#152,#153,#154));
#94=EDGE_LOOP('',(#155,#156,#157,#158));
#95=ORIENTED_EDGE('',*,*,#179,.F.);
#96=ORIENTED_EDGE('',*,*,#180,.F.);
#97=ORIENTED_EDGE('',*,*,#181,.F.);
#98=ORIENTED_EDGE('',*,*,#182,.F.);
#99=ORIENTED_EDGE('',*,*,#183,.F.);
#100=ORIENTED_EDGE('',*,*,#184,.F.);
#101=ORIENTED_EDGE('',*,*,#185,.F.);
#102=ORIENTED_EDGE('',*,*,#186,.F.);
#103=ORIENTED_EDGE('',*,*,#187,.F.);
#104=ORIENTED_EDGE('',*,*,#184,.T.);
#105=ORIENTED_EDGE('',*,*,#188,.F.);
#106=ORIENTED_EDGE('',*,*,#189,.T.);
#107=ORIENTED_EDGE('',*,*,#188,.T.);
#108=ORIENTED_EDGE('',*,*,#183,.T.);
#109=ORIENTED_EDGE('',*,*,#190,.T.);
#110=ORIENTED_EDGE('',*,*,#191,.F.);
#111=ORIENTED_EDGE('',*,*,#192,.T.);
#112=ORIENTED_EDGE('',*,*,#193,.F.);
#113=ORIENTED_EDGE('',*,*,#192,.F.);
#114=ORIENTED_EDGE('',*,*,#194,.F.);
#115=ORIENTED_EDGE('',*,*,#195,.F.);
#116=ORIENTED_EDGE('',*,*,#196,.F.);
#117=ORIENTED_EDGE('',*,*,#191,.T.);
#118=ORIENTED_EDGE('',*,*,#197,.T.);
#119=ORIENTED_EDGE('',*,*,#181,.T.);
#120=ORIENTED_EDGE('',*,*,#198,.T.);
#121=ORIENTED_EDGE('',*,*,#199,.F.);
#122=ORIENTED_EDGE('',*,*,#194,.T.);
#123=ORIENTED_EDGE('',*,*,#199,.T.);
#124=ORIENTED_EDGE('',*,*,#200,.T.);
#125=ORIENTED_EDGE('',*,*,#179,.T.);
#126=ORIENTED_EDGE('',*,*,#187,.T.);
#127=ORIENTED_EDGE('',*,*,#189,.F.);
#128=ORIENTED_EDGE('',*,*,#193,.T.);
#129=ORIENTED_EDGE('',*,*,#198,.F.);
#130=ORIENTED_EDGE('',*,*,#180,.T.);
#131=ORIENTED_EDGE('',*,*,#200,.F.);
#132=ORIENTED_EDGE('',*,*,#190,.F.);
#133=ORIENTED_EDGE('',*,*,#182,.T.);
#134=ORIENTED_EDGE('',*,*,#197,.F.);
#135=ORIENTED_EDGE('',*,*,#201,.T.);
#136=ORIENTED_EDGE('',*,*,#202,.T.);
#137=ORIENTED_EDGE('',*,*,#203,.F.);
#138=ORIENTED_EDGE('',*,*,#196,.T.);
#139=ORIENTED_EDGE('',*,*,#203,.T.);
#140=ORIENTED_EDGE('',*,*,#204,.T.);
#141=ORIENTED_EDGE('',*,*,#201,.F.);
#142=ORIENTED_EDGE('',*,*,#195,.T.);
#143=ORIENTED_EDGE('',*,*,#205,.F.);
#144=ORIENTED_EDGE('',*,*,#206,.T.);
#145=ORIENTED_EDGE('',*,*,#204,.F.);
#146=ORIENTED_EDGE('',*,*,#207,.F.);
#147=ORIENTED_EDGE('',*,*,#202,.F.);
#148=ORIENTED_EDGE('',*,*,#206,.F.);
#149=ORIENTED_EDGE('',*,*,#208,.F.);
#150=ORIENTED_EDGE('',*,*,#207,.T.);
#151=ORIENTED_EDGE('',*,*,#209,.F.);
#152=ORIENTED_EDGE('',*,*,#208,.T.);
#153=ORIENTED_EDGE('',*,*,#210,.T.);
#154=ORIENTED_EDGE('',*,*,#186,.T.);
#155=ORIENTED_EDGE('',*,*,#210,.F.);
#156=ORIENTED_EDGE('',*,*,#205,.T.);
#157=ORIENTED_EDGE('',*,*,#209,.T.);
#158=ORIENTED_EDGE('',*,*,#185,.T.);
#159=VERTEX_POINT('',#465);
#160=VERTEX_POINT('',#466);
#161=VERTEX_POINT('',#468);
#162=VERTEX_POINT('',#470);
#163=VERTEX_POINT('',#472);
#164=VERTEX_POINT('',#474);
#165=VERTEX_POINT('',#477);
#166=VERTEX_POINT('',#478);
#167=VERTEX_POINT('',#482);
#168=VERTEX_POINT('',#486);
#169=VERTEX_POINT('',#488);
#170=VERTEX_POINT('',#490);
#171=VERTEX_POINT('',#494);
#172=VERTEX_POINT('',#497);
#173=VERTEX_POINT('',#498);
#174=VERTEX_POINT('',#503);
#175=VERTEX_POINT('',#511);
#176=VERTEX_POINT('',#513);
#177=VERTEX_POINT('',#519);
#178=VERTEX_POINT('',#520);
#179=EDGE_CURVE('',#159,#160,#254,.T.);
#180=EDGE_CURVE('',#161,#159,#216,.T.);
#181=EDGE_CURVE('',#162,#161,#255,.T.);
#182=EDGE_CURVE('',#163,#162,#217,.T.);
#183=EDGE_CURVE('',#164,#163,#256,.T.);
#184=EDGE_CURVE('',#160,#164,#218,.T.);
#185=EDGE_CURVE('',#165,#166,#219,.T.);
#186=EDGE_CURVE('',#166,#165,#220,.T.);
#187=EDGE_CURVE('',#160,#167,#257,.T.);
#188=EDGE_CURVE('',#167,#164,#258,.T.);
#189=EDGE_CURVE('',#168,#167,#259,.T.);
#190=EDGE_CURVE('',#163,#169,#260,.T.);
#191=EDGE_CURVE('',#170,#169,#261,.T.);
#192=EDGE_CURVE('',#170,#168,#262,.T.);
#193=EDGE_CURVE('',#168,#171,#263,.T.);
#194=EDGE_CURVE('',#171,#170,#264,.T.);
#195=EDGE_CURVE('',#172,#173,#221,.T.);
#196=EDGE_CURVE('',#173,#172,#222,.T.);
#197=EDGE_CURVE('',#169,#162,#265,.T.);
#198=EDGE_CURVE('',#161,#174,#266,.T.);
#199=EDGE_CURVE('',#171,#174,#267,.T.);
#200=EDGE_CURVE('',#174,#159,#268,.T.);
#201=EDGE_CURVE('',#172,#175,#269,.T.);
#202=EDGE_CURVE('',#175,#176,#223,.T.);
#203=EDGE_CURVE('',#173,#176,#270,.T.);
#204=EDGE_CURVE('',#176,#175,#224,.T.);
#205=EDGE_CURVE('',#177,#178,#225,.T.);
#206=EDGE_CURVE('',#177,#175,#271,.T.);
#207=EDGE_CURVE('',#178,#176,#272,.T.);
#208=EDGE_CURVE('',#178,#177,#226,.T.);
#209=EDGE_CURVE('',#178,#165,#273,.T.);
#210=EDGE_CURVE('',#177,#166,#274,.T.);
#211=COLOUR_RGB('Strong Stone',0.576470588235294,0.54508278019379,0.392156862745098);
#212=COLOUR_RGB('cutting part',0.8,0.8,0.8);
#213=CIRCLE('',#333,0.4);
#214=CIRCLE('',#334,0.4);
#215=CIRCLE('',#335,0.4);
#216=CIRCLE('',#339,0.4);
#217=CIRCLE('',#340,0.4);
#218=CIRCLE('',#341,0.4);
#219=CIRCLE('',#342,1.9);
#220=CIRCLE('',#343,1.9);
#221=CIRCLE('',#347,1.25);
#222=CIRCLE('',#348,1.25);
#223=CIRCLE('',#354,1.25);
#224=CIRCLE('',#356,1.25);
#225=CIRCLE('',#358,1.9);
#226=CIRCLE('',#360,1.9);
#227=CURVE_STYLE('',#236,POSITIVE_LENGTH_MEASURE(0.18),#331);
#228=CURVE_STYLE('',#237,POSITIVE_LENGTH_MEASURE(0.18),#331);
#229=CURVE_STYLE('',#238,POSITIVE_LENGTH_MEASURE(0.18),#331);
#230=CURVE_STYLE('',#239,POSITIVE_LENGTH_MEASURE(0.18),#331);
#231=CURVE_STYLE('',#240,POSITIVE_LENGTH_MEASURE(0.18),#331);
#232=CURVE_STYLE('',#241,POSITIVE_LENGTH_MEASURE(0.18),#331);
#233=CURVE_STYLE('',#242,POSITIVE_LENGTH_MEASURE(0.13),#330);
#234=CURVE_STYLE('',#243,POSITIVE_LENGTH_MEASURE(0.13),#330);
#235=CURVE_STYLE('',#244,POSITIVE_LENGTH_MEASURE(0.13),#211);
#236=DRAUGHTING_PRE_DEFINED_CURVE_FONT('continuous');
#237=DRAUGHTING_PRE_DEFINED_CURVE_FONT('continuous');
#238=DRAUGHTING_PRE_DEFINED_CURVE_FONT('continuous');
#239=DRAUGHTING_PRE_DEFINED_CURVE_FONT('continuous');
#240=DRAUGHTING_PRE_DEFINED_CURVE_FONT('continuous');
#241=DRAUGHTING_PRE_DEFINED_CURVE_FONT('continuous');
#242=DRAUGHTING_PRE_DEFINED_CURVE_FONT('continuous');
#243=DRAUGHTING_PRE_DEFINED_CURVE_FONT('continuous');
#244=DRAUGHTING_PRE_DEFINED_CURVE_FONT('continuous');
#245=TRIMMED_CURVE('',#251,(PARAMETER_VALUE(0.)),(PARAMETER_VALUE(1.)),
 .T.,.PARAMETER.);
#246=TRIMMED_CURVE('',#252,(PARAMETER_VALUE(0.)),(PARAMETER_VALUE(1.)),
 .T.,.PARAMETER.);
#247=TRIMMED_CURVE('',#253,(PARAMETER_VALUE(0.)),(PARAMETER_VALUE(1.)),
 .T.,.PARAMETER.);
#248=TRIMMED_CURVE('',#213,(PARAMETER_VALUE(0.)),(PARAMETER_VALUE(120.0000000006)),
 .T.,.PARAMETER.);
#249=TRIMMED_CURVE('',#214,(PARAMETER_VALUE(0.)),(PARAMETER_VALUE(119.9999999997)),
 .T.,.PARAMETER.);
#250=TRIMMED_CURVE('',#215,(PARAMETER_VALUE(0.)),(PARAMETER_VALUE(120.0000000002)),
 .T.,.PARAMETER.);
#251=LINE('',#455,#275);
#252=LINE('',#456,#276);
#253=LINE('',#457,#277);
#254=LINE('',#464,#278);
#255=LINE('',#469,#279);
#256=LINE('',#473,#280);
#257=LINE('',#481,#281);
#258=LINE('',#483,#282);
#259=LINE('',#485,#283);
#260=LINE('',#487,#284);
#261=LINE('',#489,#285);
#262=LINE('',#491,#286);
#263=LINE('',#493,#287);
#264=LINE('',#495,#288);
#265=LINE('',#501,#289);
#266=LINE('',#502,#290);
#267=LINE('',#504,#291);
#268=LINE('',#506,#292);
#269=LINE('',#510,#293);
#270=LINE('',#514,#294);
#271=LINE('',#521,#295);
#272=LINE('',#522,#296);
#273=LINE('',#526,#297);
#274=LINE('',#527,#298);
#275=VECTOR('',#366,6.858921197972);
#276=VECTOR('',#367,6.85892119796777);
#277=VECTOR('',#368,6.85892119797277);
#278=VECTOR('',#381,1.);
#279=VECTOR('',#384,1.);
#280=VECTOR('',#387,1.);
#281=VECTOR('',#396,1.);
#282=VECTOR('',#397,1.);
#283=VECTOR('',#400,1.);
#284=VECTOR('',#401,1.);
#285=VECTOR('',#402,1.);
#286=VECTOR('',#403,1.);
#287=VECTOR('',#406,1.);
#288=VECTOR('',#407,1.);
#289=VECTOR('',#414,1.);
#290=VECTOR('',#415,1.);
#291=VECTOR('',#416,1.);
#292=VECTOR('',#419,1.);
#293=VECTOR('',#426,1.);
#294=VECTOR('',#429,1.);
#295=VECTOR('',#438,1.);
#296=VECTOR('',#439,1.);
#297=VECTOR('',#446,1.);
#298=VECTOR('',#447,1.);
#299=PRESENTATION_LAYER_ASSIGNMENT('5','Layer 5',(#453,#336));
#300=PRESENTATION_LAYER_ASSIGNMENT('1','Layer 1',(#454,#337,#338,#33));
#301=PRESENTATION_LAYER_ASSIGNMENT('2','Layer 2',(#245,#246,#247,#248,#249,
#250));
#302=STYLED_ITEM('',(#314),#453);
#303=STYLED_ITEM('',(#315),#454);
#304=STYLED_ITEM('',(#316),#245);
#305=STYLED_ITEM('',(#317),#246);
#306=STYLED_ITEM('',(#318),#247);
#307=STYLED_ITEM('',(#319),#248);
#308=STYLED_ITEM('',(#320),#249);
#309=STYLED_ITEM('',(#321),#250);
#310=STYLED_ITEM('',(#322),#336);
#311=STYLED_ITEM('',(#323),#337);
#312=STYLED_ITEM('',(#324),#338);
#313=STYLED_ITEM('',(#325),#33);
#314=PRESENTATION_STYLE_ASSIGNMENT((#326));
#315=PRESENTATION_STYLE_ASSIGNMENT((#327));
#316=PRESENTATION_STYLE_ASSIGNMENT((#227));
#317=PRESENTATION_STYLE_ASSIGNMENT((#228));
#318=PRESENTATION_STYLE_ASSIGNMENT((#229));
#319=PRESENTATION_STYLE_ASSIGNMENT((#230));
#320=PRESENTATION_STYLE_ASSIGNMENT((#231));
#321=PRESENTATION_STYLE_ASSIGNMENT((#232));
#322=PRESENTATION_STYLE_ASSIGNMENT((#233));
#323=PRESENTATION_STYLE_ASSIGNMENT((#234));
#324=PRESENTATION_STYLE_ASSIGNMENT((#235));
#325=PRESENTATION_STYLE_ASSIGNMENT((#28));
#326=POINT_STYLE('',#328,POSITIVE_LENGTH_MEASURE(3.),#330);
#327=POINT_STYLE('',#329,POSITIVE_LENGTH_MEASURE(3.),#330);
#328=PRE_DEFINED_POINT_MARKER_SYMBOL('plus');
#329=PRE_DEFINED_POINT_MARKER_SYMBOL('plus');
#330=DRAUGHTING_PRE_DEFINED_COLOUR('yellow');
#331=DRAUGHTING_PRE_DEFINED_COLOUR('blue');
#332=AXIS2_PLACEMENT_3D('',#452,#364,#365);
#333=AXIS2_PLACEMENT_3D('',#458,#369,#370);
#334=AXIS2_PLACEMENT_3D('',#459,#371,#372);
#335=AXIS2_PLACEMENT_3D('',#460,#373,#374);
#336=AXIS2_PLACEMENT_3D('MCS',#461,#375,#376);
#337=AXIS2_PLACEMENT_3D('PCS',#462,#377,#378);
#338=AXIS2_PLACEMENT_3D('',#463,#379,#380);
#339=AXIS2_PLACEMENT_3D('',#467,#382,#383);
#340=AXIS2_PLACEMENT_3D('',#471,#385,#386);
#341=AXIS2_PLACEMENT_3D('',#475,#388,#389);
#342=AXIS2_PLACEMENT_3D('',#476,#390,#391);
#343=AXIS2_PLACEMENT_3D('',#479,#392,#393);
#344=AXIS2_PLACEMENT_3D('',#480,#394,#395);
#345=AXIS2_PLACEMENT_3D('',#484,#398,#399);
#346=AXIS2_PLACEMENT_3D('',#492,#404,#405);
#347=AXIS2_PLACEMENT_3D('',#496,#408,#409);
#348=AXIS2_PLACEMENT_3D('',#499,#410,#411);
#349=AXIS2_PLACEMENT_3D('',#500,#412,#413);
#350=AXIS2_PLACEMENT_3D('',#505,#417,#418);
#351=AXIS2_PLACEMENT_3D('',#507,#420,#421);
#352=AXIS2_PLACEMENT_3D('',#508,#422,#423);
#353=AXIS2_PLACEMENT_3D('',#509,#424,#425);
#354=AXIS2_PLACEMENT_3D('',#512,#427,#428);
#355=AXIS2_PLACEMENT_3D('',#515,#430,#431);
#356=AXIS2_PLACEMENT_3D('',#516,#432,#433);
#357=AXIS2_PLACEMENT_3D('',#517,#434,#435);
#358=AXIS2_PLACEMENT_3D('',#518,#436,#437);
#359=AXIS2_PLACEMENT_3D('',#523,#440,#441);
#360=AXIS2_PLACEMENT_3D('',#524,#442,#443);
#361=AXIS2_PLACEMENT_3D('',#525,#444,#445);
#362=AXIS2_PLACEMENT_3D('',#528,#448,#449);
#363=AXIS2_PLACEMENT_3D('',#529,#450,#451);
#364=DIRECTION('',(0.,0.,1.));
#365=DIRECTION('',(1.,0.,0.));
#366=DIRECTION('',(-1.,0.,0.));
#367=DIRECTION('',(0.500000000000017,0.866025403784429,0.));
#368=DIRECTION('',(0.500000000000017,-0.866025403784429,0.));
#369=DIRECTION('',(0.,0.,-1.));
#370=DIRECTION('',(-1.95156391047391E-14,-1.,0.));
#371=DIRECTION('',(0.,0.,-1.));
#372=DIRECTION('',(-0.866025403784677,0.499999999999587,0.));
#373=DIRECTION('',(0.,0.,-1.));
#374=DIRECTION('',(0.86602540378237,0.500000000003583,0.));
#375=DIRECTION('',(0.,0.,1.));
#376=DIRECTION('',(1.,0.,0.));
#377=DIRECTION('',(0.,0.,1.));
#378=DIRECTION('',(1.,0.,0.));
#379=DIRECTION('',(0.,0.,1.));
#380=DIRECTION('',(1.,0.,0.));
#381=DIRECTION('',(0.500000000000017,0.866025403784429,0.));
#382=DIRECTION('',(0.,0.,-1.));
#383=DIRECTION('',(-1.95156391047391E-14,-1.,0.));
#384=DIRECTION('',(-1.,0.,0.));
#385=DIRECTION('',(0.,0.,-1.));
#386=DIRECTION('',(0.86602540378237,0.500000000003583,0.));
#387=DIRECTION('',(0.500000000000017,-0.866025403784429,0.));
#388=DIRECTION('',(0.,0.,-1.));
#389=DIRECTION('',(-0.866025403784677,0.499999999999587,0.));
#390=DIRECTION('',(0.,0.,1.));
#391=DIRECTION('',(1.,0.,0.));
#392=DIRECTION('',(0.,0.,1.));
#393=DIRECTION('',(-1.,0.,0.));
#394=DIRECTION('',(0.,0.,1.));
#395=DIRECTION('',(-1.,0.,0.));
#396=DIRECTION('',(0.165245437266694,-0.0954044976882266,-0.981627183447665));
#397=DIRECTION('',(0.165245437266495,0.095404497688537,0.981627183447669));
#398=DIRECTION('',(0.,0.,1.));
#399=DIRECTION('',(-0.866025403784429,0.500000000000017,2.23989937971153E-16));
#400=DIRECTION('',(-4.34047030402293E-14,0.362342410398894,0.932045051285784));
#401=DIRECTION('',(-0.165245437266593,-0.0954044976884958,-0.981627183447656));
#402=DIRECTION('',(0.313797732273392,-0.181171205199395,0.932045051285975));
#403=DIRECTION('',(-0.500000000000017,0.866025403784429,0.));
#404=DIRECTION('',(0.85011407791108,0.490813591723789,-0.190808995376496));
#405=DIRECTION('',(0.499999999999953,-0.866025403784465,1.42145002321606E-14));
#406=DIRECTION('',(-0.500000000000017,-0.866025403784429,0.));
#407=DIRECTION('',(1.,0.,0.));
#408=DIRECTION('',(0.,0.,-1.));
#409=DIRECTION('',(-1.,0.,0.));
#410=DIRECTION('',(0.,0.,-1.));
#411=DIRECTION('',(1.,0.,0.));
#412=DIRECTION('',(0.,0.,1.));
#413=DIRECTION('',(-1.,0.,0.));
#414=DIRECTION('',(-6.43995241516871E-14,-0.190808995376591,0.981627183447655));
#415=DIRECTION('',(-7.56270727702365E-14,0.190808995376591,-0.981627183447655));
#416=DIRECTION('',(-0.313797732273511,-0.181171205199406,0.932045051285933));
#417=DIRECTION('',(0.,-0.981627183447674,-0.190808995376495));
#418=DIRECTION('',(-1.,0.,0.));
#419=DIRECTION('',(-0.165245437266409,0.095404497688865,0.981627183447651));
#420=DIRECTION('',(-0.85011407791108,0.490813591723789,-0.190808995376496));
#421=DIRECTION('',(0.499999999999953,0.866025403784465,-1.42145002321606E-14));
#422=DIRECTION('',(0.,0.,1.));
#423=DIRECTION('',(0.,-1.,2.23989937971153E-16));
#424=DIRECTION('',(0.,0.,1.));
#425=DIRECTION('',(0.866025403784429,0.500000000000017,2.23989937971153E-16));
#426=DIRECTION('',(3.1261796421E-14,0.,1.));
#427=DIRECTION('',(0.,0.,1.));
#428=DIRECTION('',(-1.,0.,0.));
#429=DIRECTION('',(-3.1261796421E-14,0.,1.));
#430=DIRECTION('',(0.,0.,-1.));
#431=DIRECTION('',(1.,0.,0.));
#432=DIRECTION('',(0.,0.,1.));
#433=DIRECTION('',(1.,0.,0.));
#434=DIRECTION('',(0.,0.,-1.));
#435=DIRECTION('',(1.,0.,0.));
#436=DIRECTION('',(0.,0.,-1.));
#437=DIRECTION('',(-1.,0.,0.));
#438=DIRECTION('',(0.694658370458974,0.,-0.719339800338673));
#439=DIRECTION('',(-0.694658370458974,0.,-0.719339800338673));
#440=DIRECTION('',(0.,0.,1.));
#441=DIRECTION('',(-1.,0.,-3.19455382498947E-17));
#442=DIRECTION('',(0.,0.,-1.));
#443=DIRECTION('',(1.,0.,0.));
#444=DIRECTION('',(0.,0.,1.));
#445=DIRECTION('',(-1.,0.,-3.19455382498947E-17));
#446=DIRECTION('',(2.164934898019E-14,0.,1.));
#447=DIRECTION('',(-2.164934898019E-14,0.,1.));
#448=DIRECTION('',(0.,0.,-1.));
#449=DIRECTION('',(1.,0.,0.));
#450=DIRECTION('',(0.,0.,-1.));
#451=DIRECTION('',(1.,0.,0.));
#452=CARTESIAN_POINT('',(0.,0.,0.));
#453=CARTESIAN_POINT('',(0.,0.,0.));
#454=CARTESIAN_POINT('',(-4.122280922014,-2.38,0.));
#455=CARTESIAN_POINT('',(3.429460598986,-2.38,0.));
#456=CARTESIAN_POINT('',(-3.775870760498,-1.779999999996,0.));
#457=CARTESIAN_POINT('',(0.3464101615124,4.160000000002,0.));
#458=CARTESIAN_POINT('',(-3.429460598986,-1.98,0.));
#459=CARTESIAN_POINT('',(0.,3.96,0.));
#460=CARTESIAN_POINT('',(3.429460598986,-1.98,0.));
#461=CARTESIAN_POINT('',(0.,0.,0.));
#462=CARTESIAN_POINT('',(-4.122280922014,-2.38,0.));
#463=CARTESIAN_POINT('',(0.,0.,0.));
#464=CARTESIAN_POINT('',(-3.775870760499,-1.779999999999,0.));
#465=CARTESIAN_POINT('',(-3.775870760498,-1.779999999996,0.));
#466=CARTESIAN_POINT('',(-0.3464101615138,4.16,0.));
#467=CARTESIAN_POINT('',(-3.429460598986,-1.98,0.));
#468=CARTESIAN_POINT('',(-3.429460598986,-2.38,0.));
#469=CARTESIAN_POINT('',(3.429460598986,-2.38,0.));
#470=CARTESIAN_POINT('',(3.429460598986,-2.38,0.));
#471=CARTESIAN_POINT('',(3.429460598986,-1.98,0.));
#472=CARTESIAN_POINT('',(3.7758707605,-1.78,0.));
#473=CARTESIAN_POINT('',(0.3464101615133,4.160000000001,-1.470492092941E-14));
#474=CARTESIAN_POINT('',(0.3464101615126,4.160000000002,0.));
#475=CARTESIAN_POINT('',(0.,3.96,0.));
#476=CARTESIAN_POINT('',(0.,0.,0.));
#477=CARTESIAN_POINT('',(1.9,0.,0.));
#478=CARTESIAN_POINT('',(-1.9,0.,0.));
#479=CARTESIAN_POINT('',(0.,0.,0.));
#480=CARTESIAN_POINT('',(0.,0.,0.));
#481=CARTESIAN_POINT('',(-0.3464101615138,4.16,0.));
#482=CARTESIAN_POINT('',(-2.546111469807E-14,3.96,-2.057821606388));
#483=CARTESIAN_POINT('',(-2.546111469807E-14,3.96,-2.057821606388));
#484=CARTESIAN_POINT('',(0.,3.96,-1.00833258713));
#485=CARTESIAN_POINT('',(-1.045748640626E-14,3.834749728504,-2.38));
#486=CARTESIAN_POINT('',(-1.06581410364E-14,3.834749728504,-2.38));
#487=CARTESIAN_POINT('',(3.7758707605,-1.78,0.));
#488=CARTESIAN_POINT('',(3.429460598986,-1.98,-2.057821606388));
#489=CARTESIAN_POINT('',(3.32099068204,-1.917374864252,-2.38));
#490=CARTESIAN_POINT('',(3.32099068204,-1.917374864252,-2.38));
#491=CARTESIAN_POINT('',(3.32099068204,-1.917374864252,-2.38));
#492=CARTESIAN_POINT('',(4.68228332211,-3.349952609327,0.));
#493=CARTESIAN_POINT('',(-1.045748640626E-14,3.834749728504,-2.38));
#494=CARTESIAN_POINT('',(-3.32099068204,-1.917374864252,-2.38));
#495=CARTESIAN_POINT('',(-3.32099068204,-1.917374864252,-2.38));
#496=CARTESIAN_POINT('',(0.,0.,-2.38));
#497=CARTESIAN_POINT('',(-1.25,0.,-2.38));
#498=CARTESIAN_POINT('',(1.25,0.,-2.38));
#499=CARTESIAN_POINT('',(0.,0.,-2.38));
#500=CARTESIAN_POINT('',(0.,0.,-2.38));
#501=CARTESIAN_POINT('',(3.429460598986,-1.98,-2.057821606388));
#502=CARTESIAN_POINT('',(-3.429460598986,-2.38,0.));
#503=CARTESIAN_POINT('',(-3.429460598986,-1.98,-2.057821606388));
#504=CARTESIAN_POINT('',(-3.32099068204,-1.917374864252,-2.38));
#505=CARTESIAN_POINT('',(-5.242285722206,-2.38,0.));
#506=CARTESIAN_POINT('',(-3.429460598986,-1.98,-2.057821606388));
#507=CARTESIAN_POINT('',(0.560002400096,5.729952609327,0.));
#508=CARTESIAN_POINT('',(-3.429460598986,-1.98,-1.00833258713));
#509=CARTESIAN_POINT('',(3.429460598986,-1.98,-1.00833258713));
#510=CARTESIAN_POINT('',(-1.25,0.,-1.073094703964));
#511=CARTESIAN_POINT('',(-1.25,0.,-1.073094703964));
#512=CARTESIAN_POINT('',(0.,0.,-1.073094703964));
#513=CARTESIAN_POINT('',(1.25,0.,-1.073094703964));
#514=CARTESIAN_POINT('',(1.25,0.,-1.073094703964));
#515=CARTESIAN_POINT('',(0.,0.,0.119));
#516=CARTESIAN_POINT('',(0.,0.,-1.073094703964));
#517=CARTESIAN_POINT('',(0.,0.,0.119));
#518=CARTESIAN_POINT('',(0.,0.,-0.4));
#519=CARTESIAN_POINT('',(-1.9,0.,-0.4));
#520=CARTESIAN_POINT('',(1.9,0.,-0.4));
#521=CARTESIAN_POINT('',(-1.9,0.,-0.4));
#522=CARTESIAN_POINT('',(1.9,0.,-0.4));
#523=CARTESIAN_POINT('',(0.,0.,-0.736547351982));
#524=CARTESIAN_POINT('',(0.,0.,-0.4));
#525=CARTESIAN_POINT('',(0.,0.,-0.736547351982));
#526=CARTESIAN_POINT('',(1.9,0.,0.));
#527=CARTESIAN_POINT('',(-1.9,0.,0.));
#528=CARTESIAN_POINT('',(0.,0.,0.119));
#529=CARTESIAN_POINT('',(0.,0.,0.119));
#530=MECHANICAL_DESIGN_GEOMETRIC_PRESENTATION_REPRESENTATION('',(#302,#303,
#304,#305,#306,#307,#308,#309,#310,#311,#312,#313),#531);
#531=(
GEOMETRIC_REPRESENTATION_CONTEXT(3)
GLOBAL_UNCERTAINTY_ASSIGNED_CONTEXT((#532))
GLOBAL_UNIT_ASSIGNED_CONTEXT((#538,#534,#533))
REPRESENTATION_CONTEXT('TP080204N','TOP_LEVEL_ASSEMBLY_PART')
);
#532=UNCERTAINTY_MEASURE_WITH_UNIT(LENGTH_MEASURE(2.E-5),#538,
'DISTANCE_ACCURACY_VALUE','Maximum Tolerance applied to model');
#533=(
NAMED_UNIT(*)
SI_UNIT($,.STERADIAN.)
SOLID_ANGLE_UNIT()
);
#534=(
CONVERSION_BASED_UNIT('DEGREE',#536)
NAMED_UNIT(#535)
PLANE_ANGLE_UNIT()
);
#535=DIMENSIONAL_EXPONENTS(0.,0.,0.,0.,0.,0.,0.);
#536=PLANE_ANGLE_MEASURE_WITH_UNIT(PLANE_ANGLE_MEASURE(0.0174532925),#537);
#537=(
NAMED_UNIT(*)
PLANE_ANGLE_UNIT()
SI_UNIT($,.RADIAN.)
);
#538=(
LENGTH_UNIT()
NAMED_UNIT(*)
SI_UNIT(.MILLI.,.METRE.)
);
ENDSEC;
END-ISO-10303-21;
