ISO-10303-21;
HEADER;
FILE_DESCRIPTION((''),'2;1');
FILE_NAME('TPGN090204','2025-01-22T09:53:15',('tlyae0012'),('PTC Japan'),
'CREO PARAMETRIC BY PTC INC, 2021424','CREO PARAMETRIC BY PTC INC, 2021424','');
FILE_SCHEMA(('AUTOMOTIVE_DESIGN { 1 0 10303 214 1 1 1 1 }'));
ENDSEC;
DATA;
#19=DIRECTION('',(5.E-1,8.660254037844E-1,0.E0));
#20=VECTOR('',#19,8.260150301296E0);
#21=CARTESIAN_POINT('',(-4.476485312162E0,-2.1845E0,0.E0));
#22=LINE('',#21,#20);
#23=DRAUGHTING_PRE_DEFINED_CURVE_FONT('continuous');
#24=CURVE_STYLE('',#23,POSITIVE_LENGTH_MEASURE(2.E-2),#10);
#25=PRESENTATION_STYLE_ASSIGNMENT((#24));
#26=STYLED_ITEM('',(#25),#22);
#27=CARTESIAN_POINT('',(0.E0,4.769E0,0.E0));
#28=DIRECTION('',(0.E0,0.E0,-1.E0));
#29=DIRECTION('',(-8.660254037844E-1,5.E-1,0.E0));
#30=AXIS2_PLACEMENT_3D('',#27,#28,#29);
#32=CURVE_STYLE('',#23,POSITIVE_LENGTH_MEASURE(2.E-2),#10);
#33=PRESENTATION_STYLE_ASSIGNMENT((#32));
#34=STYLED_ITEM('',(#33),#31);
#35=DIRECTION('',(5.E-1,-8.660254037844E-1,0.E0));
#36=VECTOR('',#35,8.260150301296E0);
#37=CARTESIAN_POINT('',(3.464101615138E-1,4.969E0,0.E0));
#38=LINE('',#37,#36);
#39=CURVE_STYLE('',#23,POSITIVE_LENGTH_MEASURE(2.E-2),#10);
#40=PRESENTATION_STYLE_ASSIGNMENT((#39));
#41=STYLED_ITEM('',(#40),#38);
#42=CARTESIAN_POINT('',(4.130075150648E0,-2.3845E0,0.E0));
#43=DIRECTION('',(0.E0,0.E0,-1.E0));
#44=DIRECTION('',(8.660254037844E-1,5.E-1,0.E0));
#45=AXIS2_PLACEMENT_3D('',#42,#43,#44);
#47=CURVE_STYLE('',#23,POSITIVE_LENGTH_MEASURE(2.E-2),#10);
#48=PRESENTATION_STYLE_ASSIGNMENT((#47));
#49=STYLED_ITEM('',(#48),#46);
#50=DIRECTION('',(-1.E0,0.E0,0.E0));
#51=VECTOR('',#50,8.260150301296E0);
#52=CARTESIAN_POINT('',(4.130075150648E0,-2.7845E0,0.E0));
#53=LINE('',#52,#51);
#54=CURVE_STYLE('',#23,POSITIVE_LENGTH_MEASURE(2.E-2),#10);
#55=PRESENTATION_STYLE_ASSIGNMENT((#54));
#56=STYLED_ITEM('',(#55),#53);
#57=CARTESIAN_POINT('',(-4.130075150648E0,-2.3845E0,0.E0));
#58=DIRECTION('',(0.E0,0.E0,-1.E0));
#59=DIRECTION('',(0.E0,-1.E0,0.E0));
#60=AXIS2_PLACEMENT_3D('',#57,#58,#59);
#62=CURVE_STYLE('',#23,POSITIVE_LENGTH_MEASURE(2.E-2),#10);
#63=PRESENTATION_STYLE_ASSIGNMENT((#62));
#64=STYLED_ITEM('',(#63),#61);
#65=DIRECTION('',(-5.E-1,-8.660254037844E-1,0.E0));
#66=VECTOR('',#65,8.260150301296E0);
#67=CARTESIAN_POINT('',(-3.464101615138E-1,4.969E0,-1.E-1));
#68=LINE('',#67,#66);
#69=CURVE_STYLE('',#23,POSITIVE_LENGTH_MEASURE(2.E-2),#10);
#70=PRESENTATION_STYLE_ASSIGNMENT((#69));
#71=STYLED_ITEM('',(#70),#68);
#72=DIRECTION('',(0.E0,0.E0,1.E0));
#73=VECTOR('',#72,1.E-1);
#74=CARTESIAN_POINT('',(-3.464101615138E-1,4.969E0,-1.E-1));
#75=LINE('',#74,#73);
#76=CURVE_STYLE('',#23,POSITIVE_LENGTH_MEASURE(2.E-2),#10);
#77=PRESENTATION_STYLE_ASSIGNMENT((#76));
#78=STYLED_ITEM('',(#77),#75);
#79=DIRECTION('',(1.776356839400E-14,2.664535259100E-14,1.E0));
#80=VECTOR('',#79,1.E-1);
#81=CARTESIAN_POINT('',(-4.476485312162E0,-2.1845E0,-1.E-1));
#82=LINE('',#81,#80);
#83=CURVE_STYLE('',#23,POSITIVE_LENGTH_MEASURE(2.E-2),#10);
#84=PRESENTATION_STYLE_ASSIGNMENT((#83));
#85=STYLED_ITEM('',(#84),#82);
#86=CARTESIAN_POINT('',(-4.130075150648E0,-2.3845E0,-1.E-1));
#87=DIRECTION('',(0.E0,0.E0,1.E0));
#88=DIRECTION('',(-8.660254037844E-1,5.E-1,0.E0));
#89=AXIS2_PLACEMENT_3D('',#86,#87,#88);
#91=CURVE_STYLE('',#23,POSITIVE_LENGTH_MEASURE(2.E-2),#10);
#92=PRESENTATION_STYLE_ASSIGNMENT((#91));
#93=STYLED_ITEM('',(#92),#90);
#94=DIRECTION('',(-1.652454372667E-1,9.540449768827E-2,9.816271834477E-1));
#95=VECTOR('',#94,2.096337225667E0);
#96=CARTESIAN_POINT('',(-4.130075150648E0,-2.3845E0,-2.157821606388E0));
#97=LINE('',#96,#95);
#98=CURVE_STYLE('',#23,POSITIVE_LENGTH_MEASURE(2.E-2),#10);
#99=PRESENTATION_STYLE_ASSIGNMENT((#98));
#100=STYLED_ITEM('',(#99),#97);
#101=DIRECTION('',(3.137977322736E-1,1.811712051992E-1,-9.320450512859E-1));
#102=VECTOR('',#101,2.383773115960E-1);
#103=CARTESIAN_POINT('',(-4.130075150648E0,-2.3845E0,-2.157821606388E0));
#104=LINE('',#103,#102);
#105=CURVE_STYLE('',#23,POSITIVE_LENGTH_MEASURE(2.E-2),#10);
#106=PRESENTATION_STYLE_ASSIGNMENT((#105));
#107=STYLED_ITEM('',(#106),#104);
#108=DIRECTION('',(0.E0,-1.908089953765E-1,9.816271834477E-1));
#109=VECTOR('',#108,2.096337225667E0);
#110=CARTESIAN_POINT('',(-4.130075150648E0,-2.3845E0,-2.157821606388E0));
#111=LINE('',#110,#109);
#112=CURVE_STYLE('',#23,POSITIVE_LENGTH_MEASURE(2.E-2),#10);
#113=PRESENTATION_STYLE_ASSIGNMENT((#112));
#114=STYLED_ITEM('',(#113),#111);
#115=DIRECTION('',(-3.137977322736E-1,1.811712051992E-1,-9.320450512859E-1));
#116=VECTOR('',#115,2.383773115960E-1);
#117=CARTESIAN_POINT('',(4.130075150648E0,-2.3845E0,-2.157821606388E0));
#118=LINE('',#117,#116);
#119=CURVE_STYLE('',#23,POSITIVE_LENGTH_MEASURE(2.E-2),#10);
#120=PRESENTATION_STYLE_ASSIGNMENT((#119));
#121=STYLED_ITEM('',(#120),#118);
#122=DIRECTION('',(5.E-1,-8.660254037844E-1,0.E0));
#123=VECTOR('',#122,8.110545781687E0);
#124=CARTESIAN_POINT('',(0.E0,4.682625790332E0,-2.38E0));
#125=LINE('',#124,#123);
#126=CURVE_STYLE('',#23,POSITIVE_LENGTH_MEASURE(2.E-2),#10);
#127=PRESENTATION_STYLE_ASSIGNMENT((#126));
#128=STYLED_ITEM('',(#127),#125);
#129=DIRECTION('',(5.E-1,8.660254037844E-1,0.E0));
#130=VECTOR('',#129,8.110545781687E0);
#131=CARTESIAN_POINT('',(-4.055272890844E0,-2.341312895166E0,-2.38E0));
#132=LINE('',#131,#130);
#133=CURVE_STYLE('',#23,POSITIVE_LENGTH_MEASURE(2.E-2),#10);
#134=PRESENTATION_STYLE_ASSIGNMENT((#133));
#135=STYLED_ITEM('',(#134),#132);
#136=DIRECTION('',(-1.E0,0.E0,0.E0));
#137=VECTOR('',#136,8.110545781687E0);
#138=CARTESIAN_POINT('',(4.055272890844E0,-2.341312895166E0,-2.38E0));
#139=LINE('',#138,#137);
#140=CURVE_STYLE('',#23,POSITIVE_LENGTH_MEASURE(2.E-2),#10);
#141=PRESENTATION_STYLE_ASSIGNMENT((#140));
#142=STYLED_ITEM('',(#141),#139);
#143=DIRECTION('',(1.652454372667E-1,9.540449768827E-2,9.816271834477E-1));
#144=VECTOR('',#143,2.096337225667E0);
#145=CARTESIAN_POINT('',(4.130075150648E0,-2.3845E0,-2.157821606388E0));
#146=LINE('',#145,#144);
#147=CURVE_STYLE('',#23,POSITIVE_LENGTH_MEASURE(2.E-2),#10);
#148=PRESENTATION_STYLE_ASSIGNMENT((#147));
#149=STYLED_ITEM('',(#148),#146);
#150=DIRECTION('',(0.E0,-1.908089953765E-1,9.816271834477E-1));
#151=VECTOR('',#150,2.096337225667E0);
#152=CARTESIAN_POINT('',(4.130075150648E0,-2.3845E0,-2.157821606388E0));
#153=LINE('',#152,#151);
#154=CURVE_STYLE('',#23,POSITIVE_LENGTH_MEASURE(2.E-2),#10);
#155=PRESENTATION_STYLE_ASSIGNMENT((#154));
#156=STYLED_ITEM('',(#155),#153);
#157=CARTESIAN_POINT('',(4.130075150648E0,-2.3845E0,-1.E-1));
#158=DIRECTION('',(0.E0,0.E0,1.E0));
#159=DIRECTION('',(0.E0,-1.E0,0.E0));
#160=AXIS2_PLACEMENT_3D('',#157,#158,#159);
#162=CURVE_STYLE('',#23,POSITIVE_LENGTH_MEASURE(2.E-2),#10);
#163=PRESENTATION_STYLE_ASSIGNMENT((#162));
#164=STYLED_ITEM('',(#163),#161);
#165=DIRECTION('',(1.776356839400E-14,0.E0,1.E0));
#166=VECTOR('',#165,1.E-1);
#167=CARTESIAN_POINT('',(4.130075150648E0,-2.7845E0,-1.E-1));
#168=LINE('',#167,#166);
#169=CURVE_STYLE('',#23,POSITIVE_LENGTH_MEASURE(2.E-2),#10);
#170=PRESENTATION_STYLE_ASSIGNMENT((#169));
#171=STYLED_ITEM('',(#170),#168);
#172=DIRECTION('',(0.E0,0.E0,1.E0));
#173=VECTOR('',#172,1.E-1);
#174=CARTESIAN_POINT('',(-4.130075150648E0,-2.7845E0,-1.E-1));
#175=LINE('',#174,#173);
#176=CURVE_STYLE('',#23,POSITIVE_LENGTH_MEASURE(2.E-2),#10);
#177=PRESENTATION_STYLE_ASSIGNMENT((#176));
#178=STYLED_ITEM('',(#177),#175);
#179=DIRECTION('',(1.E0,0.E0,0.E0));
#180=VECTOR('',#179,8.260150301296E0);
#181=CARTESIAN_POINT('',(-4.130075150648E0,-2.7845E0,-1.E-1));
#182=LINE('',#181,#180);
#183=CURVE_STYLE('',#23,POSITIVE_LENGTH_MEASURE(2.E-2),#10);
#184=PRESENTATION_STYLE_ASSIGNMENT((#183));
#185=STYLED_ITEM('',(#184),#182);
#186=DIRECTION('',(-1.776356839400E-14,2.664535259100E-14,1.E0));
#187=VECTOR('',#186,1.E-1);
#188=CARTESIAN_POINT('',(4.476485312162E0,-2.1845E0,-1.E-1));
#189=LINE('',#188,#187);
#190=CURVE_STYLE('',#23,POSITIVE_LENGTH_MEASURE(2.E-2),#10);
#191=PRESENTATION_STYLE_ASSIGNMENT((#190));
#192=STYLED_ITEM('',(#191),#189);
#193=DIRECTION('',(-5.E-1,8.660254037844E-1,0.E0));
#194=VECTOR('',#193,8.260150301296E0);
#195=CARTESIAN_POINT('',(4.476485312162E0,-2.1845E0,-1.E-1));
#196=LINE('',#195,#194);
#197=CURVE_STYLE('',#23,POSITIVE_LENGTH_MEASURE(2.E-2),#10);
#198=PRESENTATION_STYLE_ASSIGNMENT((#197));
#199=STYLED_ITEM('',(#198),#196);
#200=DIRECTION('',(0.E0,-1.776356839400E-14,1.E0));
#201=VECTOR('',#200,1.E-1);
#202=CARTESIAN_POINT('',(3.464101615138E-1,4.969E0,-1.E-1));
#203=LINE('',#202,#201);
#204=CURVE_STYLE('',#23,POSITIVE_LENGTH_MEASURE(2.E-2),#10);
#205=PRESENTATION_STYLE_ASSIGNMENT((#204));
#206=STYLED_ITEM('',(#205),#203);
#207=DIRECTION('',(1.652454372667E-1,9.540449768827E-2,9.816271834477E-1));
#208=VECTOR('',#207,2.096337225667E0);
#209=CARTESIAN_POINT('',(0.E0,4.769E0,-2.157821606388E0));
#210=LINE('',#209,#208);
#211=CURVE_STYLE('',#23,POSITIVE_LENGTH_MEASURE(2.E-2),#10);
#212=PRESENTATION_STYLE_ASSIGNMENT((#211));
#213=STYLED_ITEM('',(#212),#210);
#214=CARTESIAN_POINT('',(0.E0,4.769E0,-1.E-1));
#215=DIRECTION('',(0.E0,0.E0,1.E0));
#216=DIRECTION('',(8.660254037844E-1,5.E-1,0.E0));
#217=AXIS2_PLACEMENT_3D('',#214,#215,#216);
#219=CURVE_STYLE('',#23,POSITIVE_LENGTH_MEASURE(2.E-2),#10);
#220=PRESENTATION_STYLE_ASSIGNMENT((#219));
#221=STYLED_ITEM('',(#220),#218);
#222=DIRECTION('',(-1.652454372667E-1,9.540449768827E-2,9.816271834477E-1));
#223=VECTOR('',#222,2.096337225667E0);
#224=CARTESIAN_POINT('',(0.E0,4.769E0,-2.157821606388E0));
#225=LINE('',#224,#223);
#226=CURVE_STYLE('',#23,POSITIVE_LENGTH_MEASURE(2.E-2),#10);
#227=PRESENTATION_STYLE_ASSIGNMENT((#226));
#228=STYLED_ITEM('',(#227),#225);
#229=DIRECTION('',(0.E0,-3.623424103985E-1,-9.320450512859E-1));
#230=VECTOR('',#229,2.383773115960E-1);
#231=CARTESIAN_POINT('',(0.E0,4.769E0,-2.157821606388E0));
#232=LINE('',#231,#230);
#233=CURVE_STYLE('',#23,POSITIVE_LENGTH_MEASURE(2.E-2),#10);
#234=PRESENTATION_STYLE_ASSIGNMENT((#233));
#235=STYLED_ITEM('',(#234),#232);
#236=CARTESIAN_POINT('',(-4.476485312162E0,-2.1845E0,0.E0));
#237=CARTESIAN_POINT('',(-3.464101615138E-1,4.969E0,0.E0));
#238=VERTEX_POINT('',#236);
#239=VERTEX_POINT('',#237);
#240=CARTESIAN_POINT('',(-4.130075150648E0,-2.7845E0,0.E0));
#241=VERTEX_POINT('',#240);
#242=CARTESIAN_POINT('',(4.130075150648E0,-2.7845E0,0.E0));
#243=VERTEX_POINT('',#242);
#244=CARTESIAN_POINT('',(4.476485312162E0,-2.1845E0,0.E0));
#245=VERTEX_POINT('',#244);
#246=CARTESIAN_POINT('',(3.464101615138E-1,4.969E0,0.E0));
#247=VERTEX_POINT('',#246);
#248=CARTESIAN_POINT('',(4.476485312162E0,-2.1845E0,-1.E-1));
#249=CARTESIAN_POINT('',(3.464101615138E-1,4.969E0,-1.E-1));
#250=VERTEX_POINT('',#248);
#251=VERTEX_POINT('',#249);
#252=CARTESIAN_POINT('',(-3.464101615138E-1,4.969E0,-1.E-1));
#253=VERTEX_POINT('',#252);
#254=CARTESIAN_POINT('',(4.130075150648E0,-2.7845E0,-1.E-1));
#255=VERTEX_POINT('',#254);
#256=CARTESIAN_POINT('',(-4.476485312162E0,-2.1845E0,-1.E-1));
#257=VERTEX_POINT('',#256);
#258=CARTESIAN_POINT('',(-4.130075150648E0,-2.7845E0,-1.E-1));
#259=VERTEX_POINT('',#258);
#260=CARTESIAN_POINT('',(0.E0,4.769E0,-2.157821606388E0));
#261=VERTEX_POINT('',#260);
#262=CARTESIAN_POINT('',(4.130075150648E0,-2.3845E0,-2.157821606388E0));
#263=VERTEX_POINT('',#262);
#264=CARTESIAN_POINT('',(-4.130075150648E0,-2.3845E0,-2.157821606388E0));
#265=VERTEX_POINT('',#264);
#266=CARTESIAN_POINT('',(0.E0,4.682625790332E0,-2.38E0));
#267=CARTESIAN_POINT('',(4.055272890844E0,-2.341312895166E0,-2.38E0));
#268=VERTEX_POINT('',#266);
#269=VERTEX_POINT('',#267);
#270=CARTESIAN_POINT('',(-4.055272890844E0,-2.341312895166E0,-2.38E0));
#271=VERTEX_POINT('',#270);
#272=CARTESIAN_POINT('',(0.E0,0.E0,0.E0));
#273=DIRECTION('',(0.E0,0.E0,1.E0));
#274=DIRECTION('',(1.E0,0.E0,0.E0));
#275=AXIS2_PLACEMENT_3D('',#272,#273,#274);
#276=PLANE('',#275);
#278=ORIENTED_EDGE('',*,*,#277,.T.);
#280=ORIENTED_EDGE('',*,*,#279,.T.);
#282=ORIENTED_EDGE('',*,*,#281,.T.);
#284=ORIENTED_EDGE('',*,*,#283,.T.);
#286=ORIENTED_EDGE('',*,*,#285,.T.);
#288=ORIENTED_EDGE('',*,*,#287,.T.);
#289=EDGE_LOOP('',(#278,#280,#282,#284,#286,#288));
#290=FACE_OUTER_BOUND('',#289,.F.);
#292=CARTESIAN_POINT('',(-3.464101615138E-1,4.969E0,0.E0));
#293=DIRECTION('',(-8.660254037844E-1,5.E-1,0.E0));
#294=DIRECTION('',(-5.E-1,-8.660254037844E-1,0.E0));
#295=AXIS2_PLACEMENT_3D('',#292,#293,#294);
#296=PLANE('',#295);
#298=ORIENTED_EDGE('',*,*,#297,.F.);
#300=ORIENTED_EDGE('',*,*,#299,.F.);
#302=ORIENTED_EDGE('',*,*,#301,.T.);
#303=ORIENTED_EDGE('',*,*,#277,.F.);
#304=EDGE_LOOP('',(#298,#300,#302,#303));
#305=FACE_OUTER_BOUND('',#304,.F.);
#307=CARTESIAN_POINT('',(-4.130075150648E0,-2.3845E0,0.E0));
#308=DIRECTION('',(0.E0,0.E0,1.E0));
#309=DIRECTION('',(1.E0,0.E0,0.E0));
#310=AXIS2_PLACEMENT_3D('',#307,#308,#309);
#311=CYLINDRICAL_SURFACE('',#310,4.E-1);
#313=ORIENTED_EDGE('',*,*,#312,.F.);
#314=ORIENTED_EDGE('',*,*,#297,.T.);
#315=ORIENTED_EDGE('',*,*,#287,.F.);
#317=ORIENTED_EDGE('',*,*,#316,.F.);
#318=EDGE_LOOP('',(#313,#314,#315,#317));
#319=FACE_OUTER_BOUND('',#318,.F.);
#321=CARTESIAN_POINT('',(-4.130075150648E0,-2.3845E0,-1.108332587130E0));
#322=DIRECTION('',(0.E0,0.E0,1.E0));
#323=DIRECTION('',(1.E0,0.E0,0.E0));
#324=AXIS2_PLACEMENT_3D('',#321,#322,#323);
#325=CONICAL_SURFACE('',#324,2.04E-1,1.1E1);
#326=ORIENTED_EDGE('',*,*,#312,.T.);
#328=ORIENTED_EDGE('',*,*,#327,.F.);
#330=ORIENTED_EDGE('',*,*,#329,.T.);
#331=EDGE_LOOP('',(#326,#328,#330));
#332=FACE_OUTER_BOUND('',#331,.F.);
#334=CARTESIAN_POINT('',(-4.130075150648E0,-2.7845E0,-1.E-1));
#335=DIRECTION('',(0.E0,-9.816271834477E-1,-1.908089953765E-1));
#336=DIRECTION('',(1.E0,0.E0,0.E0));
#337=AXIS2_PLACEMENT_3D('',#334,#335,#336);
#338=PLANE('',#337);
#340=ORIENTED_EDGE('',*,*,#339,.T.);
#342=ORIENTED_EDGE('',*,*,#341,.F.);
#343=ORIENTED_EDGE('',*,*,#327,.T.);
#345=ORIENTED_EDGE('',*,*,#344,.T.);
#347=ORIENTED_EDGE('',*,*,#346,.F.);
#349=ORIENTED_EDGE('',*,*,#348,.T.);
#350=EDGE_LOOP('',(#340,#342,#343,#345,#347,#349));
#351=FACE_OUTER_BOUND('',#350,.F.);
#353=CARTESIAN_POINT('',(0.E0,0.E0,-2.38E0));
#354=DIRECTION('',(0.E0,0.E0,1.E0));
#355=DIRECTION('',(1.E0,0.E0,0.E0));
#356=AXIS2_PLACEMENT_3D('',#353,#354,#355);
#357=PLANE('',#356);
#359=ORIENTED_EDGE('',*,*,#358,.F.);
#361=ORIENTED_EDGE('',*,*,#360,.F.);
#362=ORIENTED_EDGE('',*,*,#339,.F.);
#363=EDGE_LOOP('',(#359,#361,#362));
#364=FACE_OUTER_BOUND('',#363,.F.);
#366=CARTESIAN_POINT('',(4.476485312162E0,-2.1845E0,-1.E-1));
#367=DIRECTION('',(8.501140779110E-1,4.908135917238E-1,-1.908089953765E-1));
#368=DIRECTION('',(-5.E-1,8.660254037844E-1,0.E0));
#369=AXIS2_PLACEMENT_3D('',#366,#367,#368);
#370=PLANE('',#369);
#371=ORIENTED_EDGE('',*,*,#358,.T.);
#372=ORIENTED_EDGE('',*,*,#348,.F.);
#374=ORIENTED_EDGE('',*,*,#373,.T.);
#376=ORIENTED_EDGE('',*,*,#375,.T.);
#378=ORIENTED_EDGE('',*,*,#377,.F.);
#380=ORIENTED_EDGE('',*,*,#379,.T.);
#381=EDGE_LOOP('',(#371,#372,#374,#376,#378,#380));
#382=FACE_OUTER_BOUND('',#381,.F.);
#384=CARTESIAN_POINT('',(4.130075150648E0,-2.3845E0,-1.108332587130E0));
#385=DIRECTION('',(0.E0,0.E0,1.E0));
#386=DIRECTION('',(1.E0,0.E0,0.E0));
#387=AXIS2_PLACEMENT_3D('',#384,#385,#386);
#388=CONICAL_SURFACE('',#387,2.04E-1,1.1E1);
#389=ORIENTED_EDGE('',*,*,#346,.T.);
#391=ORIENTED_EDGE('',*,*,#390,.T.);
#392=ORIENTED_EDGE('',*,*,#373,.F.);
#393=EDGE_LOOP('',(#389,#391,#392));
#394=FACE_OUTER_BOUND('',#393,.F.);
#396=CARTESIAN_POINT('',(4.130075150648E0,-2.3845E0,0.E0));
#397=DIRECTION('',(0.E0,0.E0,1.E0));
#398=DIRECTION('',(1.E0,0.E0,0.E0));
#399=AXIS2_PLACEMENT_3D('',#396,#397,#398);
#400=CYLINDRICAL_SURFACE('',#399,4.E-1);
#402=ORIENTED_EDGE('',*,*,#401,.T.);
#403=ORIENTED_EDGE('',*,*,#283,.F.);
#405=ORIENTED_EDGE('',*,*,#404,.F.);
#406=ORIENTED_EDGE('',*,*,#390,.F.);
#407=EDGE_LOOP('',(#402,#403,#405,#406));
#408=FACE_OUTER_BOUND('',#407,.F.);
#410=CARTESIAN_POINT('',(-4.130075150648E0,-2.7845E0,0.E0));
#411=DIRECTION('',(0.E0,-1.E0,0.E0));
#412=DIRECTION('',(1.E0,0.E0,0.E0));
#413=AXIS2_PLACEMENT_3D('',#410,#411,#412);
#414=PLANE('',#413);
#415=ORIENTED_EDGE('',*,*,#316,.T.);
#416=ORIENTED_EDGE('',*,*,#285,.F.);
#417=ORIENTED_EDGE('',*,*,#401,.F.);
#418=ORIENTED_EDGE('',*,*,#344,.F.);
#419=EDGE_LOOP('',(#415,#416,#417,#418));
#420=FACE_OUTER_BOUND('',#419,.F.);
#422=CARTESIAN_POINT('',(4.476485312162E0,-2.1845E0,0.E0));
#423=DIRECTION('',(8.660254037844E-1,5.E-1,0.E0));
#424=DIRECTION('',(-5.E-1,8.660254037844E-1,0.E0));
#425=AXIS2_PLACEMENT_3D('',#422,#423,#424);
#426=PLANE('',#425);
#427=ORIENTED_EDGE('',*,*,#404,.T.);
#428=ORIENTED_EDGE('',*,*,#281,.F.);
#430=ORIENTED_EDGE('',*,*,#429,.F.);
#431=ORIENTED_EDGE('',*,*,#375,.F.);
#432=EDGE_LOOP('',(#427,#428,#430,#431));
#433=FACE_OUTER_BOUND('',#432,.F.);
#435=CARTESIAN_POINT('',(0.E0,4.769E0,0.E0));
#436=DIRECTION('',(0.E0,0.E0,1.E0));
#437=DIRECTION('',(1.E0,0.E0,0.E0));
#438=AXIS2_PLACEMENT_3D('',#435,#436,#437);
#439=CYLINDRICAL_SURFACE('',#438,4.E-1);
#440=ORIENTED_EDGE('',*,*,#301,.F.);
#442=ORIENTED_EDGE('',*,*,#441,.F.);
#443=ORIENTED_EDGE('',*,*,#429,.T.);
#444=ORIENTED_EDGE('',*,*,#279,.F.);
#445=EDGE_LOOP('',(#440,#442,#443,#444));
#446=FACE_OUTER_BOUND('',#445,.F.);
#448=CARTESIAN_POINT('',(0.E0,4.769E0,-1.108332587130E0));
#449=DIRECTION('',(0.E0,0.E0,1.E0));
#450=DIRECTION('',(1.E0,0.E0,0.E0));
#451=AXIS2_PLACEMENT_3D('',#448,#449,#450);
#452=CONICAL_SURFACE('',#451,2.04E-1,1.1E1);
#454=ORIENTED_EDGE('',*,*,#453,.F.);
#455=ORIENTED_EDGE('',*,*,#377,.T.);
#456=ORIENTED_EDGE('',*,*,#441,.T.);
#457=EDGE_LOOP('',(#454,#455,#456));
#458=FACE_OUTER_BOUND('',#457,.F.);
#460=CARTESIAN_POINT('',(-3.464101615138E-1,4.969E0,-1.E-1));
#461=DIRECTION('',(-8.501140779110E-1,4.908135917238E-1,-1.908089953765E-1));
#462=DIRECTION('',(-5.E-1,-8.660254037844E-1,0.E0));
#463=AXIS2_PLACEMENT_3D('',#460,#461,#462);
#464=PLANE('',#463);
#465=ORIENTED_EDGE('',*,*,#453,.T.);
#466=ORIENTED_EDGE('',*,*,#299,.T.);
#467=ORIENTED_EDGE('',*,*,#329,.F.);
#468=ORIENTED_EDGE('',*,*,#341,.T.);
#469=ORIENTED_EDGE('',*,*,#360,.T.);
#470=ORIENTED_EDGE('',*,*,#379,.F.);
#471=EDGE_LOOP('',(#465,#466,#467,#468,#469,#470));
#472=FACE_OUTER_BOUND('',#471,.F.);
#476=FILL_AREA_STYLE_COLOUR('',#10);
#477=FILL_AREA_STYLE('',(#476));
#478=SURFACE_STYLE_FILL_AREA(#477);
#479=SURFACE_SIDE_STYLE('',(#478));
#480=SURFACE_STYLE_USAGE(.BOTH.,#479);
#481=PRESENTATION_STYLE_ASSIGNMENT((#480));
#18=STYLED_ITEM('',(#481),#475);
#482=CARTESIAN_POINT('',(0.E0,0.E0,0.E0));
#483=DIRECTION('',(0.E0,0.E0,1.E0));
#484=DIRECTION('',(1.E0,0.E0,0.E0));
#485=AXIS2_PLACEMENT_3D('MCS',#482,#483,#484);
#486=CURVE_STYLE('',#23,POSITIVE_LENGTH_MEASURE(2.E-2),#16);
#487=PRESENTATION_STYLE_ASSIGNMENT((#486));
#488=STYLED_ITEM('',(#487),#485);
#489=CARTESIAN_POINT('',(-4.130075150648E0,-2.3845E0,0.E0));
#490=DIRECTION('',(0.E0,0.E0,1.E0));
#491=DIRECTION('',(-8.660254037844E-1,5.E-1,0.E0));
#492=AXIS2_PLACEMENT_3D('',#489,#490,#491);
#495=CURVE_STYLE('',#23,POSITIVE_LENGTH_MEASURE(2.E-2),#1);
#496=PRESENTATION_STYLE_ASSIGNMENT((#495));
#497=STYLED_ITEM('',(#496),#494);
#499=DIRECTION('',(1.E0,0.E0,0.E0));
#500=VECTOR('',#499,8.260150301296E0);
#501=CARTESIAN_POINT('',(-4.130075150648E0,-2.7845E0,0.E0));
#502=LINE('',#501,#500);
#504=CURVE_STYLE('',#23,POSITIVE_LENGTH_MEASURE(2.E-2),#1);
#505=PRESENTATION_STYLE_ASSIGNMENT((#504));
#506=STYLED_ITEM('',(#505),#503);
#508=CARTESIAN_POINT('',(4.130075150648E0,-2.3845E0,0.E0));
#509=DIRECTION('',(0.E0,0.E0,1.E0));
#510=DIRECTION('',(0.E0,-1.E0,0.E0));
#511=AXIS2_PLACEMENT_3D('',#508,#509,#510);
#514=CURVE_STYLE('',#23,POSITIVE_LENGTH_MEASURE(2.E-2),#1);
#515=PRESENTATION_STYLE_ASSIGNMENT((#514));
#516=STYLED_ITEM('',(#515),#513);
#518=DIRECTION('',(-5.E-1,8.660254037844E-1,0.E0));
#519=VECTOR('',#518,8.260150301296E0);
#520=CARTESIAN_POINT('',(4.476485312162E0,-2.1845E0,0.E0));
#521=LINE('',#520,#519);
#523=CURVE_STYLE('',#23,POSITIVE_LENGTH_MEASURE(2.E-2),#1);
#524=PRESENTATION_STYLE_ASSIGNMENT((#523));
#525=STYLED_ITEM('',(#524),#522);
#527=CARTESIAN_POINT('',(0.E0,4.769E0,0.E0));
#528=DIRECTION('',(0.E0,0.E0,1.E0));
#529=DIRECTION('',(8.660254037844E-1,5.E-1,0.E0));
#530=AXIS2_PLACEMENT_3D('',#527,#528,#529);
#533=CURVE_STYLE('',#23,POSITIVE_LENGTH_MEASURE(2.E-2),#1);
#534=PRESENTATION_STYLE_ASSIGNMENT((#533));
#535=STYLED_ITEM('',(#534),#532);
#537=DIRECTION('',(-5.E-1,-8.660254037844E-1,0.E0));
#538=VECTOR('',#537,8.260150301296E0);
#539=CARTESIAN_POINT('',(-3.464101615138E-1,4.969E0,0.E0));
#540=LINE('',#539,#538);
#542=CURVE_STYLE('',#23,POSITIVE_LENGTH_MEASURE(2.E-2),#1);
#543=PRESENTATION_STYLE_ASSIGNMENT((#542));
#544=STYLED_ITEM('',(#543),#541);
#548=CARTESIAN_POINT('',(-4.822895473676E0,-2.7845E0,0.E0));
#549=DIRECTION('',(0.E0,0.E0,1.E0));
#550=DIRECTION('',(1.E0,0.E0,0.E0));
#551=AXIS2_PLACEMENT_3D('PCS',#548,#549,#550);
#552=CURVE_STYLE('',#23,POSITIVE_LENGTH_MEASURE(2.E-2),#16);
#553=PRESENTATION_STYLE_ASSIGNMENT((#552));
#554=STYLED_ITEM('',(#553),#551);
#555=PRESENTATION_LAYER_ASSIGNMENT('ALL_CSYS','',(#485,#551));
#556=PRESENTATION_LAYER_ASSIGNMENT('ALL_CURVES','',(#546));
#557=PRESENTATION_LAYER_ASSIGNMENT('ALL_FEATURES','',(#485,#546,#551));
#560=PLANE_ANGLE_MEASURE_WITH_UNIT(PLANE_ANGLE_MEASURE(1.745329251994E-2),#559);
#561=(CONVERSION_BASED_UNIT('DEGREE',#560)NAMED_UNIT(*)PLANE_ANGLE_UNIT());
#563=UNCERTAINTY_MEASURE_WITH_UNIT(LENGTH_MEASURE(1.E-3),#558,
'distance_accuracy_value',
'Maximum model space distance between geometric entities at asserted connectivities');
#547=GEOMETRIC_CURVE_SET('',(#546));
#568=CARTESIAN_POINT('',(0.E0,0.E0,0.E0));
#569=DIRECTION('',(0.E0,0.E0,1.E0));
#570=DIRECTION('',(1.E0,0.E0,0.E0));
#573=SHAPE_REPRESENTATION_RELATIONSHIP('','',#572,#565);
#574=SHAPE_REPRESENTATION_RELATIONSHIP('','',#572,#566);
#575=CONSTRUCTIVE_GEOMETRY_REPRESENTATION_RELATIONSHIP('','',#572,#567);
#576=MECHANICAL_DESIGN_GEOMETRIC_PRESENTATION_REPRESENTATION('',(#26,#34,#41,
#49,#56,#64,#71,#78,#85,#93,#100,#107,#114,#121,#128,#135,#142,#149,#156,#164,
#171,#178,#185,#192,#199,#206,#213,#221,#228,#235,#18,#488,#497,#506,#516,#525,
#535,#544,#554),#564);
#577=APPLICATION_CONTEXT('automotive_design');
#578=APPLICATION_PROTOCOL_DEFINITION('international standard',
'automotive_design',2001,#577);
#579=PRODUCT_DEFINITION_CONTEXT('part definition',#577,'design');
#580=PRODUCT_CONTEXT('',#577,'mechanical');
#581=PRODUCT('TPGN090204','TPGN090204','NOT SPECIFIED',(#580));
#582=PRODUCT_DEFINITION_FORMATION('2','LAST_VERSION',#581);
#590=DERIVED_UNIT_ELEMENT(#589,2.E0);
#591=DERIVED_UNIT((#590));
#592=MEASURE_REPRESENTATION_ITEM('surface area measure',AREA_MEASURE(
1.313131425544E2),#591);
#597=DERIVED_UNIT_ELEMENT(#596,3.E0);
#598=DERIVED_UNIT((#597));
#599=MEASURE_REPRESENTATION_ITEM('volume measure',VOLUME_MEASURE(
8.178274675243E1),#598);
#603=CARTESIAN_POINT('centre point',(-4.134946627546E-9,-1.536019200721E-8,
-1.121055237813E0));
#608=DERIVED_UNIT_ELEMENT(#607,2.E0);
#609=DERIVED_UNIT((#608));
#610=MEASURE_REPRESENTATION_ITEM('surface area measure',AREA_MEASURE(
1.313131425544E2),#609);
#615=DERIVED_UNIT_ELEMENT(#614,3.E0);
#616=DERIVED_UNIT((#615));
#617=MEASURE_REPRESENTATION_ITEM('volume measure',VOLUME_MEASURE(
8.178274675243E1),#616);
#621=CARTESIAN_POINT('centre point',(-4.134946627546E-9,-1.536019200721E-8,
-1.121055237813E0));
#626=PRODUCT_RELATED_PRODUCT_CATEGORY('part','',(#581));
#1=DRAUGHTING_PRE_DEFINED_COLOUR('blue');
#2=DRAUGHTING_PRE_DEFINED_COLOUR('green');
#3=COLOUR_RGB('',3.01961E-1,3.01961E-1,3.01961E-1);
#4=COLOUR_RGB('',3.92157E-1,3.92157E-1,3.92157E-1);
#5=COLOUR_RGB('',5.01961E-1,5.01961E-1,5.01961E-1);
#6=COLOUR_RGB('',5.764705882353E-1,5.450980392157E-1,3.921568627451E-1);
#7=COLOUR_RGB('',6.35294E-1,6.86275E-1,7.4902E-1);
#8=COLOUR_RGB('',7.05882E-1,7.05882E-1,7.05882E-1);
#9=COLOUR_RGB('',7.84314E-1,5.29412E-1,7.84314E-1);
#10=COLOUR_RGB('',8.E-1,8.E-1,8.E-1);
#11=COLOUR_RGB('',8.23529E-1,8.23529E-1,8.23529E-1);
#12=COLOUR_RGB('',9.80392E-1,9.80392E-1,9.80392E-1);
#13=COLOUR_RGB('',1.E0,6.66667E-1,0.E0);
#14=COLOUR_RGB('',1.E0,7.63913E-1,1.92109E-1);
#15=COLOUR_RGB('',1.E0,8.39216E-1,8.90196E-1);
#16=DRAUGHTING_PRE_DEFINED_COLOUR('yellow');
#17=COLOUR_RGB('',1.E0,1.E0,9.41176E-1);
#31=CIRCLE('',#30,4.E-1);
#46=CIRCLE('',#45,4.E-1);
#61=CIRCLE('',#60,4.E-1);
#90=CIRCLE('',#89,4.E-1);
#161=CIRCLE('',#160,4.E-1);
#218=CIRCLE('',#217,4.E-1);
#277=EDGE_CURVE('',#238,#239,#22,.T.);
#279=EDGE_CURVE('',#239,#247,#31,.T.);
#281=EDGE_CURVE('',#247,#245,#38,.T.);
#283=EDGE_CURVE('',#245,#243,#46,.T.);
#285=EDGE_CURVE('',#243,#241,#53,.T.);
#287=EDGE_CURVE('',#241,#238,#61,.T.);
#291=ADVANCED_FACE('',(#290),#276,.T.);
#297=EDGE_CURVE('',#257,#238,#82,.T.);
#299=EDGE_CURVE('',#253,#257,#68,.T.);
#301=EDGE_CURVE('',#253,#239,#75,.T.);
#306=ADVANCED_FACE('',(#305),#296,.T.);
#312=EDGE_CURVE('',#257,#259,#90,.T.);
#316=EDGE_CURVE('',#259,#241,#175,.T.);
#320=ADVANCED_FACE('',(#319),#311,.T.);
#327=EDGE_CURVE('',#265,#259,#111,.T.);
#329=EDGE_CURVE('',#265,#257,#97,.T.);
#333=ADVANCED_FACE('',(#332),#325,.T.);
#339=EDGE_CURVE('',#269,#271,#139,.T.);
#341=EDGE_CURVE('',#265,#271,#104,.T.);
#344=EDGE_CURVE('',#259,#255,#182,.T.);
#346=EDGE_CURVE('',#263,#255,#153,.T.);
#348=EDGE_CURVE('',#263,#269,#118,.T.);
#352=ADVANCED_FACE('',(#351),#338,.T.);
#358=EDGE_CURVE('',#268,#269,#125,.T.);
#360=EDGE_CURVE('',#271,#268,#132,.T.);
#365=ADVANCED_FACE('',(#364),#357,.F.);
#373=EDGE_CURVE('',#263,#250,#146,.T.);
#375=EDGE_CURVE('',#250,#251,#196,.T.);
#377=EDGE_CURVE('',#261,#251,#210,.T.);
#379=EDGE_CURVE('',#261,#268,#232,.T.);
#383=ADVANCED_FACE('',(#382),#370,.T.);
#390=EDGE_CURVE('',#255,#250,#161,.T.);
#395=ADVANCED_FACE('',(#394),#388,.T.);
#401=EDGE_CURVE('',#255,#243,#168,.T.);
#404=EDGE_CURVE('',#250,#245,#189,.T.);
#409=ADVANCED_FACE('',(#408),#400,.T.);
#421=ADVANCED_FACE('',(#420),#414,.T.);
#429=EDGE_CURVE('',#251,#247,#203,.T.);
#434=ADVANCED_FACE('',(#433),#426,.T.);
#441=EDGE_CURVE('',#251,#253,#218,.T.);
#447=ADVANCED_FACE('',(#446),#439,.T.);
#453=EDGE_CURVE('',#261,#253,#225,.T.);
#459=ADVANCED_FACE('',(#458),#452,.T.);
#473=ADVANCED_FACE('',(#472),#464,.T.);
#474=CLOSED_SHELL('',(#291,#306,#320,#333,#352,#365,#383,#395,#409,#421,#434,
#447,#459,#473));
#475=MANIFOLD_SOLID_BREP('',#474);
#493=CIRCLE('',#492,4.E-1);
#494=TRIMMED_CURVE('',#493,(PARAMETER_VALUE(0.E0)),(PARAMETER_VALUE(1.2E2)),.T.,
.UNSPECIFIED.);
#498=COMPOSITE_CURVE_SEGMENT(.CONTINUOUS.,.T.,#494);
#503=TRIMMED_CURVE('',#502,(PARAMETER_VALUE(0.E0)),(PARAMETER_VALUE(1.E0)),.T.,
.UNSPECIFIED.);
#507=COMPOSITE_CURVE_SEGMENT(.CONTINUOUS.,.T.,#503);
#512=CIRCLE('',#511,4.E-1);
#513=TRIMMED_CURVE('',#512,(PARAMETER_VALUE(0.E0)),(PARAMETER_VALUE(1.2E2)),.T.,
.UNSPECIFIED.);
#517=COMPOSITE_CURVE_SEGMENT(.CONTINUOUS.,.T.,#513);
#522=TRIMMED_CURVE('',#521,(PARAMETER_VALUE(0.E0)),(PARAMETER_VALUE(1.E0)),.T.,
.UNSPECIFIED.);
#526=COMPOSITE_CURVE_SEGMENT(.CONTINUOUS.,.T.,#522);
#531=CIRCLE('',#530,4.E-1);
#532=TRIMMED_CURVE('',#531,(PARAMETER_VALUE(0.E0)),(PARAMETER_VALUE(1.2E2)),.T.,
.UNSPECIFIED.);
#536=COMPOSITE_CURVE_SEGMENT(.CONTINUOUS.,.T.,#532);
#541=TRIMMED_CURVE('',#540,(PARAMETER_VALUE(0.E0)),(PARAMETER_VALUE(1.E0)),.T.,
.UNSPECIFIED.);
#545=COMPOSITE_CURVE_SEGMENT(.CONTINUOUS.,.T.,#541);
#546=COMPOSITE_CURVE('',(#498,#507,#517,#526,#536,#545),.F.);
#558=(LENGTH_UNIT()NAMED_UNIT(*)SI_UNIT(.MILLI.,.METRE.));
#559=(NAMED_UNIT(*)PLANE_ANGLE_UNIT()SI_UNIT($,.RADIAN.));
#562=(NAMED_UNIT(*)SI_UNIT($,.STERADIAN.)SOLID_ANGLE_UNIT());
#564=(GEOMETRIC_REPRESENTATION_CONTEXT(3)GLOBAL_UNCERTAINTY_ASSIGNED_CONTEXT((
#563))GLOBAL_UNIT_ASSIGNED_CONTEXT((#558,#561,#562))REPRESENTATION_CONTEXT
('ID1','3'));
#565=ADVANCED_BREP_SHAPE_REPRESENTATION('',(#475),#564);
#566=GEOMETRICALLY_BOUNDED_WIREFRAME_SHAPE_REPRESENTATION('',(#547),#564);
#567=CONSTRUCTIVE_GEOMETRY_REPRESENTATION('supplemental geometry',(#485,#551),
#564);
#571=AXIS2_PLACEMENT_3D('',#568,#569,#570);
#572=SHAPE_REPRESENTATION('',(#571),#564);
#583=PRODUCT_DEFINITION('part definition','',#582,#579);
#584=PRODUCT_DEFINITION_SHAPE('','SHAPE FOR TPGN090204.',#583);
#585=SHAPE_ASPECT('','solid data associated with TPGN090204',#584,.F.);
#586=PROPERTY_DEFINITION('',
'shape for solid data with which properties are associated',#585);
#587=SHAPE_REPRESENTATION('',(#475),#564);
#588=SHAPE_DEFINITION_REPRESENTATION(#586,#587);
#589=(LENGTH_UNIT()NAMED_UNIT(*)SI_UNIT(.MILLI.,.METRE.));
#593=PROPERTY_DEFINITION('geometric validation property','area of TPGN090204',
#585);
#594=REPRESENTATION('surface area',(#592),#564);
#595=PROPERTY_DEFINITION_REPRESENTATION(#593,#594);
#596=(LENGTH_UNIT()NAMED_UNIT(*)SI_UNIT(.MILLI.,.METRE.));
#600=PROPERTY_DEFINITION('geometric validation property','volume of TPGN090204',
#585);
#601=REPRESENTATION('volume',(#599),#564);
#602=PROPERTY_DEFINITION_REPRESENTATION(#600,#601);
#604=PROPERTY_DEFINITION('geometric validation property',
'centroid of TPGN090204',#585);
#605=REPRESENTATION('centroid',(#603),#564);
#606=PROPERTY_DEFINITION_REPRESENTATION(#604,#605);
#607=(LENGTH_UNIT()NAMED_UNIT(*)SI_UNIT(.MILLI.,.METRE.));
#611=PROPERTY_DEFINITION('geometric validation property','area of TPGN090204',
#584);
#612=REPRESENTATION('surface area',(#610),#564);
#613=PROPERTY_DEFINITION_REPRESENTATION(#611,#612);
#614=(LENGTH_UNIT()NAMED_UNIT(*)SI_UNIT(.MILLI.,.METRE.));
#618=PROPERTY_DEFINITION('geometric validation property','volume of TPGN090204',
#584);
#619=REPRESENTATION('volume',(#617),#564);
#620=PROPERTY_DEFINITION_REPRESENTATION(#618,#619);
#622=PROPERTY_DEFINITION('geometric validation property',
'centroid of TPGN090204',#584);
#623=REPRESENTATION('centroid',(#621),#564);
#624=PROPERTY_DEFINITION_REPRESENTATION(#622,#623);
#625=SHAPE_DEFINITION_REPRESENTATION(#584,#572);
ENDSEC;
END-ISO-10303-21;
