ISO-10303-21;
HEADER;
/* Generated by software containing ST-Developer
 * from STEP Tools, Inc. (www.steptools.com) 
 */
/* OPTION: using custom schema-name function */

FILE_DESCRIPTION(
/* description */ (''),
/* implementation_level */ '2;1');

FILE_NAME(
/* name */ 'TC16T304N.stp',
/* time_stamp */ '2021-11-11T11:52:00+09:00',
/* author */ (''),
/* organization */ (''),
/* preprocessor_version */ 'ST-DEVELOPER v16',
/* originating_system */ 'SIEMENS PLM Software NX 10.0',
/* authorisation */ '');

FILE_SCHEMA (('AUTOMOTIVE_DESIGN { 1 0 10303 214 3 1 1 1 }'));
ENDSEC;

DATA;
#10=CONSTRUCTIVE_GEOMETRY_REPRESENTATION_RELATIONSHIP(
'supplemental geometry','',#26,#11);
#11=CONSTRUCTIVE_GEOMETRY_REPRESENTATION('supplemental geometry',(#333,
#334,#335),#532);
#12=GEOMETRICALLY_BOUNDED_WIREFRAME_SHAPE_REPRESENTATION(
'TC16T304N-None',(#27),#532);
#13=SHAPE_REPRESENTATION_RELATIONSHIP('None',
'relationship between TC16T304N-None and TC16T304N-None',#26,#15);
#14=SHAPE_REPRESENTATION_RELATIONSHIP('None',
'relationship between TC16T304N-None and TC16T304N-None',#26,#12);
#15=ADVANCED_BREP_SHAPE_REPRESENTATION('TC16T304N-None',(#33),#532);
#16=SHAPE_DEFINITION_REPRESENTATION(#17,#26);
#17=PRODUCT_DEFINITION_SHAPE('','',#18);
#18=PRODUCT_DEFINITION('part definition','',#20,#19);
#19=PRODUCT_DEFINITION_CONTEXT('part definition',#25,'design');
#20=PRODUCT_DEFINITION_FORMATION_WITH_SPECIFIED_SOURCE(' ',' ',#22,
 .NOT_KNOWN.);
#21=PRODUCT_RELATED_PRODUCT_CATEGORY('part','',(#22));
#22=PRODUCT('TC16T304L','TC16T304L','NOT SPECIFIED',(#23));
#23=PRODUCT_CONTEXT('',#25,'mechanical');
#24=APPLICATION_PROTOCOL_DEFINITION('international standard',
'automotive_design',2010,#25);
#25=APPLICATION_CONTEXT(
'core data for automotive mechanical design processes');
#26=SHAPE_REPRESENTATION('TC16T304N-None',(#329),#532);
#27=GEOMETRIC_CURVE_SET('None',(#454,#455,#247,#248,#249,#250,#251,#252));
#28=SURFACE_STYLE_USAGE(.BOTH.,#29);
#29=SURFACE_SIDE_STYLE('',(#30));
#30=SURFACE_STYLE_FILL_AREA(#31);
#31=FILL_AREA_STYLE('',(#32));
#32=FILL_AREA_STYLE_COLOUR('',#212);
#33=MANIFOLD_SOLID_BREP('',#34);
#34=CLOSED_SHELL('',(#56,#57,#58,#59,#60,#61,#62,#63,#64,#65,#66,#67,#68,
#69));
#35=TOROIDAL_SURFACE('',#358,5.2,3.);
#36=TOROIDAL_SURFACE('',#360,5.2,3.);
#37=CYLINDRICAL_SURFACE('',#352,2.2);
#38=CYLINDRICAL_SURFACE('',#354,2.2);
#39=CYLINDRICAL_SURFACE('',#361,3.);
#40=CYLINDRICAL_SURFACE('',#362,3.);
#41=CONICAL_SURFACE('',#342,0.204,7.);
#42=CONICAL_SURFACE('',#349,0.204,7.);
#43=CONICAL_SURFACE('',#350,0.204,7.);
#44=FACE_OUTER_BOUND('',#81,.T.);
#45=FACE_OUTER_BOUND('',#82,.T.);
#46=FACE_OUTER_BOUND('',#85,.T.);
#47=FACE_OUTER_BOUND('',#86,.T.);
#48=FACE_OUTER_BOUND('',#87,.T.);
#49=FACE_OUTER_BOUND('',#88,.T.);
#50=FACE_OUTER_BOUND('',#89,.T.);
#51=FACE_OUTER_BOUND('',#90,.T.);
#52=FACE_OUTER_BOUND('',#91,.T.);
#53=FACE_OUTER_BOUND('',#92,.T.);
#54=FACE_OUTER_BOUND('',#93,.T.);
#55=FACE_OUTER_BOUND('',#94,.T.);
#56=ADVANCED_FACE('',(#75,#76),#70,.T.);
#57=ADVANCED_FACE('',(#44),#41,.T.);
#58=ADVANCED_FACE('',(#45),#71,.T.);
#59=ADVANCED_FACE('',(#77,#78),#72,.F.);
#60=ADVANCED_FACE('',(#46),#73,.T.);
#61=ADVANCED_FACE('',(#47),#74,.T.);
#62=ADVANCED_FACE('',(#48),#42,.T.);
#63=ADVANCED_FACE('',(#49),#43,.T.);
#64=ADVANCED_FACE('',(#50),#37,.F.);
#65=ADVANCED_FACE('',(#51),#38,.F.);
#66=ADVANCED_FACE('',(#52),#35,.T.);
#67=ADVANCED_FACE('',(#53),#36,.T.);
#68=ADVANCED_FACE('',(#54),#39,.F.);
#69=ADVANCED_FACE('',(#55),#40,.F.);
#70=PLANE('',#341);
#71=PLANE('',#343);
#72=PLANE('',#346);
#73=PLANE('',#347);
#74=PLANE('',#348);
#75=FACE_BOUND('',#79,.T.);
#76=FACE_BOUND('',#80,.T.);
#77=FACE_BOUND('',#83,.T.);
#78=FACE_BOUND('',#84,.T.);
#79=EDGE_LOOP('',(#95,#96,#97,#98,#99,#100));
#80=EDGE_LOOP('',(#101,#102));
#81=EDGE_LOOP('',(#103,#104,#105));
#82=EDGE_LOOP('',(#106,#107,#108,#109,#110,#111));
#83=EDGE_LOOP('',(#112,#113,#114));
#84=EDGE_LOOP('',(#115,#116));
#85=EDGE_LOOP('',(#117,#118,#119,#120,#121,#122));
#86=EDGE_LOOP('',(#123,#124,#125,#126,#127,#128));
#87=EDGE_LOOP('',(#129,#130,#131));
#88=EDGE_LOOP('',(#132,#133,#134));
#89=EDGE_LOOP('',(#135,#136,#137,#138));
#90=EDGE_LOOP('',(#139,#140,#141,#142));
#91=EDGE_LOOP('',(#143,#144,#145,#146));
#92=EDGE_LOOP('',(#147,#148,#149,#150));
#93=EDGE_LOOP('',(#151,#152,#153,#154));
#94=EDGE_LOOP('',(#155,#156,#157,#158));
#95=ORIENTED_EDGE('',*,*,#179,.F.);
#96=ORIENTED_EDGE('',*,*,#180,.F.);
#97=ORIENTED_EDGE('',*,*,#181,.F.);
#98=ORIENTED_EDGE('',*,*,#182,.F.);
#99=ORIENTED_EDGE('',*,*,#183,.F.);
#100=ORIENTED_EDGE('',*,*,#184,.F.);
#101=ORIENTED_EDGE('',*,*,#185,.F.);
#102=ORIENTED_EDGE('',*,*,#186,.F.);
#103=ORIENTED_EDGE('',*,*,#184,.T.);
#104=ORIENTED_EDGE('',*,*,#187,.F.);
#105=ORIENTED_EDGE('',*,*,#188,.F.);
#106=ORIENTED_EDGE('',*,*,#189,.T.);
#107=ORIENTED_EDGE('',*,*,#190,.T.);
#108=ORIENTED_EDGE('',*,*,#179,.T.);
#109=ORIENTED_EDGE('',*,*,#188,.T.);
#110=ORIENTED_EDGE('',*,*,#191,.F.);
#111=ORIENTED_EDGE('',*,*,#192,.T.);
#112=ORIENTED_EDGE('',*,*,#193,.T.);
#113=ORIENTED_EDGE('',*,*,#192,.F.);
#114=ORIENTED_EDGE('',*,*,#194,.F.);
#115=ORIENTED_EDGE('',*,*,#195,.F.);
#116=ORIENTED_EDGE('',*,*,#196,.F.);
#117=ORIENTED_EDGE('',*,*,#191,.T.);
#118=ORIENTED_EDGE('',*,*,#187,.T.);
#119=ORIENTED_EDGE('',*,*,#183,.T.);
#120=ORIENTED_EDGE('',*,*,#197,.T.);
#121=ORIENTED_EDGE('',*,*,#198,.F.);
#122=ORIENTED_EDGE('',*,*,#194,.T.);
#123=ORIENTED_EDGE('',*,*,#189,.F.);
#124=ORIENTED_EDGE('',*,*,#193,.F.);
#125=ORIENTED_EDGE('',*,*,#198,.T.);
#126=ORIENTED_EDGE('',*,*,#199,.T.);
#127=ORIENTED_EDGE('',*,*,#181,.T.);
#128=ORIENTED_EDGE('',*,*,#200,.T.);
#129=ORIENTED_EDGE('',*,*,#180,.T.);
#130=ORIENTED_EDGE('',*,*,#190,.F.);
#131=ORIENTED_EDGE('',*,*,#200,.F.);
#132=ORIENTED_EDGE('',*,*,#182,.T.);
#133=ORIENTED_EDGE('',*,*,#199,.F.);
#134=ORIENTED_EDGE('',*,*,#197,.F.);
#135=ORIENTED_EDGE('',*,*,#201,.T.);
#136=ORIENTED_EDGE('',*,*,#202,.T.);
#137=ORIENTED_EDGE('',*,*,#203,.F.);
#138=ORIENTED_EDGE('',*,*,#196,.T.);
#139=ORIENTED_EDGE('',*,*,#203,.T.);
#140=ORIENTED_EDGE('',*,*,#204,.T.);
#141=ORIENTED_EDGE('',*,*,#201,.F.);
#142=ORIENTED_EDGE('',*,*,#195,.T.);
#143=ORIENTED_EDGE('',*,*,#205,.F.);
#144=ORIENTED_EDGE('',*,*,#206,.T.);
#145=ORIENTED_EDGE('',*,*,#204,.F.);
#146=ORIENTED_EDGE('',*,*,#207,.F.);
#147=ORIENTED_EDGE('',*,*,#202,.F.);
#148=ORIENTED_EDGE('',*,*,#206,.F.);
#149=ORIENTED_EDGE('',*,*,#208,.F.);
#150=ORIENTED_EDGE('',*,*,#207,.T.);
#151=ORIENTED_EDGE('',*,*,#209,.F.);
#152=ORIENTED_EDGE('',*,*,#208,.T.);
#153=ORIENTED_EDGE('',*,*,#210,.T.);
#154=ORIENTED_EDGE('',*,*,#186,.T.);
#155=ORIENTED_EDGE('',*,*,#210,.F.);
#156=ORIENTED_EDGE('',*,*,#205,.T.);
#157=ORIENTED_EDGE('',*,*,#209,.T.);
#158=ORIENTED_EDGE('',*,*,#185,.T.);
#159=VERTEX_POINT('',#466);
#160=VERTEX_POINT('',#467);
#161=VERTEX_POINT('',#469);
#162=VERTEX_POINT('',#471);
#163=VERTEX_POINT('',#473);
#164=VERTEX_POINT('',#475);
#165=VERTEX_POINT('',#478);
#166=VERTEX_POINT('',#479);
#167=VERTEX_POINT('',#483);
#168=VERTEX_POINT('',#487);
#169=VERTEX_POINT('',#488);
#170=VERTEX_POINT('',#491);
#171=VERTEX_POINT('',#495);
#172=VERTEX_POINT('',#498);
#173=VERTEX_POINT('',#499);
#174=VERTEX_POINT('',#503);
#175=VERTEX_POINT('',#512);
#176=VERTEX_POINT('',#514);
#177=VERTEX_POINT('',#520);
#178=VERTEX_POINT('',#521);
#179=EDGE_CURVE('',#159,#160,#256,.T.);
#180=EDGE_CURVE('',#161,#159,#216,.T.);
#181=EDGE_CURVE('',#162,#161,#257,.T.);
#182=EDGE_CURVE('',#163,#162,#217,.T.);
#183=EDGE_CURVE('',#164,#163,#258,.T.);
#184=EDGE_CURVE('',#160,#164,#218,.T.);
#185=EDGE_CURVE('',#165,#166,#219,.T.);
#186=EDGE_CURVE('',#166,#165,#220,.T.);
#187=EDGE_CURVE('',#167,#164,#259,.T.);
#188=EDGE_CURVE('',#160,#167,#260,.T.);
#189=EDGE_CURVE('',#168,#169,#261,.T.);
#190=EDGE_CURVE('',#169,#159,#262,.T.);
#191=EDGE_CURVE('',#170,#167,#263,.T.);
#192=EDGE_CURVE('',#170,#168,#264,.T.);
#193=EDGE_CURVE('',#171,#168,#265,.T.);
#194=EDGE_CURVE('',#171,#170,#266,.T.);
#195=EDGE_CURVE('',#172,#173,#221,.T.);
#196=EDGE_CURVE('',#173,#172,#222,.T.);
#197=EDGE_CURVE('',#163,#174,#267,.T.);
#198=EDGE_CURVE('',#171,#174,#268,.T.);
#199=EDGE_CURVE('',#174,#162,#269,.T.);
#200=EDGE_CURVE('',#161,#169,#270,.T.);
#201=EDGE_CURVE('',#172,#175,#271,.T.);
#202=EDGE_CURVE('',#175,#176,#223,.T.);
#203=EDGE_CURVE('',#173,#176,#272,.T.);
#204=EDGE_CURVE('',#176,#175,#224,.T.);
#205=EDGE_CURVE('',#177,#178,#225,.T.);
#206=EDGE_CURVE('',#177,#175,#226,.T.);
#207=EDGE_CURVE('',#178,#176,#227,.T.);
#208=EDGE_CURVE('',#178,#177,#228,.T.);
#209=EDGE_CURVE('',#178,#165,#273,.T.);
#210=EDGE_CURVE('',#177,#166,#274,.T.);
#211=COLOUR_RGB('Strong Stone',0.576470588235294,0.54508278019379,0.392156862745098);
#212=COLOUR_RGB('cutting part',0.8,0.8,0.8);
#213=CIRCLE('',#330,0.4);
#214=CIRCLE('',#331,0.4);
#215=CIRCLE('',#332,0.4);
#216=CIRCLE('',#336,0.4);
#217=CIRCLE('',#337,0.4);
#218=CIRCLE('',#338,0.4);
#219=CIRCLE('',#339,3.);
#220=CIRCLE('',#340,3.);
#221=CIRCLE('',#344,2.2);
#222=CIRCLE('',#345,2.2);
#223=CIRCLE('',#351,2.2);
#224=CIRCLE('',#353,2.2);
#225=CIRCLE('',#355,3.);
#226=CIRCLE('',#356,3.);
#227=CIRCLE('',#357,3.);
#228=CIRCLE('',#359,3.);
#229=CURVE_STYLE('',#238,POSITIVE_LENGTH_MEASURE(0.18),#328);
#230=CURVE_STYLE('',#239,POSITIVE_LENGTH_MEASURE(0.18),#328);
#231=CURVE_STYLE('',#240,POSITIVE_LENGTH_MEASURE(0.18),#328);
#232=CURVE_STYLE('',#241,POSITIVE_LENGTH_MEASURE(0.18),#328);
#233=CURVE_STYLE('',#242,POSITIVE_LENGTH_MEASURE(0.18),#328);
#234=CURVE_STYLE('',#243,POSITIVE_LENGTH_MEASURE(0.18),#328);
#235=CURVE_STYLE('',#244,POSITIVE_LENGTH_MEASURE(0.13),#327);
#236=CURVE_STYLE('',#245,POSITIVE_LENGTH_MEASURE(0.13),#327);
#237=CURVE_STYLE('',#246,POSITIVE_LENGTH_MEASURE(0.13),#211);
#238=DRAUGHTING_PRE_DEFINED_CURVE_FONT('continuous');
#239=DRAUGHTING_PRE_DEFINED_CURVE_FONT('continuous');
#240=DRAUGHTING_PRE_DEFINED_CURVE_FONT('continuous');
#241=DRAUGHTING_PRE_DEFINED_CURVE_FONT('continuous');
#242=DRAUGHTING_PRE_DEFINED_CURVE_FONT('continuous');
#243=DRAUGHTING_PRE_DEFINED_CURVE_FONT('continuous');
#244=DRAUGHTING_PRE_DEFINED_CURVE_FONT('continuous');
#245=DRAUGHTING_PRE_DEFINED_CURVE_FONT('continuous');
#246=DRAUGHTING_PRE_DEFINED_CURVE_FONT('continuous');
#247=TRIMMED_CURVE('',#253,(PARAMETER_VALUE(0.)),(PARAMETER_VALUE(1.)),
 .T.,.PARAMETER.);
#248=TRIMMED_CURVE('',#254,(PARAMETER_VALUE(0.)),(PARAMETER_VALUE(1.)),
 .T.,.PARAMETER.);
#249=TRIMMED_CURVE('',#255,(PARAMETER_VALUE(0.)),(PARAMETER_VALUE(1.)),
 .T.,.PARAMETER.);
#250=TRIMMED_CURVE('',#213,(PARAMETER_VALUE(0.)),(PARAMETER_VALUE(120.0000000008)),
 .T.,.PARAMETER.);
#251=TRIMMED_CURVE('',#214,(PARAMETER_VALUE(0.)),(PARAMETER_VALUE(119.9999999996)),
 .T.,.PARAMETER.);
#252=TRIMMED_CURVE('',#215,(PARAMETER_VALUE(0.)),(PARAMETER_VALUE(120.0000000003)),
 .T.,.PARAMETER.);
#253=LINE('',#456,#275);
#254=LINE('',#457,#276);
#255=LINE('',#458,#277);
#256=LINE('',#465,#278);
#257=LINE('',#470,#279);
#258=LINE('',#474,#280);
#259=LINE('',#482,#281);
#260=LINE('',#484,#282);
#261=LINE('',#486,#283);
#262=LINE('',#489,#284);
#263=LINE('',#490,#285);
#264=LINE('',#492,#286);
#265=LINE('',#494,#287);
#266=LINE('',#496,#288);
#267=LINE('',#502,#289);
#268=LINE('',#504,#290);
#269=LINE('',#506,#291);
#270=LINE('',#507,#292);
#271=LINE('',#511,#293);
#272=LINE('',#515,#294);
#273=LINE('',#527,#295);
#274=LINE('',#528,#296);
#275=VECTOR('',#365,15.11214329604);
#276=VECTOR('',#366,15.1121432960295);
#277=VECTOR('',#367,15.1121432960395);
#278=VECTOR('',#380,1.);
#279=VECTOR('',#383,1.);
#280=VECTOR('',#386,1.);
#281=VECTOR('',#395,1.);
#282=VECTOR('',#396,1.);
#283=VECTOR('',#399,1.);
#284=VECTOR('',#400,1.);
#285=VECTOR('',#401,1.);
#286=VECTOR('',#402,1.);
#287=VECTOR('',#405,1.);
#288=VECTOR('',#406,1.);
#289=VECTOR('',#413,1.);
#290=VECTOR('',#414,1.);
#291=VECTOR('',#417,1.);
#292=VECTOR('',#418,1.);
#293=VECTOR('',#425,1.);
#294=VECTOR('',#428,1.);
#295=VECTOR('',#447,1.);
#296=VECTOR('',#448,1.);
#297=PRESENTATION_LAYER_ASSIGNMENT('1','Layer 1',(#454,#455,#333,#334,#335,
#33));
#298=PRESENTATION_LAYER_ASSIGNMENT('2','Layer 2',(#247,#248,#249,#250,#251,
#252));
#299=STYLED_ITEM('',(#311),#454);
#300=STYLED_ITEM('',(#312),#455);
#301=STYLED_ITEM('',(#313),#247);
#302=STYLED_ITEM('',(#314),#248);
#303=STYLED_ITEM('',(#315),#249);
#304=STYLED_ITEM('',(#316),#250);
#305=STYLED_ITEM('',(#317),#251);
#306=STYLED_ITEM('',(#318),#252);
#307=STYLED_ITEM('',(#319),#333);
#308=STYLED_ITEM('',(#320),#334);
#309=STYLED_ITEM('',(#321),#335);
#310=STYLED_ITEM('',(#322),#33);
#311=PRESENTATION_STYLE_ASSIGNMENT((#323));
#312=PRESENTATION_STYLE_ASSIGNMENT((#324));
#313=PRESENTATION_STYLE_ASSIGNMENT((#229));
#314=PRESENTATION_STYLE_ASSIGNMENT((#230));
#315=PRESENTATION_STYLE_ASSIGNMENT((#231));
#316=PRESENTATION_STYLE_ASSIGNMENT((#232));
#317=PRESENTATION_STYLE_ASSIGNMENT((#233));
#318=PRESENTATION_STYLE_ASSIGNMENT((#234));
#319=PRESENTATION_STYLE_ASSIGNMENT((#235));
#320=PRESENTATION_STYLE_ASSIGNMENT((#236));
#321=PRESENTATION_STYLE_ASSIGNMENT((#237));
#322=PRESENTATION_STYLE_ASSIGNMENT((#28));
#323=POINT_STYLE('',#325,POSITIVE_LENGTH_MEASURE(3.),#327);
#324=POINT_STYLE('',#326,POSITIVE_LENGTH_MEASURE(3.),#327);
#325=PRE_DEFINED_POINT_MARKER_SYMBOL('plus');
#326=PRE_DEFINED_POINT_MARKER_SYMBOL('plus');
#327=DRAUGHTING_PRE_DEFINED_COLOUR('yellow');
#328=DRAUGHTING_PRE_DEFINED_COLOUR('blue');
#329=AXIS2_PLACEMENT_3D('',#453,#363,#364);
#330=AXIS2_PLACEMENT_3D('',#459,#368,#369);
#331=AXIS2_PLACEMENT_3D('',#460,#370,#371);
#332=AXIS2_PLACEMENT_3D('',#461,#372,#373);
#333=AXIS2_PLACEMENT_3D('MCS',#462,#374,#375);
#334=AXIS2_PLACEMENT_3D('PCS',#463,#376,#377);
#335=AXIS2_PLACEMENT_3D('',#464,#378,#379);
#336=AXIS2_PLACEMENT_3D('',#468,#381,#382);
#337=AXIS2_PLACEMENT_3D('',#472,#384,#385);
#338=AXIS2_PLACEMENT_3D('',#476,#387,#388);
#339=AXIS2_PLACEMENT_3D('',#477,#389,#390);
#340=AXIS2_PLACEMENT_3D('',#480,#391,#392);
#341=AXIS2_PLACEMENT_3D('',#481,#393,#394);
#342=AXIS2_PLACEMENT_3D('',#485,#397,#398);
#343=AXIS2_PLACEMENT_3D('',#493,#403,#404);
#344=AXIS2_PLACEMENT_3D('',#497,#407,#408);
#345=AXIS2_PLACEMENT_3D('',#500,#409,#410);
#346=AXIS2_PLACEMENT_3D('',#501,#411,#412);
#347=AXIS2_PLACEMENT_3D('',#505,#415,#416);
#348=AXIS2_PLACEMENT_3D('',#508,#419,#420);
#349=AXIS2_PLACEMENT_3D('',#509,#421,#422);
#350=AXIS2_PLACEMENT_3D('',#510,#423,#424);
#351=AXIS2_PLACEMENT_3D('',#513,#426,#427);
#352=AXIS2_PLACEMENT_3D('',#516,#429,#430);
#353=AXIS2_PLACEMENT_3D('',#517,#431,#432);
#354=AXIS2_PLACEMENT_3D('',#518,#433,#434);
#355=AXIS2_PLACEMENT_3D('',#519,#435,#436);
#356=AXIS2_PLACEMENT_3D('',#522,#437,#438);
#357=AXIS2_PLACEMENT_3D('',#523,#439,#440);
#358=AXIS2_PLACEMENT_3D('',#524,#441,#442);
#359=AXIS2_PLACEMENT_3D('',#525,#443,#444);
#360=AXIS2_PLACEMENT_3D('',#526,#445,#446);
#361=AXIS2_PLACEMENT_3D('',#529,#449,#450);
#362=AXIS2_PLACEMENT_3D('',#530,#451,#452);
#363=DIRECTION('',(0.,0.,1.));
#364=DIRECTION('',(1.,0.,0.));
#365=DIRECTION('',(-1.,0.,0.));
#366=DIRECTION('',(0.500000000000017,0.866025403784429,0.));
#367=DIRECTION('',(0.500000000000017,-0.866025403784429,0.));
#368=DIRECTION('',(0.,0.,-1.));
#369=DIRECTION('',(2.16840434497101E-14,-1.,0.));
#370=DIRECTION('',(0.,0.,-1.));
#371=DIRECTION('',(-0.866025403784721,0.499999999999511,0.));
#372=DIRECTION('',(0.,0.,-1.));
#373=DIRECTION('',(0.866025403782055,0.500000000004129,0.));
#374=DIRECTION('',(0.,0.,1.));
#375=DIRECTION('',(1.,0.,0.));
#376=DIRECTION('',(0.,0.,1.));
#377=DIRECTION('',(1.,0.,0.));
#378=DIRECTION('',(0.,0.,1.));
#379=DIRECTION('',(1.,0.,0.));
#380=DIRECTION('',(0.500000000000017,0.866025403784429,0.));
#381=DIRECTION('',(0.,0.,-1.));
#382=DIRECTION('',(2.16840434497101E-14,-1.,0.));
#383=DIRECTION('',(-1.,0.,0.));
#384=DIRECTION('',(0.,0.,-1.));
#385=DIRECTION('',(0.866025403782056,0.50000000000413,0.));
#386=DIRECTION('',(0.500000000000017,-0.866025403784429,0.));
#387=DIRECTION('',(0.,0.,-1.));
#388=DIRECTION('',(-0.86602540378472,0.499999999999511,0.));
#389=DIRECTION('',(0.,0.,1.));
#390=DIRECTION('',(1.,0.,0.));
#391=DIRECTION('',(0.,0.,1.));
#392=DIRECTION('',(-1.,0.,0.));
#393=DIRECTION('',(0.,0.,1.));
#394=DIRECTION('',(-1.,0.,0.));
#395=DIRECTION('',(0.105541947331302,0.0609346717027313,0.992546151641321));
#396=DIRECTION('',(0.105541947331402,-0.0609346717025414,-0.992546151641322));
#397=DIRECTION('',(0.,0.,1.));
#398=DIRECTION('',(-0.866025403784429,0.500000000000017,2.16860602704341E-16));
#399=DIRECTION('',(-0.206532855354593,-0.119241799635796,0.971146524927467));
#400=DIRECTION('',(-0.105541947331201,0.0609346717030508,0.992546151641313));
#401=DIRECTION('',(1.08903356820902E-13,0.238483599271305,0.97114652492742));
#402=DIRECTION('',(-0.500000000000017,-0.866025403784429,0.));
#403=DIRECTION('',(-0.859570181749864,0.496273075820679,-0.121869343405095));
#404=DIRECTION('',(0.500000000000015,0.86602540378443,-2.57074086984153E-16));
#405=DIRECTION('',(-1.,2.021151062702E-14,0.));
#406=DIRECTION('',(-0.500000000000017,0.866025403784429,0.));
#407=DIRECTION('',(0.,0.,-1.));
#408=DIRECTION('',(-1.,0.,0.));
#409=DIRECTION('',(0.,0.,-1.));
#410=DIRECTION('',(1.,0.,0.));
#411=DIRECTION('',(0.,0.,1.));
#412=DIRECTION('',(-1.,0.,0.));
#413=DIRECTION('',(-0.105541947331302,-0.0609346717027313,-0.992546151641321));
#414=DIRECTION('',(0.2065328553549,-0.1192417996358,0.971146524927401));
#415=DIRECTION('',(0.859570181749864,0.496273075820679,-0.121869343405095));
#416=DIRECTION('',(0.500000000000015,-0.86602540378443,2.57074086984153E-16));
#417=DIRECTION('',(-4.32966883341907E-14,-0.121869343405202,0.992546151641315));
#418=DIRECTION('',(-2.04576852379003E-13,0.121869343405202,-0.992546151641315));
#419=DIRECTION('',(0.,-0.992546151641327,-0.121869343405103));
#420=DIRECTION('',(-1.,0.,0.));
#421=DIRECTION('',(0.,0.,1.));
#422=DIRECTION('',(0.,-1.,2.16860602704341E-16));
#423=DIRECTION('',(0.,0.,1.));
#424=DIRECTION('',(0.866025403784429,0.500000000000017,2.16860602704341E-16));
#425=DIRECTION('',(0.,0.,1.));
#426=DIRECTION('',(0.,0.,1.));
#427=DIRECTION('',(-1.,0.,0.));
#428=DIRECTION('',(0.,0.,1.));
#429=DIRECTION('',(0.,0.,-1.));
#430=DIRECTION('',(1.,0.,0.));
#431=DIRECTION('',(0.,0.,1.));
#432=DIRECTION('',(1.,0.,0.));
#433=DIRECTION('',(0.,0.,-1.));
#434=DIRECTION('',(1.,0.,0.));
#435=DIRECTION('',(0.,0.,-1.));
#436=DIRECTION('',(-1.,0.,0.));
#437=DIRECTION('',(0.,1.,0.));
#438=DIRECTION('',(0.733333333333383,0.,0.679869268478984));
#439=DIRECTION('',(0.,-1.,0.));
#440=DIRECTION('',(-0.733333333333383,0.,0.679869268478984));
#441=DIRECTION('',(0.,0.,-1.));
#442=DIRECTION('',(1.,0.,0.));
#443=DIRECTION('',(0.,0.,-1.));
#444=DIRECTION('',(1.,0.,0.));
#445=DIRECTION('',(0.,0.,-1.));
#446=DIRECTION('',(1.,0.,0.));
#447=DIRECTION('',(3.441691376338E-14,0.,1.));
#448=DIRECTION('',(-3.441691376338E-14,0.,1.));
#449=DIRECTION('',(0.,0.,-1.));
#450=DIRECTION('',(1.,0.,0.));
#451=DIRECTION('',(0.,0.,-1.));
#452=DIRECTION('',(1.,0.,0.));
#453=CARTESIAN_POINT('',(0.,0.,0.));
#454=CARTESIAN_POINT('',(0.,0.,0.));
#455=CARTESIAN_POINT('',(-8.248891971049,-4.7625,0.));
#456=CARTESIAN_POINT('',(7.556071648019,-4.7625,0.));
#457=CARTESIAN_POINT('',(-7.902481809531,-4.162499999995,0.));
#458=CARTESIAN_POINT('',(0.346410161512,8.925000000003,0.));
#459=CARTESIAN_POINT('',(-7.556071648019,-4.3625,0.));
#460=CARTESIAN_POINT('',(0.,8.725,0.));
#461=CARTESIAN_POINT('',(7.556071648019,-4.3625,0.));
#462=CARTESIAN_POINT('',(0.,0.,0.));
#463=CARTESIAN_POINT('',(-8.248891971049,-4.7625,0.));
#464=CARTESIAN_POINT('',(0.,0.,0.));
#465=CARTESIAN_POINT('',(-7.902481809533,-4.162499999998,-6.337761613617E-14));
#466=CARTESIAN_POINT('',(-7.90248180953,-4.162499999995,0.));
#467=CARTESIAN_POINT('',(-0.3464101615139,8.925,0.));
#468=CARTESIAN_POINT('',(-7.556071648019,-4.3625,0.));
#469=CARTESIAN_POINT('',(-7.556071648019,-4.7625,0.));
#470=CARTESIAN_POINT('',(7.556071648019,-4.7625,0.));
#471=CARTESIAN_POINT('',(7.556071648019,-4.7625,0.));
#472=CARTESIAN_POINT('',(7.556071648019,-4.3625,0.));
#473=CARTESIAN_POINT('',(7.902481809533,-4.162499999999,0.));
#474=CARTESIAN_POINT('',(0.3464101615131,8.925000000001,0.));
#475=CARTESIAN_POINT('',(0.3464101615122,8.925000000003,0.));
#476=CARTESIAN_POINT('',(0.,8.725,0.));
#477=CARTESIAN_POINT('',(0.,0.,0.));
#478=CARTESIAN_POINT('',(3.,0.,0.));
#479=CARTESIAN_POINT('',(-3.,0.,0.));
#480=CARTESIAN_POINT('',(0.,0.,0.));
#481=CARTESIAN_POINT('',(0.,0.,0.));
#482=CARTESIAN_POINT('',(-5.248024237403E-13,8.725,-3.25773857119));
#483=CARTESIAN_POINT('',(-5.248024237403E-13,8.725,-3.25773857119));
#484=CARTESIAN_POINT('',(-0.3464101615143,8.925,-6.471851076584E-14));
#485=CARTESIAN_POINT('',(0.,8.725,-1.596291899883));
#486=CARTESIAN_POINT('',(-7.404595652508,-4.275045293215,-3.97));
#487=CARTESIAN_POINT('',(-7.404595652508,-4.275045293215,-3.97));
#488=CARTESIAN_POINT('',(-7.55607164802,-4.3625,-3.25773857119));
#489=CARTESIAN_POINT('',(-7.55607164802,-4.3625,-3.25773857119));
#490=CARTESIAN_POINT('',(-6.046746763206E-13,8.550090586431,-3.97));
#491=CARTESIAN_POINT('',(-6.048495038158E-13,8.550090586431,-3.97));
#492=CARTESIAN_POINT('',(-6.046746763206E-13,8.550090586431,-3.97));
#493=CARTESIAN_POINT('',(0.560002400096,10.49495260933,0.));
#494=CARTESIAN_POINT('',(7.404595652507,-4.275045293215,-3.97));
#495=CARTESIAN_POINT('',(7.404595652507,-4.275045293215,-3.97));
#496=CARTESIAN_POINT('',(7.404595652507,-4.275045293215,-3.97));
#497=CARTESIAN_POINT('',(0.,0.,-3.97));
#498=CARTESIAN_POINT('',(-2.2,0.,-3.97));
#499=CARTESIAN_POINT('',(2.2,0.,-3.97));
#500=CARTESIAN_POINT('',(0.,0.,-3.97));
#501=CARTESIAN_POINT('',(0.,0.,-3.97));
#502=CARTESIAN_POINT('',(7.902481809533,-4.162499999999,0.));
#503=CARTESIAN_POINT('',(7.556071648019,-4.3625,-3.25773857119));
#504=CARTESIAN_POINT('',(7.404595652507,-4.275045293215,-3.97));
#505=CARTESIAN_POINT('',(8.808894371143,-5.732452609327,0.));
#506=CARTESIAN_POINT('',(7.556071648019,-4.3625,-3.25773857119));
#507=CARTESIAN_POINT('',(-7.556071648019,-4.7625,0.));
#508=CARTESIAN_POINT('',(-9.368896771239,-4.7625,0.));
#509=CARTESIAN_POINT('',(-7.556071648019,-4.3625,-1.596291899883));
#510=CARTESIAN_POINT('',(7.556071648019,-4.3625,-1.596291899883));
#511=CARTESIAN_POINT('',(-2.2,0.,-2.839607805437));
#512=CARTESIAN_POINT('',(-2.2,0.,-2.839607805437));
#513=CARTESIAN_POINT('',(0.,0.,-2.839607805437));
#514=CARTESIAN_POINT('',(2.2,0.,-2.839607805437));
#515=CARTESIAN_POINT('',(2.2,0.,-2.839607805437));
#516=CARTESIAN_POINT('',(0.,0.,0.1985));
#517=CARTESIAN_POINT('',(0.,0.,-2.839607805437));
#518=CARTESIAN_POINT('',(0.,0.,0.1985));
#519=CARTESIAN_POINT('',(0.,0.,-0.7999999999999));
#520=CARTESIAN_POINT('',(-3.,0.,-0.8));
#521=CARTESIAN_POINT('',(3.,0.,-0.7999999999999));
#522=CARTESIAN_POINT('',(-5.2,0.,-2.839607805437));
#523=CARTESIAN_POINT('',(5.2,0.,-2.839607805437));
#524=CARTESIAN_POINT('',(0.,0.,-2.839607805437));
#525=CARTESIAN_POINT('',(0.,0.,-0.7999999999999));
#526=CARTESIAN_POINT('',(0.,0.,-2.839607805437));
#527=CARTESIAN_POINT('',(3.,0.,0.));
#528=CARTESIAN_POINT('',(-3.,0.,0.));
#529=CARTESIAN_POINT('',(0.,0.,0.1985));
#530=CARTESIAN_POINT('',(0.,0.,0.1985));
#531=MECHANICAL_DESIGN_GEOMETRIC_PRESENTATION_REPRESENTATION('',(#299,#300,
#301,#302,#303,#304,#305,#306,#307,#308,#309,#310),#532);
#532=(
GEOMETRIC_REPRESENTATION_CONTEXT(3)
GLOBAL_UNCERTAINTY_ASSIGNED_CONTEXT((#533))
GLOBAL_UNIT_ASSIGNED_CONTEXT((#539,#535,#534))
REPRESENTATION_CONTEXT('TC16T304N','TOP_LEVEL_ASSEMBLY_PART')
);
#533=UNCERTAINTY_MEASURE_WITH_UNIT(LENGTH_MEASURE(2.E-5),#539,
'DISTANCE_ACCURACY_VALUE','Maximum Tolerance applied to model');
#534=(
NAMED_UNIT(*)
SI_UNIT($,.STERADIAN.)
SOLID_ANGLE_UNIT()
);
#535=(
CONVERSION_BASED_UNIT('DEGREE',#537)
NAMED_UNIT(#536)
PLANE_ANGLE_UNIT()
);
#536=DIMENSIONAL_EXPONENTS(0.,0.,0.,0.,0.,0.,0.);
#537=PLANE_ANGLE_MEASURE_WITH_UNIT(PLANE_ANGLE_MEASURE(0.0174532925),#538);
#538=(
NAMED_UNIT(*)
PLANE_ANGLE_UNIT()
SI_UNIT($,.RADIAN.)
);
#539=(
LENGTH_UNIT()
NAMED_UNIT(*)
SI_UNIT(.MILLI.,.METRE.)
);
ENDSEC;
END-ISO-10303-21;
