ISO-10303-21;
HEADER;
FILE_DESCRIPTION((''),'2;1');
FILE_NAME('TP220412N','2024-08-11T10:35:42',('tlyaf08'),('PTC Japan'),
'CREO PARAMETRIC BY PTC INC, 2021424','CREO PARAMETRIC BY PTC INC, 2021424','');
FILE_SCHEMA(('AUTOMOTIVE_DESIGN { 1 0 10303 214 1 1 1 1 }'));
ENDSEC;
DATA;
#18=DIRECTION('',(5.E-1,8.660254037844E-1,0.E0));
#19=VECTOR('',#18,1.784012331796E1);
#20=CARTESIAN_POINT('',(-9.959292143521E0,-4.55E0,0.E0));
#21=LINE('',#20,#19);
#22=CARTESIAN_POINT('',(-8.920061658980E0,-5.15E0,0.E0));
#23=DIRECTION('',(0.E0,0.E0,-1.E0));
#24=DIRECTION('',(0.E0,-1.E0,0.E0));
#25=AXIS2_PLACEMENT_3D('',#22,#23,#24);
#27=DIRECTION('',(-1.E0,0.E0,0.E0));
#28=VECTOR('',#27,1.784012331796E1);
#29=CARTESIAN_POINT('',(8.920061658980E0,-6.35E0,0.E0));
#30=LINE('',#29,#28);
#31=CARTESIAN_POINT('',(8.920061658980E0,-5.15E0,0.E0));
#32=DIRECTION('',(0.E0,0.E0,-1.E0));
#33=DIRECTION('',(8.660254037844E-1,5.E-1,0.E0));
#34=AXIS2_PLACEMENT_3D('',#31,#32,#33);
#36=DIRECTION('',(5.E-1,-8.660254037844E-1,0.E0));
#37=VECTOR('',#36,1.784012331796E1);
#38=CARTESIAN_POINT('',(1.039230484541E0,1.09E1,0.E0));
#39=LINE('',#38,#37);
#40=CARTESIAN_POINT('',(0.E0,1.03E1,0.E0));
#41=DIRECTION('',(0.E0,0.E0,-1.E0));
#42=DIRECTION('',(-8.660254037844E-1,5.E-1,0.E0));
#43=AXIS2_PLACEMENT_3D('',#40,#41,#42);
#45=DIRECTION('',(-1.652454372667E-1,9.540449768827E-2,9.816271834477E-1));
#46=VECTOR('',#45,4.849091467987E0);
#47=CARTESIAN_POINT('',(-9.959292143521E0,-4.55E0,0.E0));
#48=LINE('',#47,#46);
#49=CARTESIAN_POINT('',(0.E0,1.03E1,4.76E0));
#50=DIRECTION('',(0.E0,0.E0,-1.E0));
#51=DIRECTION('',(-8.660254037844E-1,5.E-1,0.E0));
#52=AXIS2_PLACEMENT_3D('',#49,#50,#51);
#54=DIRECTION('',(-1.652454372667E-1,9.540449768827E-2,9.816271834477E-1));
#55=VECTOR('',#54,4.849091467987E0);
#56=CARTESIAN_POINT('',(-1.039230484541E0,1.09E1,0.E0));
#57=LINE('',#56,#55);
#58=DIRECTION('',(5.E-1,-8.660254037844E-1,0.E0));
#59=VECTOR('',#58,1.784012331796E1);
#60=CARTESIAN_POINT('',(1.840520724515E0,1.136262513575E1,4.76E0));
#61=LINE('',#60,#59);
#62=DIRECTION('',(1.652454372667E-1,9.540449768827E-2,9.816271834477E-1));
#63=VECTOR('',#62,4.849091467987E0);
#64=CARTESIAN_POINT('',(1.039230484541E0,1.09E1,0.E0));
#65=LINE('',#64,#63);
#66=DIRECTION('',(1.652454372667E-1,9.540449768827E-2,9.816271834477E-1));
#67=VECTOR('',#66,4.849091467987E0);
#68=CARTESIAN_POINT('',(9.959292143521E0,-4.55E0,0.E0));
#69=LINE('',#68,#67);
#70=DIRECTION('',(0.E0,-1.908089953765E-1,9.816271834477E-1));
#71=VECTOR('',#70,4.849091467987E0);
#72=CARTESIAN_POINT('',(8.920061658980E0,-6.35E0,0.E0));
#73=LINE('',#72,#71);
#74=CARTESIAN_POINT('',(-8.920061658980E0,-5.15E0,4.76E0));
#75=DIRECTION('',(0.E0,0.E0,-1.E0));
#76=DIRECTION('',(0.E0,-1.E0,0.E0));
#77=AXIS2_PLACEMENT_3D('',#74,#75,#76);
#79=DIRECTION('',(0.E0,-1.908089953765E-1,9.816271834477E-1));
#80=VECTOR('',#79,4.849091467987E0);
#81=CARTESIAN_POINT('',(-8.920061658980E0,-6.35E0,0.E0));
#82=LINE('',#81,#80);
#83=CARTESIAN_POINT('',(8.920061658980E0,-5.15E0,4.76E0));
#84=DIRECTION('',(0.E0,0.E0,1.E0));
#85=DIRECTION('',(0.E0,-1.E0,0.E0));
#86=AXIS2_PLACEMENT_3D('',#83,#84,#85);
#88=DIRECTION('',(1.E0,0.E0,0.E0));
#89=VECTOR('',#88,1.784012331796E1);
#90=CARTESIAN_POINT('',(-8.920061658980E0,-7.275250271496E0,4.76E0));
#91=LINE('',#90,#89);
#92=DIRECTION('',(-5.E-1,-8.660254037844E-1,0.E0));
#93=VECTOR('',#92,1.784012331796E1);
#94=CARTESIAN_POINT('',(-1.840520724515E0,1.136262513575E1,4.76E0));
#95=LINE('',#94,#93);
#96=CARTESIAN_POINT('',(-9.959292143521E0,-4.55E0,0.E0));
#97=CARTESIAN_POINT('',(-1.039230484541E0,1.09E1,0.E0));
#98=VERTEX_POINT('',#96);
#99=VERTEX_POINT('',#97);
#100=CARTESIAN_POINT('',(8.920061658980E0,-6.35E0,0.E0));
#101=CARTESIAN_POINT('',(-8.920061658980E0,-6.35E0,0.E0));
#102=VERTEX_POINT('',#100);
#103=VERTEX_POINT('',#101);
#104=CARTESIAN_POINT('',(1.039230484541E0,1.09E1,0.E0));
#105=CARTESIAN_POINT('',(9.959292143521E0,-4.55E0,0.E0));
#106=VERTEX_POINT('',#104);
#107=VERTEX_POINT('',#105);
#108=CARTESIAN_POINT('',(-1.840520724515E0,1.136262513575E1,4.76E0));
#109=CARTESIAN_POINT('',(-1.076058238349E1,-4.087374864252E0,4.76E0));
#110=VERTEX_POINT('',#108);
#111=VERTEX_POINT('',#109);
#112=CARTESIAN_POINT('',(-8.920061658980E0,-7.275250271496E0,4.76E0));
#113=CARTESIAN_POINT('',(8.920061658980E0,-7.275250271496E0,4.76E0));
#114=VERTEX_POINT('',#112);
#115=VERTEX_POINT('',#113);
#116=CARTESIAN_POINT('',(1.840520724515E0,1.136262513575E1,4.76E0));
#117=CARTESIAN_POINT('',(1.076058238349E1,-4.087374864252E0,4.76E0));
#118=VERTEX_POINT('',#116);
#119=VERTEX_POINT('',#117);
#120=CARTESIAN_POINT('',(0.E0,0.E0,0.E0));
#121=DIRECTION('',(0.E0,0.E0,1.E0));
#122=DIRECTION('',(1.E0,0.E0,0.E0));
#123=AXIS2_PLACEMENT_3D('',#120,#121,#122);
#124=PLANE('',#123);
#126=ORIENTED_EDGE('',*,*,#125,.F.);
#128=ORIENTED_EDGE('',*,*,#127,.F.);
#130=ORIENTED_EDGE('',*,*,#129,.F.);
#132=ORIENTED_EDGE('',*,*,#131,.F.);
#134=ORIENTED_EDGE('',*,*,#133,.F.);
#136=ORIENTED_EDGE('',*,*,#135,.F.);
#137=EDGE_LOOP('',(#126,#128,#130,#132,#134,#136));
#138=FACE_OUTER_BOUND('',#137,.F.);
#140=CARTESIAN_POINT('',(-1.039230484541E0,1.09E1,0.E0));
#141=DIRECTION('',(-8.501140779110E-1,4.908135917238E-1,-1.908089953765E-1));
#142=DIRECTION('',(-5.E-1,-8.660254037844E-1,0.E0));
#143=AXIS2_PLACEMENT_3D('',#140,#141,#142);
#144=PLANE('',#143);
#145=ORIENTED_EDGE('',*,*,#125,.T.);
#147=ORIENTED_EDGE('',*,*,#146,.T.);
#149=ORIENTED_EDGE('',*,*,#148,.T.);
#151=ORIENTED_EDGE('',*,*,#150,.F.);
#152=EDGE_LOOP('',(#145,#147,#149,#151));
#153=FACE_OUTER_BOUND('',#152,.F.);
#155=CARTESIAN_POINT('',(0.E0,1.03E1,2.38E0));
#156=DIRECTION('',(0.E0,0.E0,1.E0));
#157=DIRECTION('',(1.E0,0.E0,0.E0));
#158=AXIS2_PLACEMENT_3D('',#155,#156,#157);
#159=CONICAL_SURFACE('',#158,1.662625135748E0,1.1E1);
#160=ORIENTED_EDGE('',*,*,#135,.T.);
#162=ORIENTED_EDGE('',*,*,#161,.T.);
#164=ORIENTED_EDGE('',*,*,#163,.F.);
#165=ORIENTED_EDGE('',*,*,#146,.F.);
#166=EDGE_LOOP('',(#160,#162,#164,#165));
#167=FACE_OUTER_BOUND('',#166,.F.);
#169=CARTESIAN_POINT('',(9.959292143521E0,-4.55E0,0.E0));
#170=DIRECTION('',(8.501140779110E-1,4.908135917238E-1,-1.908089953765E-1));
#171=DIRECTION('',(-5.E-1,8.660254037844E-1,0.E0));
#172=AXIS2_PLACEMENT_3D('',#169,#170,#171);
#173=PLANE('',#172);
#174=ORIENTED_EDGE('',*,*,#133,.T.);
#176=ORIENTED_EDGE('',*,*,#175,.T.);
#178=ORIENTED_EDGE('',*,*,#177,.F.);
#179=ORIENTED_EDGE('',*,*,#161,.F.);
#180=EDGE_LOOP('',(#174,#176,#178,#179));
#181=FACE_OUTER_BOUND('',#180,.F.);
#183=CARTESIAN_POINT('',(8.920061658980E0,-5.15E0,2.38E0));
#184=DIRECTION('',(0.E0,0.E0,1.E0));
#185=DIRECTION('',(1.E0,0.E0,0.E0));
#186=AXIS2_PLACEMENT_3D('',#183,#184,#185);
#187=CONICAL_SURFACE('',#186,1.662625135748E0,1.1E1);
#188=ORIENTED_EDGE('',*,*,#131,.T.);
#190=ORIENTED_EDGE('',*,*,#189,.T.);
#192=ORIENTED_EDGE('',*,*,#191,.T.);
#193=ORIENTED_EDGE('',*,*,#175,.F.);
#194=EDGE_LOOP('',(#188,#190,#192,#193));
#195=FACE_OUTER_BOUND('',#194,.F.);
#197=CARTESIAN_POINT('',(-8.920061658980E0,-6.35E0,0.E0));
#198=DIRECTION('',(0.E0,-9.816271834477E-1,-1.908089953765E-1));
#199=DIRECTION('',(1.E0,0.E0,0.E0));
#200=AXIS2_PLACEMENT_3D('',#197,#198,#199);
#201=PLANE('',#200);
#202=ORIENTED_EDGE('',*,*,#129,.T.);
#204=ORIENTED_EDGE('',*,*,#203,.T.);
#206=ORIENTED_EDGE('',*,*,#205,.T.);
#207=ORIENTED_EDGE('',*,*,#189,.F.);
#208=EDGE_LOOP('',(#202,#204,#206,#207));
#209=FACE_OUTER_BOUND('',#208,.F.);
#211=CARTESIAN_POINT('',(-8.920061658980E0,-5.15E0,2.38E0));
#212=DIRECTION('',(0.E0,0.E0,1.E0));
#213=DIRECTION('',(1.E0,0.E0,0.E0));
#214=AXIS2_PLACEMENT_3D('',#211,#212,#213);
#215=CONICAL_SURFACE('',#214,1.662625135748E0,1.1E1);
#216=ORIENTED_EDGE('',*,*,#127,.T.);
#217=ORIENTED_EDGE('',*,*,#150,.T.);
#219=ORIENTED_EDGE('',*,*,#218,.F.);
#220=ORIENTED_EDGE('',*,*,#203,.F.);
#221=EDGE_LOOP('',(#216,#217,#219,#220));
#222=FACE_OUTER_BOUND('',#221,.F.);
#224=CARTESIAN_POINT('',(0.E0,0.E0,4.76E0));
#225=DIRECTION('',(0.E0,0.E0,1.E0));
#226=DIRECTION('',(1.E0,0.E0,0.E0));
#227=AXIS2_PLACEMENT_3D('',#224,#225,#226);
#228=PLANE('',#227);
#229=ORIENTED_EDGE('',*,*,#163,.T.);
#230=ORIENTED_EDGE('',*,*,#177,.T.);
#231=ORIENTED_EDGE('',*,*,#191,.F.);
#232=ORIENTED_EDGE('',*,*,#205,.F.);
#233=ORIENTED_EDGE('',*,*,#218,.T.);
#234=ORIENTED_EDGE('',*,*,#148,.F.);
#235=EDGE_LOOP('',(#229,#230,#231,#232,#233,#234));
#236=FACE_OUTER_BOUND('',#235,.F.);
#240=CARTESIAN_POINT('',(0.E0,0.E0,0.E0));
#241=DIRECTION('',(0.E0,0.E0,1.E0));
#242=DIRECTION('',(1.E0,0.E0,0.E0));
#243=AXIS2_PLACEMENT_3D('MCS',#240,#241,#242);
#244=DRAUGHTING_PRE_DEFINED_CURVE_FONT('continuous');
#245=CURVE_STYLE('',#244,POSITIVE_LENGTH_MEASURE(2.E-2),#16);
#246=PRESENTATION_STYLE_ASSIGNMENT((#245));
#247=STYLED_ITEM('',(#246),#243);
#248=CARTESIAN_POINT('',(-1.260110310801E1,-7.275250271496E0,4.76E0));
#249=DIRECTION('',(0.E0,0.E0,1.E0));
#250=DIRECTION('',(1.E0,0.E0,0.E0));
#251=AXIS2_PLACEMENT_3D('PCS',#248,#249,#250);
#252=CURVE_STYLE('',#244,POSITIVE_LENGTH_MEASURE(2.E-2),#16);
#253=PRESENTATION_STYLE_ASSIGNMENT((#252));
#254=STYLED_ITEM('',(#253),#251);
#255=CARTESIAN_POINT('',(0.E0,1.03E1,4.76E0));
#256=DIRECTION('',(0.E0,0.E0,-1.E0));
#257=DIRECTION('',(-8.660254037844E-1,5.E-1,0.E0));
#258=AXIS2_PLACEMENT_3D('',#255,#256,#257);
#261=CURVE_STYLE('',#244,POSITIVE_LENGTH_MEASURE(2.E-2),#1);
#262=PRESENTATION_STYLE_ASSIGNMENT((#261));
#263=STYLED_ITEM('',(#262),#260);
#265=DIRECTION('',(5.E-1,-8.660254037844E-1,0.E0));
#266=VECTOR('',#265,1.784012331796E1);
#267=CARTESIAN_POINT('',(1.840520724515E0,1.136262513575E1,4.76E0));
#268=LINE('',#267,#266);
#270=CURVE_STYLE('',#244,POSITIVE_LENGTH_MEASURE(2.E-2),#1);
#271=PRESENTATION_STYLE_ASSIGNMENT((#270));
#272=STYLED_ITEM('',(#271),#269);
#274=CARTESIAN_POINT('',(8.920061658980E0,-5.15E0,4.76E0));
#275=DIRECTION('',(0.E0,0.E0,-1.E0));
#276=DIRECTION('',(8.660254037844E-1,5.E-1,0.E0));
#277=AXIS2_PLACEMENT_3D('',#274,#275,#276);
#280=CURVE_STYLE('',#244,POSITIVE_LENGTH_MEASURE(2.E-2),#1);
#281=PRESENTATION_STYLE_ASSIGNMENT((#280));
#282=STYLED_ITEM('',(#281),#279);
#284=DIRECTION('',(-1.E0,0.E0,0.E0));
#285=VECTOR('',#284,1.784012331796E1);
#286=CARTESIAN_POINT('',(8.920061658980E0,-7.275250271496E0,4.76E0));
#287=LINE('',#286,#285);
#289=CURVE_STYLE('',#244,POSITIVE_LENGTH_MEASURE(2.E-2),#1);
#290=PRESENTATION_STYLE_ASSIGNMENT((#289));
#291=STYLED_ITEM('',(#290),#288);
#293=CARTESIAN_POINT('',(-8.920061658980E0,-5.15E0,4.76E0));
#294=DIRECTION('',(0.E0,0.E0,-1.E0));
#295=DIRECTION('',(0.E0,-1.E0,0.E0));
#296=AXIS2_PLACEMENT_3D('',#293,#294,#295);
#299=CURVE_STYLE('',#244,POSITIVE_LENGTH_MEASURE(2.E-2),#1);
#300=PRESENTATION_STYLE_ASSIGNMENT((#299));
#301=STYLED_ITEM('',(#300),#298);
#303=DIRECTION('',(5.E-1,8.660254037844E-1,0.E0));
#304=VECTOR('',#303,1.784012331796E1);
#305=CARTESIAN_POINT('',(-1.076058238349E1,-4.087374864252E0,4.76E0));
#306=LINE('',#305,#304);
#308=CURVE_STYLE('',#244,POSITIVE_LENGTH_MEASURE(2.E-2),#1);
#309=PRESENTATION_STYLE_ASSIGNMENT((#308));
#310=STYLED_ITEM('',(#309),#307);
#314=PRESENTATION_LAYER_ASSIGNMENT('ALL_CSYS','',(#243,#251));
#315=PRESENTATION_LAYER_ASSIGNMENT('ALL_CURVES','',(#312));
#316=PRESENTATION_LAYER_ASSIGNMENT('ALL_FEATURES','',(#243,#251,#312));
#319=PLANE_ANGLE_MEASURE_WITH_UNIT(PLANE_ANGLE_MEASURE(1.745329251994E-2),#318);
#320=(CONVERSION_BASED_UNIT('DEGREE',#319)NAMED_UNIT(*)PLANE_ANGLE_UNIT());
#322=UNCERTAINTY_MEASURE_WITH_UNIT(LENGTH_MEASURE(1.E-3),#317,
'distance_accuracy_value',
'Maximum model space distance between geometric entities at asserted connectivities');
#313=GEOMETRIC_CURVE_SET('',(#312));
#327=CARTESIAN_POINT('',(0.E0,0.E0,0.E0));
#328=DIRECTION('',(0.E0,0.E0,1.E0));
#329=DIRECTION('',(1.E0,0.E0,0.E0));
#332=SHAPE_REPRESENTATION_RELATIONSHIP('','',#331,#324);
#333=SHAPE_REPRESENTATION_RELATIONSHIP('','',#331,#325);
#334=CONSTRUCTIVE_GEOMETRY_REPRESENTATION_RELATIONSHIP('','',#331,#326);
#335=MECHANICAL_DESIGN_GEOMETRIC_PRESENTATION_REPRESENTATION('',(#247,#254,#263,
#272,#282,#291,#301,#310),#323);
#336=APPLICATION_CONTEXT('automotive_design');
#337=APPLICATION_PROTOCOL_DEFINITION('international standard',
'automotive_design',2001,#336);
#338=PRODUCT_DEFINITION_CONTEXT('part definition',#336,'design');
#339=PRODUCT_CONTEXT('',#336,'mechanical');
#340=PRODUCT('TP220412N','TP220412N','NOT SPECIFIED',(#339));
#341=PRODUCT_DEFINITION_FORMATION('1','LAST_VERSION',#340);
#349=DERIVED_UNIT_ELEMENT(#348,2.E0);
#350=DERIVED_UNIT((#349));
#351=MEASURE_REPRESENTATION_ITEM('surface area measure',AREA_MEASURE(
7.824936195940E2),#350);
#356=DERIVED_UNIT_ELEMENT(#355,3.E0);
#357=DERIVED_UNIT((#356));
#358=MEASURE_REPRESENTATION_ITEM('volume measure',VOLUME_MEASURE(
1.121968949769E3),#357);
#362=CARTESIAN_POINT('centre point',(9.875635977532E-8,-5.721650797597E-8,
2.479601687837E0));
#367=DERIVED_UNIT_ELEMENT(#366,2.E0);
#368=DERIVED_UNIT((#367));
#369=MEASURE_REPRESENTATION_ITEM('surface area measure',AREA_MEASURE(
7.824936195940E2),#368);
#374=DERIVED_UNIT_ELEMENT(#373,3.E0);
#375=DERIVED_UNIT((#374));
#376=MEASURE_REPRESENTATION_ITEM('volume measure',VOLUME_MEASURE(
1.121968949769E3),#375);
#380=CARTESIAN_POINT('centre point',(9.875635977532E-8,-5.721650797597E-8,
2.479601687837E0));
#385=PRODUCT_RELATED_PRODUCT_CATEGORY('part','',(#340));
#1=DRAUGHTING_PRE_DEFINED_COLOUR('blue');
#2=DRAUGHTING_PRE_DEFINED_COLOUR('green');
#3=COLOUR_RGB('',3.01961E-1,3.01961E-1,3.01961E-1);
#4=COLOUR_RGB('',3.92157E-1,3.92157E-1,3.92157E-1);
#5=COLOUR_RGB('',5.01961E-1,5.01961E-1,5.01961E-1);
#6=COLOUR_RGB('',5.764705882353E-1,5.450980392157E-1,3.921568627451E-1);
#7=COLOUR_RGB('',6.35294E-1,6.86275E-1,7.4902E-1);
#8=COLOUR_RGB('',7.05882E-1,7.05882E-1,7.05882E-1);
#9=COLOUR_RGB('',7.84314E-1,5.29412E-1,7.84314E-1);
#10=COLOUR_RGB('',8.E-1,8.E-1,8.E-1);
#11=COLOUR_RGB('',8.23529E-1,8.23529E-1,8.23529E-1);
#12=COLOUR_RGB('',9.80392E-1,9.80392E-1,9.80392E-1);
#13=COLOUR_RGB('',1.E0,6.66667E-1,0.E0);
#14=COLOUR_RGB('',1.E0,7.63913E-1,1.92109E-1);
#15=COLOUR_RGB('',1.E0,8.39216E-1,8.90196E-1);
#16=DRAUGHTING_PRE_DEFINED_COLOUR('yellow');
#17=COLOUR_RGB('',1.E0,1.E0,9.41176E-1);
#26=CIRCLE('',#25,1.2E0);
#35=CIRCLE('',#34,1.2E0);
#44=CIRCLE('',#43,1.2E0);
#53=CIRCLE('',#52,2.125250271496E0);
#78=CIRCLE('',#77,2.125250271496E0);
#87=CIRCLE('',#86,2.125250271496E0);
#125=EDGE_CURVE('',#98,#99,#21,.T.);
#127=EDGE_CURVE('',#103,#98,#26,.T.);
#129=EDGE_CURVE('',#102,#103,#30,.T.);
#131=EDGE_CURVE('',#107,#102,#35,.T.);
#133=EDGE_CURVE('',#106,#107,#39,.T.);
#135=EDGE_CURVE('',#99,#106,#44,.T.);
#139=ADVANCED_FACE('',(#138),#124,.F.);
#146=EDGE_CURVE('',#99,#110,#57,.T.);
#148=EDGE_CURVE('',#110,#111,#95,.T.);
#150=EDGE_CURVE('',#98,#111,#48,.T.);
#154=ADVANCED_FACE('',(#153),#144,.T.);
#161=EDGE_CURVE('',#106,#118,#65,.T.);
#163=EDGE_CURVE('',#110,#118,#53,.T.);
#168=ADVANCED_FACE('',(#167),#159,.T.);
#175=EDGE_CURVE('',#107,#119,#69,.T.);
#177=EDGE_CURVE('',#118,#119,#61,.T.);
#182=ADVANCED_FACE('',(#181),#173,.T.);
#189=EDGE_CURVE('',#102,#115,#73,.T.);
#191=EDGE_CURVE('',#115,#119,#87,.T.);
#196=ADVANCED_FACE('',(#195),#187,.T.);
#203=EDGE_CURVE('',#103,#114,#82,.T.);
#205=EDGE_CURVE('',#114,#115,#91,.T.);
#210=ADVANCED_FACE('',(#209),#201,.T.);
#218=EDGE_CURVE('',#114,#111,#78,.T.);
#223=ADVANCED_FACE('',(#222),#215,.T.);
#237=ADVANCED_FACE('',(#236),#228,.T.);
#238=CLOSED_SHELL('',(#139,#154,#168,#182,#196,#210,#223,#237));
#239=MANIFOLD_SOLID_BREP('',#238);
#259=CIRCLE('',#258,2.125250271496E0);
#260=TRIMMED_CURVE('',#259,(PARAMETER_VALUE(0.E0)),(PARAMETER_VALUE(1.2E2)),.T.,
.UNSPECIFIED.);
#264=COMPOSITE_CURVE_SEGMENT(.CONTINUOUS.,.T.,#260);
#269=TRIMMED_CURVE('',#268,(PARAMETER_VALUE(0.E0)),(PARAMETER_VALUE(1.E0)),.T.,
.UNSPECIFIED.);
#273=COMPOSITE_CURVE_SEGMENT(.CONTINUOUS.,.T.,#269);
#278=CIRCLE('',#277,2.125250271496E0);
#279=TRIMMED_CURVE('',#278,(PARAMETER_VALUE(1.2E2)),(PARAMETER_VALUE(0.E0)),.F.,
.UNSPECIFIED.);
#283=COMPOSITE_CURVE_SEGMENT(.CONTINUOUS.,.T.,#279);
#288=TRIMMED_CURVE('',#287,(PARAMETER_VALUE(0.E0)),(PARAMETER_VALUE(1.E0)),.T.,
.UNSPECIFIED.);
#292=COMPOSITE_CURVE_SEGMENT(.CONTINUOUS.,.T.,#288);
#297=CIRCLE('',#296,2.125250271496E0);
#298=TRIMMED_CURVE('',#297,(PARAMETER_VALUE(0.E0)),(PARAMETER_VALUE(1.2E2)),.T.,
.UNSPECIFIED.);
#302=COMPOSITE_CURVE_SEGMENT(.CONTINUOUS.,.T.,#298);
#307=TRIMMED_CURVE('',#306,(PARAMETER_VALUE(0.E0)),(PARAMETER_VALUE(1.E0)),.T.,
.UNSPECIFIED.);
#311=COMPOSITE_CURVE_SEGMENT(.CONTINUOUS.,.T.,#307);
#312=COMPOSITE_CURVE('',(#264,#273,#283,#292,#302,#311),.F.);
#317=(LENGTH_UNIT()NAMED_UNIT(*)SI_UNIT(.MILLI.,.METRE.));
#318=(NAMED_UNIT(*)PLANE_ANGLE_UNIT()SI_UNIT($,.RADIAN.));
#321=(NAMED_UNIT(*)SI_UNIT($,.STERADIAN.)SOLID_ANGLE_UNIT());
#323=(GEOMETRIC_REPRESENTATION_CONTEXT(3)GLOBAL_UNCERTAINTY_ASSIGNED_CONTEXT((
#322))GLOBAL_UNIT_ASSIGNED_CONTEXT((#317,#320,#321))REPRESENTATION_CONTEXT
('ID1','3'));
#324=ADVANCED_BREP_SHAPE_REPRESENTATION('',(#239),#323);
#325=GEOMETRICALLY_BOUNDED_WIREFRAME_SHAPE_REPRESENTATION('',(#313),#323);
#326=CONSTRUCTIVE_GEOMETRY_REPRESENTATION('supplemental geometry',(#243,#251),
#323);
#330=AXIS2_PLACEMENT_3D('',#327,#328,#329);
#331=SHAPE_REPRESENTATION('',(#330),#323);
#342=PRODUCT_DEFINITION('part definition','',#341,#338);
#343=PRODUCT_DEFINITION_SHAPE('','SHAPE FOR TP220412N.',#342);
#344=SHAPE_ASPECT('','solid data associated with TP220412N',#343,.F.);
#345=PROPERTY_DEFINITION('',
'shape for solid data with which properties are associated',#344);
#346=SHAPE_REPRESENTATION('',(#239),#323);
#347=SHAPE_DEFINITION_REPRESENTATION(#345,#346);
#348=(LENGTH_UNIT()NAMED_UNIT(*)SI_UNIT(.MILLI.,.METRE.));
#352=PROPERTY_DEFINITION('geometric validation property','area of TP220412N',
#344);
#353=REPRESENTATION('surface area',(#351),#323);
#354=PROPERTY_DEFINITION_REPRESENTATION(#352,#353);
#355=(LENGTH_UNIT()NAMED_UNIT(*)SI_UNIT(.MILLI.,.METRE.));
#359=PROPERTY_DEFINITION('geometric validation property','volume of TP220412N',
#344);
#360=REPRESENTATION('volume',(#358),#323);
#361=PROPERTY_DEFINITION_REPRESENTATION(#359,#360);
#363=PROPERTY_DEFINITION('geometric validation property',
'centroid of TP220412N',#344);
#364=REPRESENTATION('centroid',(#362),#323);
#365=PROPERTY_DEFINITION_REPRESENTATION(#363,#364);
#366=(LENGTH_UNIT()NAMED_UNIT(*)SI_UNIT(.MILLI.,.METRE.));
#370=PROPERTY_DEFINITION('geometric validation property','area of TP220412N',
#343);
#371=REPRESENTATION('surface area',(#369),#323);
#372=PROPERTY_DEFINITION_REPRESENTATION(#370,#371);
#373=(LENGTH_UNIT()NAMED_UNIT(*)SI_UNIT(.MILLI.,.METRE.));
#377=PROPERTY_DEFINITION('geometric validation property','volume of TP220412N',
#343);
#378=REPRESENTATION('volume',(#376),#323);
#379=PROPERTY_DEFINITION_REPRESENTATION(#377,#378);
#381=PROPERTY_DEFINITION('geometric validation property',
'centroid of TP220412N',#343);
#382=REPRESENTATION('centroid',(#380),#323);
#383=PROPERTY_DEFINITION_REPRESENTATION(#381,#382);
#384=SHAPE_DEFINITION_REPRESENTATION(#343,#331);
ENDSEC;
END-ISO-10303-21;
