ISO-10303-21;
HEADER;
FILE_DESCRIPTION((''),'2;1');
FILE_NAME('SN090316N','2022-05-20T12:17:12',('zhangnw'),(''),
'CREO PARAMETRIC BY PTC INC, 2021424','CREO PARAMETRIC BY PTC INC, 2021424','');
FILE_SCHEMA(('AUTOMOTIVE_DESIGN { 1 0 10303 214 1 1 1 1 }'));
ENDSEC;
DATA;
#26=CARTESIAN_POINT('',(0.E0,0.E0,0.E0));
#27=DIRECTION('',(0.E0,0.E0,-1.E0));
#28=DIRECTION('',(7.071067811865E-1,-7.071067811865E-1,0.E0));
#29=AXIS2_PLACEMENT_3D('',#26,#27,#28);
#31=DRAUGHTING_PRE_DEFINED_CURVE_FONT('continuous');
#32=CURVE_STYLE('',#31,POSITIVE_LENGTH_MEASURE(2.E-2),#14);
#33=PRESENTATION_STYLE_ASSIGNMENT((#32));
#34=STYLED_ITEM('',(#33),#30);
#35=CARTESIAN_POINT('',(0.E0,0.E0,0.E0));
#36=DIRECTION('',(0.E0,0.E0,-1.E0));
#37=DIRECTION('',(-7.071067811865E-1,7.071067811865E-1,0.E0));
#38=AXIS2_PLACEMENT_3D('',#35,#36,#37);
#40=CURVE_STYLE('',#31,POSITIVE_LENGTH_MEASURE(2.E-2),#14);
#41=PRESENTATION_STYLE_ASSIGNMENT((#40));
#42=STYLED_ITEM('',(#41),#39);
#43=CARTESIAN_POINT('',(-3.1625E0,3.1625E0,0.E0));
#44=DIRECTION('',(0.E0,0.E0,1.E0));
#45=DIRECTION('',(0.E0,1.E0,0.E0));
#46=AXIS2_PLACEMENT_3D('',#43,#44,#45);
#48=CURVE_STYLE('',#31,POSITIVE_LENGTH_MEASURE(2.E-2),#14);
#49=PRESENTATION_STYLE_ASSIGNMENT((#48));
#50=STYLED_ITEM('',(#49),#47);
#51=DIRECTION('',(-1.E0,0.E0,0.E0));
#52=VECTOR('',#51,6.325E0);
#53=CARTESIAN_POINT('',(3.1625E0,4.7625E0,0.E0));
#54=LINE('',#53,#52);
#55=CURVE_STYLE('',#31,POSITIVE_LENGTH_MEASURE(2.E-2),#14);
#56=PRESENTATION_STYLE_ASSIGNMENT((#55));
#57=STYLED_ITEM('',(#56),#54);
#58=CARTESIAN_POINT('',(3.1625E0,3.1625E0,0.E0));
#59=DIRECTION('',(0.E0,0.E0,1.E0));
#60=DIRECTION('',(1.E0,0.E0,0.E0));
#61=AXIS2_PLACEMENT_3D('',#58,#59,#60);
#63=CURVE_STYLE('',#31,POSITIVE_LENGTH_MEASURE(2.E-2),#14);
#64=PRESENTATION_STYLE_ASSIGNMENT((#63));
#65=STYLED_ITEM('',(#64),#62);
#66=DIRECTION('',(0.E0,1.E0,0.E0));
#67=VECTOR('',#66,6.325E0);
#68=CARTESIAN_POINT('',(4.7625E0,-3.1625E0,0.E0));
#69=LINE('',#68,#67);
#70=CURVE_STYLE('',#31,POSITIVE_LENGTH_MEASURE(2.E-2),#14);
#71=PRESENTATION_STYLE_ASSIGNMENT((#70));
#72=STYLED_ITEM('',(#71),#69);
#73=CARTESIAN_POINT('',(3.1625E0,-3.1625E0,0.E0));
#74=DIRECTION('',(0.E0,0.E0,1.E0));
#75=DIRECTION('',(0.E0,-1.E0,0.E0));
#76=AXIS2_PLACEMENT_3D('',#73,#74,#75);
#78=CURVE_STYLE('',#31,POSITIVE_LENGTH_MEASURE(2.E-2),#14);
#79=PRESENTATION_STYLE_ASSIGNMENT((#78));
#80=STYLED_ITEM('',(#79),#77);
#81=DIRECTION('',(1.E0,0.E0,0.E0));
#82=VECTOR('',#81,6.325E0);
#83=CARTESIAN_POINT('',(-3.1625E0,-4.7625E0,0.E0));
#84=LINE('',#83,#82);
#85=CURVE_STYLE('',#31,POSITIVE_LENGTH_MEASURE(2.E-2),#14);
#86=PRESENTATION_STYLE_ASSIGNMENT((#85));
#87=STYLED_ITEM('',(#86),#84);
#88=CARTESIAN_POINT('',(-3.1625E0,-3.1625E0,0.E0));
#89=DIRECTION('',(0.E0,0.E0,1.E0));
#90=DIRECTION('',(-1.E0,0.E0,0.E0));
#91=AXIS2_PLACEMENT_3D('',#88,#89,#90);
#93=CURVE_STYLE('',#31,POSITIVE_LENGTH_MEASURE(2.E-2),#14);
#94=PRESENTATION_STYLE_ASSIGNMENT((#93));
#95=STYLED_ITEM('',(#94),#92);
#96=DIRECTION('',(0.E0,-1.E0,0.E0));
#97=VECTOR('',#96,6.325E0);
#98=CARTESIAN_POINT('',(-4.7625E0,3.1625E0,0.E0));
#99=LINE('',#98,#97);
#100=CURVE_STYLE('',#31,POSITIVE_LENGTH_MEASURE(2.E-2),#14);
#101=PRESENTATION_STYLE_ASSIGNMENT((#100));
#102=STYLED_ITEM('',(#101),#99);
#103=DIRECTION('',(0.E0,0.E0,1.E0));
#104=VECTOR('',#103,3.18E0);
#105=CARTESIAN_POINT('',(-1.347038418160E0,1.347038418160E0,-3.18E0));
#106=LINE('',#105,#104);
#107=CURVE_STYLE('',#31,POSITIVE_LENGTH_MEASURE(2.E-2),#14);
#108=PRESENTATION_STYLE_ASSIGNMENT((#107));
#109=STYLED_ITEM('',(#108),#106);
#110=DIRECTION('',(0.E0,0.E0,1.E0));
#111=VECTOR('',#110,3.18E0);
#112=CARTESIAN_POINT('',(1.347038418160E0,-1.347038418160E0,-3.18E0));
#113=LINE('',#112,#111);
#114=CURVE_STYLE('',#31,POSITIVE_LENGTH_MEASURE(2.E-2),#14);
#115=PRESENTATION_STYLE_ASSIGNMENT((#114));
#116=STYLED_ITEM('',(#115),#113);
#117=CARTESIAN_POINT('',(0.E0,0.E0,-3.18E0));
#118=DIRECTION('',(0.E0,0.E0,1.E0));
#119=DIRECTION('',(-7.071067811865E-1,7.071067811865E-1,0.E0));
#120=AXIS2_PLACEMENT_3D('',#117,#118,#119);
#122=CURVE_STYLE('',#31,POSITIVE_LENGTH_MEASURE(2.E-2),#14);
#123=PRESENTATION_STYLE_ASSIGNMENT((#122));
#124=STYLED_ITEM('',(#123),#121);
#125=CARTESIAN_POINT('',(0.E0,0.E0,-3.18E0));
#126=DIRECTION('',(0.E0,0.E0,1.E0));
#127=DIRECTION('',(7.071067811865E-1,-7.071067811865E-1,0.E0));
#128=AXIS2_PLACEMENT_3D('',#125,#126,#127);
#130=CURVE_STYLE('',#31,POSITIVE_LENGTH_MEASURE(2.E-2),#14);
#131=PRESENTATION_STYLE_ASSIGNMENT((#130));
#132=STYLED_ITEM('',(#131),#129);
#133=CARTESIAN_POINT('',(-3.1625E0,3.1625E0,-3.18E0));
#134=DIRECTION('',(0.E0,0.E0,1.E0));
#135=DIRECTION('',(0.E0,1.E0,0.E0));
#136=AXIS2_PLACEMENT_3D('',#133,#134,#135);
#138=CURVE_STYLE('',#31,POSITIVE_LENGTH_MEASURE(2.E-2),#14);
#139=PRESENTATION_STYLE_ASSIGNMENT((#138));
#140=STYLED_ITEM('',(#139),#137);
#141=DIRECTION('',(0.E0,1.E0,0.E0));
#142=VECTOR('',#141,6.325E0);
#143=CARTESIAN_POINT('',(-4.7625E0,-3.1625E0,-3.18E0));
#144=LINE('',#143,#142);
#145=CURVE_STYLE('',#31,POSITIVE_LENGTH_MEASURE(2.E-2),#14);
#146=PRESENTATION_STYLE_ASSIGNMENT((#145));
#147=STYLED_ITEM('',(#146),#144);
#148=CARTESIAN_POINT('',(-3.1625E0,-3.1625E0,-3.18E0));
#149=DIRECTION('',(0.E0,0.E0,1.E0));
#150=DIRECTION('',(-1.E0,0.E0,0.E0));
#151=AXIS2_PLACEMENT_3D('',#148,#149,#150);
#153=CURVE_STYLE('',#31,POSITIVE_LENGTH_MEASURE(2.E-2),#14);
#154=PRESENTATION_STYLE_ASSIGNMENT((#153));
#155=STYLED_ITEM('',(#154),#152);
#156=DIRECTION('',(-1.E0,0.E0,0.E0));
#157=VECTOR('',#156,6.325E0);
#158=CARTESIAN_POINT('',(3.1625E0,-4.7625E0,-3.18E0));
#159=LINE('',#158,#157);
#160=CURVE_STYLE('',#31,POSITIVE_LENGTH_MEASURE(2.E-2),#14);
#161=PRESENTATION_STYLE_ASSIGNMENT((#160));
#162=STYLED_ITEM('',(#161),#159);
#163=CARTESIAN_POINT('',(3.1625E0,-3.1625E0,-3.18E0));
#164=DIRECTION('',(0.E0,0.E0,1.E0));
#165=DIRECTION('',(0.E0,-1.E0,0.E0));
#166=AXIS2_PLACEMENT_3D('',#163,#164,#165);
#168=CURVE_STYLE('',#31,POSITIVE_LENGTH_MEASURE(2.E-2),#14);
#169=PRESENTATION_STYLE_ASSIGNMENT((#168));
#170=STYLED_ITEM('',(#169),#167);
#171=DIRECTION('',(0.E0,-1.E0,0.E0));
#172=VECTOR('',#171,6.325E0);
#173=CARTESIAN_POINT('',(4.7625E0,3.1625E0,-3.18E0));
#174=LINE('',#173,#172);
#175=CURVE_STYLE('',#31,POSITIVE_LENGTH_MEASURE(2.E-2),#14);
#176=PRESENTATION_STYLE_ASSIGNMENT((#175));
#177=STYLED_ITEM('',(#176),#174);
#178=CARTESIAN_POINT('',(3.1625E0,3.1625E0,-3.18E0));
#179=DIRECTION('',(0.E0,0.E0,1.E0));
#180=DIRECTION('',(1.E0,0.E0,0.E0));
#181=AXIS2_PLACEMENT_3D('',#178,#179,#180);
#183=CURVE_STYLE('',#31,POSITIVE_LENGTH_MEASURE(2.E-2),#14);
#184=PRESENTATION_STYLE_ASSIGNMENT((#183));
#185=STYLED_ITEM('',(#184),#182);
#186=DIRECTION('',(1.E0,0.E0,0.E0));
#187=VECTOR('',#186,6.325E0);
#188=CARTESIAN_POINT('',(-3.1625E0,4.7625E0,-3.18E0));
#189=LINE('',#188,#187);
#190=CURVE_STYLE('',#31,POSITIVE_LENGTH_MEASURE(2.E-2),#14);
#191=PRESENTATION_STYLE_ASSIGNMENT((#190));
#192=STYLED_ITEM('',(#191),#189);
#193=DIRECTION('',(0.E0,0.E0,1.E0));
#194=VECTOR('',#193,3.18E0);
#195=CARTESIAN_POINT('',(-4.7625E0,3.1625E0,-3.18E0));
#196=LINE('',#195,#194);
#197=CURVE_STYLE('',#31,POSITIVE_LENGTH_MEASURE(2.E-2),#14);
#198=PRESENTATION_STYLE_ASSIGNMENT((#197));
#199=STYLED_ITEM('',(#198),#196);
#200=DIRECTION('',(0.E0,0.E0,1.E0));
#201=VECTOR('',#200,3.18E0);
#202=CARTESIAN_POINT('',(-4.7625E0,-3.1625E0,-3.18E0));
#203=LINE('',#202,#201);
#204=CURVE_STYLE('',#31,POSITIVE_LENGTH_MEASURE(2.E-2),#14);
#205=PRESENTATION_STYLE_ASSIGNMENT((#204));
#206=STYLED_ITEM('',(#205),#203);
#207=DIRECTION('',(0.E0,0.E0,1.E0));
#208=VECTOR('',#207,3.18E0);
#209=CARTESIAN_POINT('',(3.1625E0,-4.7625E0,-3.18E0));
#210=LINE('',#209,#208);
#211=CURVE_STYLE('',#31,POSITIVE_LENGTH_MEASURE(2.E-2),#14);
#212=PRESENTATION_STYLE_ASSIGNMENT((#211));
#213=STYLED_ITEM('',(#212),#210);
#214=DIRECTION('',(0.E0,0.E0,1.E0));
#215=VECTOR('',#214,3.18E0);
#216=CARTESIAN_POINT('',(-3.1625E0,-4.7625E0,-3.18E0));
#217=LINE('',#216,#215);
#218=CURVE_STYLE('',#31,POSITIVE_LENGTH_MEASURE(2.E-2),#14);
#219=PRESENTATION_STYLE_ASSIGNMENT((#218));
#220=STYLED_ITEM('',(#219),#217);
#221=DIRECTION('',(0.E0,0.E0,1.E0));
#222=VECTOR('',#221,3.18E0);
#223=CARTESIAN_POINT('',(4.7625E0,3.1625E0,-3.18E0));
#224=LINE('',#223,#222);
#225=CURVE_STYLE('',#31,POSITIVE_LENGTH_MEASURE(2.E-2),#14);
#226=PRESENTATION_STYLE_ASSIGNMENT((#225));
#227=STYLED_ITEM('',(#226),#224);
#228=DIRECTION('',(0.E0,0.E0,1.E0));
#229=VECTOR('',#228,3.18E0);
#230=CARTESIAN_POINT('',(4.7625E0,-3.1625E0,-3.18E0));
#231=LINE('',#230,#229);
#232=CURVE_STYLE('',#31,POSITIVE_LENGTH_MEASURE(2.E-2),#14);
#233=PRESENTATION_STYLE_ASSIGNMENT((#232));
#234=STYLED_ITEM('',(#233),#231);
#235=DIRECTION('',(0.E0,0.E0,1.E0));
#236=VECTOR('',#235,3.18E0);
#237=CARTESIAN_POINT('',(-3.1625E0,4.7625E0,-3.18E0));
#238=LINE('',#237,#236);
#239=CURVE_STYLE('',#31,POSITIVE_LENGTH_MEASURE(2.E-2),#14);
#240=PRESENTATION_STYLE_ASSIGNMENT((#239));
#241=STYLED_ITEM('',(#240),#238);
#242=DIRECTION('',(0.E0,0.E0,1.E0));
#243=VECTOR('',#242,3.18E0);
#244=CARTESIAN_POINT('',(3.1625E0,4.7625E0,-3.18E0));
#245=LINE('',#244,#243);
#246=CURVE_STYLE('',#31,POSITIVE_LENGTH_MEASURE(2.E-2),#14);
#247=PRESENTATION_STYLE_ASSIGNMENT((#246));
#248=STYLED_ITEM('',(#247),#245);
#249=CARTESIAN_POINT('',(1.347038418160E0,-1.347038418160E0,0.E0));
#250=CARTESIAN_POINT('',(-1.347038418160E0,1.347038418160E0,0.E0));
#251=VERTEX_POINT('',#249);
#252=VERTEX_POINT('',#250);
#253=CARTESIAN_POINT('',(-1.347038418160E0,1.347038418160E0,-3.18E0));
#254=CARTESIAN_POINT('',(1.347038418160E0,-1.347038418160E0,-3.18E0));
#255=VERTEX_POINT('',#253);
#256=VERTEX_POINT('',#254);
#257=CARTESIAN_POINT('',(-3.1625E0,4.7625E0,0.E0));
#258=CARTESIAN_POINT('',(-4.7625E0,3.1625E0,0.E0));
#259=VERTEX_POINT('',#257);
#260=VERTEX_POINT('',#258);
#261=CARTESIAN_POINT('',(4.7625E0,3.1625E0,0.E0));
#262=CARTESIAN_POINT('',(3.1625E0,4.7625E0,0.E0));
#263=VERTEX_POINT('',#261);
#264=VERTEX_POINT('',#262);
#265=CARTESIAN_POINT('',(3.1625E0,-4.7625E0,0.E0));
#266=CARTESIAN_POINT('',(4.7625E0,-3.1625E0,0.E0));
#267=VERTEX_POINT('',#265);
#268=VERTEX_POINT('',#266);
#269=CARTESIAN_POINT('',(-4.7625E0,-3.1625E0,0.E0));
#270=CARTESIAN_POINT('',(-3.1625E0,-4.7625E0,0.E0));
#271=VERTEX_POINT('',#269);
#272=VERTEX_POINT('',#270);
#273=CARTESIAN_POINT('',(-3.1625E0,4.7625E0,-3.18E0));
#274=VERTEX_POINT('',#273);
#275=CARTESIAN_POINT('',(3.1625E0,4.7625E0,-3.18E0));
#276=VERTEX_POINT('',#275);
#277=CARTESIAN_POINT('',(-4.7625E0,3.1625E0,-3.18E0));
#278=VERTEX_POINT('',#277);
#279=CARTESIAN_POINT('',(-4.7625E0,-3.1625E0,-3.18E0));
#280=VERTEX_POINT('',#279);
#281=CARTESIAN_POINT('',(3.1625E0,-4.7625E0,-3.18E0));
#282=VERTEX_POINT('',#281);
#283=CARTESIAN_POINT('',(-3.1625E0,-4.7625E0,-3.18E0));
#284=VERTEX_POINT('',#283);
#285=CARTESIAN_POINT('',(4.7625E0,3.1625E0,-3.18E0));
#286=VERTEX_POINT('',#285);
#287=CARTESIAN_POINT('',(4.7625E0,-3.1625E0,-3.18E0));
#288=VERTEX_POINT('',#287);
#289=CARTESIAN_POINT('',(0.E0,0.E0,0.E0));
#290=DIRECTION('',(0.E0,0.E0,1.E0));
#291=DIRECTION('',(-7.071067811865E-1,-7.071067811865E-1,0.E0));
#292=AXIS2_PLACEMENT_3D('',#289,#290,#291);
#293=PLANE('',#292);
#295=ORIENTED_EDGE('',*,*,#294,.F.);
#297=ORIENTED_EDGE('',*,*,#296,.F.);
#299=ORIENTED_EDGE('',*,*,#298,.F.);
#301=ORIENTED_EDGE('',*,*,#300,.F.);
#303=ORIENTED_EDGE('',*,*,#302,.F.);
#305=ORIENTED_EDGE('',*,*,#304,.F.);
#307=ORIENTED_EDGE('',*,*,#306,.F.);
#309=ORIENTED_EDGE('',*,*,#308,.F.);
#310=EDGE_LOOP('',(#295,#297,#299,#301,#303,#305,#307,#309));
#311=FACE_OUTER_BOUND('',#310,.F.);
#313=ORIENTED_EDGE('',*,*,#312,.F.);
#315=ORIENTED_EDGE('',*,*,#314,.F.);
#316=EDGE_LOOP('',(#313,#315));
#317=FACE_BOUND('',#316,.F.);
#319=CARTESIAN_POINT('',(0.E0,0.E0,1.59E-1));
#320=DIRECTION('',(0.E0,0.E0,-1.E0));
#321=DIRECTION('',(-7.071067811865E-1,7.071067811865E-1,0.E0));
#322=AXIS2_PLACEMENT_3D('',#319,#320,#321);
#323=CYLINDRICAL_SURFACE('',#322,1.905E0);
#325=ORIENTED_EDGE('',*,*,#324,.F.);
#327=ORIENTED_EDGE('',*,*,#326,.T.);
#329=ORIENTED_EDGE('',*,*,#328,.T.);
#330=ORIENTED_EDGE('',*,*,#312,.T.);
#331=EDGE_LOOP('',(#325,#327,#329,#330));
#332=FACE_OUTER_BOUND('',#331,.F.);
#334=CARTESIAN_POINT('',(0.E0,0.E0,1.59E-1));
#335=DIRECTION('',(0.E0,0.E0,-1.E0));
#336=DIRECTION('',(-7.071067811865E-1,7.071067811865E-1,0.E0));
#337=AXIS2_PLACEMENT_3D('',#334,#335,#336);
#338=CYLINDRICAL_SURFACE('',#337,1.905E0);
#339=ORIENTED_EDGE('',*,*,#328,.F.);
#341=ORIENTED_EDGE('',*,*,#340,.T.);
#342=ORIENTED_EDGE('',*,*,#324,.T.);
#343=ORIENTED_EDGE('',*,*,#314,.T.);
#344=EDGE_LOOP('',(#339,#341,#342,#343));
#345=FACE_OUTER_BOUND('',#344,.F.);
#347=CARTESIAN_POINT('',(0.E0,0.E0,-3.18E0));
#348=DIRECTION('',(0.E0,0.E0,1.E0));
#349=DIRECTION('',(-7.071067811865E-1,-7.071067811865E-1,0.E0));
#350=AXIS2_PLACEMENT_3D('',#347,#348,#349);
#351=PLANE('',#350);
#353=ORIENTED_EDGE('',*,*,#352,.T.);
#355=ORIENTED_EDGE('',*,*,#354,.F.);
#357=ORIENTED_EDGE('',*,*,#356,.T.);
#359=ORIENTED_EDGE('',*,*,#358,.F.);
#361=ORIENTED_EDGE('',*,*,#360,.T.);
#363=ORIENTED_EDGE('',*,*,#362,.F.);
#365=ORIENTED_EDGE('',*,*,#364,.T.);
#367=ORIENTED_EDGE('',*,*,#366,.F.);
#368=EDGE_LOOP('',(#353,#355,#357,#359,#361,#363,#365,#367));
#369=FACE_OUTER_BOUND('',#368,.F.);
#370=ORIENTED_EDGE('',*,*,#326,.F.);
#371=ORIENTED_EDGE('',*,*,#340,.F.);
#372=EDGE_LOOP('',(#370,#371));
#373=FACE_BOUND('',#372,.F.);
#375=CARTESIAN_POINT('',(-3.1625E0,3.1625E0,0.E0));
#376=DIRECTION('',(0.E0,0.E0,1.E0));
#377=DIRECTION('',(1.E0,0.E0,0.E0));
#378=AXIS2_PLACEMENT_3D('',#375,#376,#377);
#379=CYLINDRICAL_SURFACE('',#378,1.6E0);
#380=ORIENTED_EDGE('',*,*,#294,.T.);
#382=ORIENTED_EDGE('',*,*,#381,.F.);
#383=ORIENTED_EDGE('',*,*,#352,.F.);
#385=ORIENTED_EDGE('',*,*,#384,.T.);
#386=EDGE_LOOP('',(#380,#382,#383,#385));
#387=FACE_OUTER_BOUND('',#386,.F.);
#389=CARTESIAN_POINT('',(-4.7625E0,4.3625E0,0.E0));
#390=DIRECTION('',(-1.E0,0.E0,0.E0));
#391=DIRECTION('',(0.E0,1.E0,0.E0));
#392=AXIS2_PLACEMENT_3D('',#389,#390,#391);
#393=PLANE('',#392);
#394=ORIENTED_EDGE('',*,*,#381,.T.);
#395=ORIENTED_EDGE('',*,*,#308,.T.);
#397=ORIENTED_EDGE('',*,*,#396,.F.);
#398=ORIENTED_EDGE('',*,*,#354,.T.);
#399=EDGE_LOOP('',(#394,#395,#397,#398));
#400=FACE_OUTER_BOUND('',#399,.F.);
#402=CARTESIAN_POINT('',(-3.1625E0,-3.1625E0,0.E0));
#403=DIRECTION('',(0.E0,0.E0,1.E0));
#404=DIRECTION('',(1.E0,0.E0,0.E0));
#405=AXIS2_PLACEMENT_3D('',#402,#403,#404);
#406=CYLINDRICAL_SURFACE('',#405,1.6E0);
#407=ORIENTED_EDGE('',*,*,#306,.T.);
#409=ORIENTED_EDGE('',*,*,#408,.F.);
#410=ORIENTED_EDGE('',*,*,#356,.F.);
#411=ORIENTED_EDGE('',*,*,#396,.T.);
#412=EDGE_LOOP('',(#407,#409,#410,#411));
#413=FACE_OUTER_BOUND('',#412,.F.);
#415=CARTESIAN_POINT('',(-4.3625E0,-4.7625E0,0.E0));
#416=DIRECTION('',(0.E0,-1.E0,0.E0));
#417=DIRECTION('',(-1.E0,0.E0,0.E0));
#418=AXIS2_PLACEMENT_3D('',#415,#416,#417);
#419=PLANE('',#418);
#421=ORIENTED_EDGE('',*,*,#420,.F.);
#422=ORIENTED_EDGE('',*,*,#358,.T.);
#423=ORIENTED_EDGE('',*,*,#408,.T.);
#424=ORIENTED_EDGE('',*,*,#304,.T.);
#425=EDGE_LOOP('',(#421,#422,#423,#424));
#426=FACE_OUTER_BOUND('',#425,.F.);
#428=CARTESIAN_POINT('',(3.1625E0,-3.1625E0,0.E0));
#429=DIRECTION('',(0.E0,0.E0,1.E0));
#430=DIRECTION('',(1.E0,0.E0,0.E0));
#431=AXIS2_PLACEMENT_3D('',#428,#429,#430);
#432=CYLINDRICAL_SURFACE('',#431,1.6E0);
#433=ORIENTED_EDGE('',*,*,#302,.T.);
#435=ORIENTED_EDGE('',*,*,#434,.F.);
#436=ORIENTED_EDGE('',*,*,#360,.F.);
#437=ORIENTED_EDGE('',*,*,#420,.T.);
#438=EDGE_LOOP('',(#433,#435,#436,#437));
#439=FACE_OUTER_BOUND('',#438,.F.);
#441=CARTESIAN_POINT('',(4.7625E0,-4.3625E0,0.E0));
#442=DIRECTION('',(1.E0,0.E0,0.E0));
#443=DIRECTION('',(0.E0,-1.E0,0.E0));
#444=AXIS2_PLACEMENT_3D('',#441,#442,#443);
#445=PLANE('',#444);
#447=ORIENTED_EDGE('',*,*,#446,.F.);
#448=ORIENTED_EDGE('',*,*,#362,.T.);
#449=ORIENTED_EDGE('',*,*,#434,.T.);
#450=ORIENTED_EDGE('',*,*,#300,.T.);
#451=EDGE_LOOP('',(#447,#448,#449,#450));
#452=FACE_OUTER_BOUND('',#451,.F.);
#454=CARTESIAN_POINT('',(3.1625E0,3.1625E0,0.E0));
#455=DIRECTION('',(0.E0,0.E0,1.E0));
#456=DIRECTION('',(1.E0,0.E0,0.E0));
#457=AXIS2_PLACEMENT_3D('',#454,#455,#456);
#458=CYLINDRICAL_SURFACE('',#457,1.6E0);
#459=ORIENTED_EDGE('',*,*,#298,.T.);
#461=ORIENTED_EDGE('',*,*,#460,.F.);
#462=ORIENTED_EDGE('',*,*,#364,.F.);
#463=ORIENTED_EDGE('',*,*,#446,.T.);
#464=EDGE_LOOP('',(#459,#461,#462,#463));
#465=FACE_OUTER_BOUND('',#464,.F.);
#467=CARTESIAN_POINT('',(4.3625E0,4.7625E0,0.E0));
#468=DIRECTION('',(0.E0,1.E0,0.E0));
#469=DIRECTION('',(1.E0,0.E0,0.E0));
#470=AXIS2_PLACEMENT_3D('',#467,#468,#469);
#471=PLANE('',#470);
#472=ORIENTED_EDGE('',*,*,#384,.F.);
#473=ORIENTED_EDGE('',*,*,#366,.T.);
#474=ORIENTED_EDGE('',*,*,#460,.T.);
#475=ORIENTED_EDGE('',*,*,#296,.T.);
#476=EDGE_LOOP('',(#472,#473,#474,#475));
#477=FACE_OUTER_BOUND('',#476,.F.);
#481=FILL_AREA_STYLE_COLOUR('',#14);
#482=FILL_AREA_STYLE('',(#481));
#483=SURFACE_STYLE_FILL_AREA(#482);
#484=SURFACE_SIDE_STYLE('',(#483));
#485=SURFACE_STYLE_USAGE(.BOTH.,#484);
#486=PRESENTATION_STYLE_ASSIGNMENT((#485));
#25=STYLED_ITEM('',(#486),#480);
#487=CARTESIAN_POINT('',(0.E0,0.E0,0.E0));
#488=DIRECTION('',(0.E0,0.E0,1.E0));
#489=DIRECTION('',(1.E0,0.E0,0.E0));
#490=AXIS2_PLACEMENT_3D('MCS',#487,#488,#489);
#491=CURVE_STYLE('',#31,POSITIVE_LENGTH_MEASURE(2.E-2),#21);
#492=PRESENTATION_STYLE_ASSIGNMENT((#491));
#493=STYLED_ITEM('',(#492),#490);
#494=CARTESIAN_POINT('',(-4.7625E0,-4.7625E0,0.E0));
#495=DIRECTION('',(0.E0,0.E0,1.E0));
#496=DIRECTION('',(1.E0,0.E0,0.E0));
#497=AXIS2_PLACEMENT_3D('PCS',#494,#495,#496);
#498=CURVE_STYLE('',#31,POSITIVE_LENGTH_MEASURE(2.E-2),#21);
#499=PRESENTATION_STYLE_ASSIGNMENT((#498));
#500=STYLED_ITEM('',(#499),#497);
#501=DIRECTION('',(0.E0,-1.E0,0.E0));
#502=VECTOR('',#501,6.325E0);
#503=CARTESIAN_POINT('',(-4.7625E0,3.1625E0,0.E0));
#504=LINE('',#503,#502);
#506=CURVE_STYLE('',#31,POSITIVE_LENGTH_MEASURE(2.E-2),#1);
#507=PRESENTATION_STYLE_ASSIGNMENT((#506));
#508=STYLED_ITEM('',(#507),#505);
#510=CARTESIAN_POINT('',(-3.1625E0,-3.1625E0,0.E0));
#511=DIRECTION('',(0.E0,0.E0,1.E0));
#512=DIRECTION('',(-1.E0,0.E0,0.E0));
#513=AXIS2_PLACEMENT_3D('',#510,#511,#512);
#516=CURVE_STYLE('',#31,POSITIVE_LENGTH_MEASURE(2.E-2),#1);
#517=PRESENTATION_STYLE_ASSIGNMENT((#516));
#518=STYLED_ITEM('',(#517),#515);
#520=DIRECTION('',(1.E0,0.E0,0.E0));
#521=VECTOR('',#520,6.325E0);
#522=CARTESIAN_POINT('',(-3.1625E0,-4.7625E0,0.E0));
#523=LINE('',#522,#521);
#525=CURVE_STYLE('',#31,POSITIVE_LENGTH_MEASURE(2.E-2),#1);
#526=PRESENTATION_STYLE_ASSIGNMENT((#525));
#527=STYLED_ITEM('',(#526),#524);
#529=CARTESIAN_POINT('',(3.1625E0,-3.1625E0,0.E0));
#530=DIRECTION('',(0.E0,0.E0,1.E0));
#531=DIRECTION('',(0.E0,-1.E0,0.E0));
#532=AXIS2_PLACEMENT_3D('',#529,#530,#531);
#535=CURVE_STYLE('',#31,POSITIVE_LENGTH_MEASURE(2.E-2),#1);
#536=PRESENTATION_STYLE_ASSIGNMENT((#535));
#537=STYLED_ITEM('',(#536),#534);
#539=DIRECTION('',(0.E0,1.E0,0.E0));
#540=VECTOR('',#539,6.325E0);
#541=CARTESIAN_POINT('',(4.7625E0,-3.1625E0,0.E0));
#542=LINE('',#541,#540);
#544=CURVE_STYLE('',#31,POSITIVE_LENGTH_MEASURE(2.E-2),#1);
#545=PRESENTATION_STYLE_ASSIGNMENT((#544));
#546=STYLED_ITEM('',(#545),#543);
#548=CARTESIAN_POINT('',(3.1625E0,3.1625E0,0.E0));
#549=DIRECTION('',(0.E0,0.E0,1.E0));
#550=DIRECTION('',(1.E0,0.E0,0.E0));
#551=AXIS2_PLACEMENT_3D('',#548,#549,#550);
#554=CURVE_STYLE('',#31,POSITIVE_LENGTH_MEASURE(2.E-2),#1);
#555=PRESENTATION_STYLE_ASSIGNMENT((#554));
#556=STYLED_ITEM('',(#555),#553);
#558=DIRECTION('',(-1.E0,0.E0,0.E0));
#559=VECTOR('',#558,6.325E0);
#560=CARTESIAN_POINT('',(3.1625E0,4.7625E0,0.E0));
#561=LINE('',#560,#559);
#563=CURVE_STYLE('',#31,POSITIVE_LENGTH_MEASURE(2.E-2),#1);
#564=PRESENTATION_STYLE_ASSIGNMENT((#563));
#565=STYLED_ITEM('',(#564),#562);
#567=CARTESIAN_POINT('',(-3.1625E0,3.1625E0,0.E0));
#568=DIRECTION('',(0.E0,0.E0,1.E0));
#569=DIRECTION('',(0.E0,1.E0,0.E0));
#570=AXIS2_PLACEMENT_3D('',#567,#568,#569);
#573=CURVE_STYLE('',#31,POSITIVE_LENGTH_MEASURE(2.E-2),#1);
#574=PRESENTATION_STYLE_ASSIGNMENT((#573));
#575=STYLED_ITEM('',(#574),#572);
#579=PRESENTATION_LAYER_ASSIGNMENT('1','',(#25,#497));
#580=PRESENTATION_LAYER_ASSIGNMENT('5','',(#490));
#583=PLANE_ANGLE_MEASURE_WITH_UNIT(PLANE_ANGLE_MEASURE(1.745329251994E-2),#582);
#584=(CONVERSION_BASED_UNIT('DEGREE',#583)NAMED_UNIT(*)PLANE_ANGLE_UNIT());
#586=UNCERTAINTY_MEASURE_WITH_UNIT(LENGTH_MEASURE(2.647011358326E-3),#581,
'distance_accuracy_value',
'Maximum model space distance between geometric entities at asserted connectivities');
#578=GEOMETRIC_SET('',(#577));
#591=SHAPE_REPRESENTATION_RELATIONSHIP('','',#590,#588);
#592=SHAPE_REPRESENTATION_RELATIONSHIP('','',#590,#589);
#593=MECHANICAL_DESIGN_GEOMETRIC_PRESENTATION_REPRESENTATION('',(#34,#42,#50,
#57,#65,#72,#80,#87,#95,#102,#109,#116,#124,#132,#140,#147,#155,#162,#170,#177,
#185,#192,#199,#206,#213,#220,#227,#234,#241,#248,#25,#493,#500,#508,#518,#527,
#537,#546,#556,#565,#575),#587);
#594=APPLICATION_CONTEXT('automotive_design');
#595=APPLICATION_PROTOCOL_DEFINITION('international standard',
'automotive_design',2001,#594);
#596=PRODUCT_DEFINITION_CONTEXT('part definition',#594,'design');
#597=PRODUCT_CONTEXT('',#594,'mechanical');
#598=PRODUCT('SN090316N','SN090316N','NOT SPECIFIED',(#597));
#599=PRODUCT_DEFINITION_FORMATION('1','LAST_VERSION',#598);
#607=DERIVED_UNIT_ELEMENT(#606,2.E0);
#608=DERIVED_UNIT((#607));
#609=MEASURE_REPRESENTATION_ITEM('surface area measure',AREA_MEASURE(
3.047401229276E2),#608);
#614=DERIVED_UNIT_ELEMENT(#613,3.E0);
#615=DERIVED_UNIT((#614));
#616=MEASURE_REPRESENTATION_ITEM('volume measure',VOLUME_MEASURE(
2.452644443024E2),#615);
#620=CARTESIAN_POINT('centre point',(0.E0,0.E0,-1.59E0));
#625=DERIVED_UNIT_ELEMENT(#624,2.E0);
#626=DERIVED_UNIT((#625));
#627=MEASURE_REPRESENTATION_ITEM('surface area measure',AREA_MEASURE(
3.047401229276E2),#626);
#632=DERIVED_UNIT_ELEMENT(#631,3.E0);
#633=DERIVED_UNIT((#632));
#634=MEASURE_REPRESENTATION_ITEM('volume measure',VOLUME_MEASURE(
2.452644443024E2),#633);
#638=CARTESIAN_POINT('centre point',(0.E0,0.E0,-1.59E0));
#643=PRODUCT_RELATED_PRODUCT_CATEGORY('part','',(#598));
#1=DRAUGHTING_PRE_DEFINED_COLOUR('blue');
#2=DRAUGHTING_PRE_DEFINED_COLOUR('green');
#3=COLOUR_RGB('',1.1E-2,1.2E-2,1.E0);
#4=COLOUR_RGB('',3.019607843137E-1,3.019607843137E-1,3.019607843137E-1);
#5=COLOUR_RGB('',3.921568627451E-1,3.921568627451E-1,3.921568627451E-1);
#6=COLOUR_RGB('',4.1E-1,2.61589E-1,1.12848E-1);
#7=COLOUR_RGB('',5.019607843137E-1,5.019607843137E-1,5.019607843137E-1);
#8=COLOUR_RGB('',5.04854E-1,1.5455E-2,1.5455E-2);
#9=COLOUR_RGB('',5.764705882353E-1,5.450827801938E-1,3.921568627451E-1);
#10=COLOUR_RGB('',6.35294E-1,6.86275E-1,7.4902E-1);
#11=COLOUR_RGB('',6.40777E-1,6.40777E-1,6.40777E-1);
#12=COLOUR_RGB('',6.69062E-1,6.69903E-1,6.55217E-1);
#13=COLOUR_RGB('',7.843137254902E-1,5.294117647059E-1,7.843137254902E-1);
#14=COLOUR_RGB('',8.E-1,8.E-1,8.E-1);
#15=COLOUR_RGB('',8.784313725490E-1,9.490196078431E-1,1.E0);
#16=COLOUR_RGB('',9.21569E-1,7.05882E-1,4.70588E-1);
#17=DRAUGHTING_PRE_DEFINED_COLOUR('red');
#18=COLOUR_RGB('',1.E0,6.666666666667E-1,0.E0);
#19=COLOUR_RGB('',1.E0,7.647058823529E-1,1.921568627451E-1);
#20=COLOUR_RGB('',1.E0,8.392156862745E-1,8.901960784314E-1);
#21=DRAUGHTING_PRE_DEFINED_COLOUR('yellow');
#22=COLOUR_RGB('',1.E0,1.E0,5.3E-1);
#23=COLOUR_RGB('',1.E0,1.E0,9.49E-1);
#24=DRAUGHTING_PRE_DEFINED_COLOUR('white');
#30=CIRCLE('',#29,1.905E0);
#39=CIRCLE('',#38,1.905E0);
#47=CIRCLE('',#46,1.6E0);
#62=CIRCLE('',#61,1.6E0);
#77=CIRCLE('',#76,1.6E0);
#92=CIRCLE('',#91,1.6E0);
#121=CIRCLE('',#120,1.905E0);
#129=CIRCLE('',#128,1.905E0);
#137=CIRCLE('',#136,1.6E0);
#152=CIRCLE('',#151,1.6E0);
#167=CIRCLE('',#166,1.6E0);
#182=CIRCLE('',#181,1.6E0);
#294=EDGE_CURVE('',#259,#260,#47,.T.);
#296=EDGE_CURVE('',#264,#259,#54,.T.);
#298=EDGE_CURVE('',#263,#264,#62,.T.);
#300=EDGE_CURVE('',#268,#263,#69,.T.);
#302=EDGE_CURVE('',#267,#268,#77,.T.);
#304=EDGE_CURVE('',#272,#267,#84,.T.);
#306=EDGE_CURVE('',#271,#272,#92,.T.);
#308=EDGE_CURVE('',#260,#271,#99,.T.);
#312=EDGE_CURVE('',#251,#252,#30,.T.);
#314=EDGE_CURVE('',#252,#251,#39,.T.);
#318=ADVANCED_FACE('',(#311,#317),#293,.T.);
#324=EDGE_CURVE('',#255,#252,#106,.T.);
#326=EDGE_CURVE('',#255,#256,#121,.T.);
#328=EDGE_CURVE('',#256,#251,#113,.T.);
#333=ADVANCED_FACE('',(#332),#323,.F.);
#340=EDGE_CURVE('',#256,#255,#129,.T.);
#346=ADVANCED_FACE('',(#345),#338,.F.);
#352=EDGE_CURVE('',#274,#278,#137,.T.);
#354=EDGE_CURVE('',#280,#278,#144,.T.);
#356=EDGE_CURVE('',#280,#284,#152,.T.);
#358=EDGE_CURVE('',#282,#284,#159,.T.);
#360=EDGE_CURVE('',#282,#288,#167,.T.);
#362=EDGE_CURVE('',#286,#288,#174,.T.);
#364=EDGE_CURVE('',#286,#276,#182,.T.);
#366=EDGE_CURVE('',#274,#276,#189,.T.);
#374=ADVANCED_FACE('',(#369,#373),#351,.F.);
#381=EDGE_CURVE('',#278,#260,#196,.T.);
#384=EDGE_CURVE('',#274,#259,#238,.T.);
#388=ADVANCED_FACE('',(#387),#379,.T.);
#396=EDGE_CURVE('',#280,#271,#203,.T.);
#401=ADVANCED_FACE('',(#400),#393,.T.);
#408=EDGE_CURVE('',#284,#272,#217,.T.);
#414=ADVANCED_FACE('',(#413),#406,.T.);
#420=EDGE_CURVE('',#282,#267,#210,.T.);
#427=ADVANCED_FACE('',(#426),#419,.T.);
#434=EDGE_CURVE('',#288,#268,#231,.T.);
#440=ADVANCED_FACE('',(#439),#432,.T.);
#446=EDGE_CURVE('',#286,#263,#224,.T.);
#453=ADVANCED_FACE('',(#452),#445,.T.);
#460=EDGE_CURVE('',#276,#264,#245,.T.);
#466=ADVANCED_FACE('',(#465),#458,.T.);
#478=ADVANCED_FACE('',(#477),#471,.T.);
#479=CLOSED_SHELL('',(#318,#333,#346,#374,#388,#401,#414,#427,#440,#453,#466,
#478));
#480=MANIFOLD_SOLID_BREP('',#479);
#505=TRIMMED_CURVE('',#504,(PARAMETER_VALUE(0.E0)),(PARAMETER_VALUE(1.E0)),.T.,
.UNSPECIFIED.);
#509=COMPOSITE_CURVE_SEGMENT(.CONTINUOUS.,.T.,#505);
#514=CIRCLE('',#513,1.6E0);
#515=TRIMMED_CURVE('',#514,(PARAMETER_VALUE(0.E0)),(PARAMETER_VALUE(9.E1)),.T.,
.UNSPECIFIED.);
#519=COMPOSITE_CURVE_SEGMENT(.CONTINUOUS.,.T.,#515);
#524=TRIMMED_CURVE('',#523,(PARAMETER_VALUE(0.E0)),(PARAMETER_VALUE(1.E0)),.T.,
.UNSPECIFIED.);
#528=COMPOSITE_CURVE_SEGMENT(.CONTINUOUS.,.T.,#524);
#533=CIRCLE('',#532,1.6E0);
#534=TRIMMED_CURVE('',#533,(PARAMETER_VALUE(0.E0)),(PARAMETER_VALUE(9.E1)),.T.,
.UNSPECIFIED.);
#538=COMPOSITE_CURVE_SEGMENT(.CONTINUOUS.,.T.,#534);
#543=TRIMMED_CURVE('',#542,(PARAMETER_VALUE(0.E0)),(PARAMETER_VALUE(1.E0)),.T.,
.UNSPECIFIED.);
#547=COMPOSITE_CURVE_SEGMENT(.CONTINUOUS.,.T.,#543);
#552=CIRCLE('',#551,1.6E0);
#553=TRIMMED_CURVE('',#552,(PARAMETER_VALUE(0.E0)),(PARAMETER_VALUE(9.E1)),.T.,
.UNSPECIFIED.);
#557=COMPOSITE_CURVE_SEGMENT(.CONTINUOUS.,.T.,#553);
#562=TRIMMED_CURVE('',#561,(PARAMETER_VALUE(0.E0)),(PARAMETER_VALUE(1.E0)),.T.,
.UNSPECIFIED.);
#566=COMPOSITE_CURVE_SEGMENT(.CONTINUOUS.,.T.,#562);
#571=CIRCLE('',#570,1.6E0);
#572=TRIMMED_CURVE('',#571,(PARAMETER_VALUE(0.E0)),(PARAMETER_VALUE(9.E1)),.T.,
.UNSPECIFIED.);
#576=COMPOSITE_CURVE_SEGMENT(.CONTINUOUS.,.T.,#572);
#577=COMPOSITE_CURVE('',(#509,#519,#528,#538,#547,#557,#566,#576),.F.);
#581=(LENGTH_UNIT()NAMED_UNIT(*)SI_UNIT(.MILLI.,.METRE.));
#582=(NAMED_UNIT(*)PLANE_ANGLE_UNIT()SI_UNIT($,.RADIAN.));
#585=(NAMED_UNIT(*)SI_UNIT($,.STERADIAN.)SOLID_ANGLE_UNIT());
#587=(GEOMETRIC_REPRESENTATION_CONTEXT(3)GLOBAL_UNCERTAINTY_ASSIGNED_CONTEXT((
#586))GLOBAL_UNIT_ASSIGNED_CONTEXT((#581,#584,#585))REPRESENTATION_CONTEXT
('ID1','3'));
#588=ADVANCED_BREP_SHAPE_REPRESENTATION('',(#480),#587);
#589=GEOMETRICALLY_BOUNDED_SURFACE_SHAPE_REPRESENTATION('',(#578),#587);
#590=SHAPE_REPRESENTATION('',(#490,#497),#587);
#600=PRODUCT_DEFINITION('part definition','',#599,#596);
#601=PRODUCT_DEFINITION_SHAPE('','SHAPE FOR SN090316N.',#600);
#602=SHAPE_ASPECT('','solid data associated with SN090316N',#601,.F.);
#603=PROPERTY_DEFINITION('',
'shape for solid data with which properties are associated',#602);
#604=SHAPE_REPRESENTATION('',(#480),#587);
#605=SHAPE_DEFINITION_REPRESENTATION(#603,#604);
#606=(LENGTH_UNIT()NAMED_UNIT(*)SI_UNIT(.MILLI.,.METRE.));
#610=PROPERTY_DEFINITION('geometric validation property','area of SN090316N',
#602);
#611=REPRESENTATION('surface area',(#609),#587);
#612=PROPERTY_DEFINITION_REPRESENTATION(#610,#611);
#613=(LENGTH_UNIT()NAMED_UNIT(*)SI_UNIT(.MILLI.,.METRE.));
#617=PROPERTY_DEFINITION('geometric validation property','volume of SN090316N',
#602);
#618=REPRESENTATION('volume',(#616),#587);
#619=PROPERTY_DEFINITION_REPRESENTATION(#617,#618);
#621=PROPERTY_DEFINITION('geometric validation property',
'centroid of SN090316N',#602);
#622=REPRESENTATION('centroid',(#620),#587);
#623=PROPERTY_DEFINITION_REPRESENTATION(#621,#622);
#624=(LENGTH_UNIT()NAMED_UNIT(*)SI_UNIT(.MILLI.,.METRE.));
#628=PROPERTY_DEFINITION('geometric validation property','area of SN090316N',
#601);
#629=REPRESENTATION('surface area',(#627),#587);
#630=PROPERTY_DEFINITION_REPRESENTATION(#628,#629);
#631=(LENGTH_UNIT()NAMED_UNIT(*)SI_UNIT(.MILLI.,.METRE.));
#635=PROPERTY_DEFINITION('geometric validation property','volume of SN090316N',
#601);
#636=REPRESENTATION('volume',(#634),#587);
#637=PROPERTY_DEFINITION_REPRESENTATION(#635,#636);
#639=PROPERTY_DEFINITION('geometric validation property',
'centroid of SN090316N',#601);
#640=REPRESENTATION('centroid',(#638),#587);
#641=PROPERTY_DEFINITION_REPRESENTATION(#639,#640);
#642=SHAPE_DEFINITION_REPRESENTATION(#601,#590);
ENDSEC;
END-ISO-10303-21;
