ISO-10303-21;
HEADER;
/* Generated by software containing ST-Developer
 * from STEP Tools, Inc. (www.steptools.com) 
 */
/* OPTION: using custom schema-name function */

FILE_DESCRIPTION(
/* description */ (''),
/* implementation_level */ '2;1');

FILE_NAME(
/* name */ 'SRFU08S08LW_IR0_2362.stp',
/* time_stamp */ '2023-03-10T14:02:58+09:00',
/* author */ (''),
/* organization */ (''),
/* preprocessor_version */ 'ST-DEVELOPER v16',
/* originating_system */ 'SIEMENS PLM Software NX 10.0',
/* authorisation */ '');

FILE_SCHEMA (('AUTOMOTIVE_DESIGN { 1 0 10303 214 3 1 1 1 }'));
ENDSEC;

DATA;
#10=CONSTRUCTIVE_GEOMETRY_REPRESENTATION_RELATIONSHIP(
'supplemental geometry','',#26,#11);
#11=CONSTRUCTIVE_GEOMETRY_REPRESENTATION('supplemental geometry',(#396,
#397,#398,#399,#400,#401,#402),#666);
#12=GEOMETRICALLY_BOUNDED_WIREFRAME_SHAPE_REPRESENTATION(
'SRFU08S08LW_IR0_2362-None',(#27),#666);
#13=SHAPE_REPRESENTATION_RELATIONSHIP('None',
'relationship between SRFU08S08LW_IR0_2362-None and SRFU08S08LW_IR0_23
62-None',#26,#15);
#14=SHAPE_REPRESENTATION_RELATIONSHIP('None',
'relationship between SRFU08S08LW_IR0_2362-None and SRFU08S08LW_IR0_23
62-None',#26,#12);
#15=ADVANCED_BREP_SHAPE_REPRESENTATION('SRFU08S08LW_IR0_2362-None',(#46,
#47),#666);
#16=SHAPE_DEFINITION_REPRESENTATION(#17,#26);
#17=PRODUCT_DEFINITION_SHAPE('','SHAPE FOR SRFU08S08LW_IR0_2362_ASM.',#18);
#18=PRODUCT_DEFINITION('part definition','',#20,#19);
#19=PRODUCT_DEFINITION_CONTEXT('part definition',#25,'design');
#20=PRODUCT_DEFINITION_FORMATION_WITH_SPECIFIED_SOURCE(' ',' ',#22,
 .NOT_KNOWN.);
#21=PRODUCT_RELATED_PRODUCT_CATEGORY('part','',(#22));
#22=PRODUCT('SRFU08S08LW_IR0_2362_ASM','SRFU08S08LW_IR0_2362_ASM',
'NOT SPECIFIED',(#23));
#23=PRODUCT_CONTEXT('',#25,'mechanical');
#24=APPLICATION_PROTOCOL_DEFINITION('international standard',
'automotive_design',2010,#25);
#25=APPLICATION_CONTEXT(
'core data for automotive mechanical design processes');
#26=SHAPE_REPRESENTATION('SRFU08S08LW_IR0_2362-None',(#393),#666);
#27=GEOMETRIC_CURVE_SET('None',(#572,#310,#311,#312,#313,#314));
#28=CONICAL_SURFACE('',#416,5.69,10.);
#29=CONICAL_SURFACE('',#419,5.69,10.);
#30=CONICAL_SURFACE('',#426,5.565,7.030973299152);
#31=CONICAL_SURFACE('',#430,6.05,45.);
#32=CONICAL_SURFACE('',#434,5.85,45.);
#33=CONICAL_SURFACE('',#438,5.85,45.);
#34=CONICAL_SURFACE('',#442,6.05,45.);
#35=CONICAL_SURFACE('',#445,5.565,7.030973299152);
#36=SURFACE_STYLE_USAGE(.BOTH.,#38);
#37=SURFACE_STYLE_USAGE(.BOTH.,#39);
#38=SURFACE_SIDE_STYLE('',(#40));
#39=SURFACE_SIDE_STYLE('',(#41));
#40=SURFACE_STYLE_FILL_AREA(#42);
#41=SURFACE_STYLE_FILL_AREA(#43);
#42=FILL_AREA_STYLE('',(#44));
#43=FILL_AREA_STYLE('',(#45));
#44=FILL_AREA_STYLE_COLOUR('',#391);
#45=FILL_AREA_STYLE_COLOUR('',#392);
#46=MANIFOLD_SOLID_BREP('CUT',#48);
#47=MANIFOLD_SOLID_BREP('NOCUT',#49);
#48=CLOSED_SHELL('',(#61,#62,#63,#64,#65));
#49=CLOSED_SHELL('',(#66,#67,#68,#69,#70,#71,#72,#73,#74,#75,#76,#77,#78,
#79,#80,#81));
#50=PLANE('',#412);
#51=PLANE('',#420);
#52=PLANE('',#436);
#53=CYLINDRICAL_SURFACE('',#408,6.);
#54=CYLINDRICAL_SURFACE('',#411,6.);
#55=CYLINDRICAL_SURFACE('',#422,5.38);
#56=CYLINDRICAL_SURFACE('',#424,5.38);
#57=CYLINDRICAL_SURFACE('',#428,5.75);
#58=CYLINDRICAL_SURFACE('',#432,6.35);
#59=CYLINDRICAL_SURFACE('',#440,6.35);
#60=CYLINDRICAL_SURFACE('',#444,5.75);
#61=ADVANCED_FACE('',(#84),#82,.T.);
#62=ADVANCED_FACE('',(#85),#53,.T.);
#63=ADVANCED_FACE('',(#86),#54,.T.);
#64=ADVANCED_FACE('',(#87),#50,.F.);
#65=ADVANCED_FACE('',(#88),#83,.T.);
#66=ADVANCED_FACE('',(#89),#28,.T.);
#67=ADVANCED_FACE('',(#90),#29,.T.);
#68=ADVANCED_FACE('',(#91),#51,.F.);
#69=ADVANCED_FACE('',(#92),#55,.T.);
#70=ADVANCED_FACE('',(#93),#56,.T.);
#71=ADVANCED_FACE('',(#94),#30,.T.);
#72=ADVANCED_FACE('',(#95),#57,.T.);
#73=ADVANCED_FACE('',(#96),#31,.T.);
#74=ADVANCED_FACE('',(#97),#58,.T.);
#75=ADVANCED_FACE('',(#98),#32,.T.);
#76=ADVANCED_FACE('',(#99),#52,.F.);
#77=ADVANCED_FACE('',(#100),#33,.T.);
#78=ADVANCED_FACE('',(#101),#59,.T.);
#79=ADVANCED_FACE('',(#102),#34,.T.);
#80=ADVANCED_FACE('',(#103),#60,.T.);
#81=ADVANCED_FACE('',(#104),#35,.T.);
#82=SPHERICAL_SURFACE('',#406,6.);
#83=SPHERICAL_SURFACE('',#413,6.);
#84=FACE_OUTER_BOUND('',#105,.T.);
#85=FACE_OUTER_BOUND('',#106,.T.);
#86=FACE_OUTER_BOUND('',#107,.T.);
#87=FACE_OUTER_BOUND('',#108,.T.);
#88=FACE_OUTER_BOUND('',#109,.T.);
#89=FACE_OUTER_BOUND('',#110,.T.);
#90=FACE_OUTER_BOUND('',#111,.T.);
#91=FACE_OUTER_BOUND('',#112,.T.);
#92=FACE_OUTER_BOUND('',#113,.T.);
#93=FACE_OUTER_BOUND('',#114,.T.);
#94=FACE_OUTER_BOUND('',#115,.T.);
#95=FACE_OUTER_BOUND('',#116,.T.);
#96=FACE_OUTER_BOUND('',#117,.T.);
#97=FACE_OUTER_BOUND('',#118,.T.);
#98=FACE_OUTER_BOUND('',#119,.T.);
#99=FACE_OUTER_BOUND('',#120,.T.);
#100=FACE_OUTER_BOUND('',#121,.T.);
#101=FACE_OUTER_BOUND('',#122,.T.);
#102=FACE_OUTER_BOUND('',#123,.T.);
#103=FACE_OUTER_BOUND('',#124,.T.);
#104=FACE_OUTER_BOUND('',#125,.T.);
#105=EDGE_LOOP('',(#126,#127,#128));
#106=EDGE_LOOP('',(#129,#130,#131,#132));
#107=EDGE_LOOP('',(#133,#134,#135,#136));
#108=EDGE_LOOP('',(#137,#138));
#109=EDGE_LOOP('',(#139,#140,#141));
#110=EDGE_LOOP('',(#142,#143,#144,#145));
#111=EDGE_LOOP('',(#146,#147,#148,#149));
#112=EDGE_LOOP('',(#150,#151));
#113=EDGE_LOOP('',(#152,#153,#154,#155));
#114=EDGE_LOOP('',(#156,#157,#158,#159));
#115=EDGE_LOOP('',(#160,#161,#162,#163));
#116=EDGE_LOOP('',(#164,#165,#166,#167));
#117=EDGE_LOOP('',(#168,#169,#170,#171));
#118=EDGE_LOOP('',(#172,#173,#174,#175));
#119=EDGE_LOOP('',(#176,#177,#178,#179));
#120=EDGE_LOOP('',(#180,#181));
#121=EDGE_LOOP('',(#182,#183,#184,#185));
#122=EDGE_LOOP('',(#186,#187,#188,#189));
#123=EDGE_LOOP('',(#190,#191,#192,#193));
#124=EDGE_LOOP('',(#194,#195,#196,#197));
#125=EDGE_LOOP('',(#198,#199,#200,#201));
#126=ORIENTED_EDGE('',*,*,#223,.T.);
#127=ORIENTED_EDGE('',*,*,#224,.F.);
#128=ORIENTED_EDGE('',*,*,#225,.F.);
#129=ORIENTED_EDGE('',*,*,#225,.T.);
#130=ORIENTED_EDGE('',*,*,#226,.F.);
#131=ORIENTED_EDGE('',*,*,#227,.T.);
#132=ORIENTED_EDGE('',*,*,#228,.T.);
#133=ORIENTED_EDGE('',*,*,#229,.T.);
#134=ORIENTED_EDGE('',*,*,#228,.F.);
#135=ORIENTED_EDGE('',*,*,#230,.T.);
#136=ORIENTED_EDGE('',*,*,#226,.T.);
#137=ORIENTED_EDGE('',*,*,#227,.F.);
#138=ORIENTED_EDGE('',*,*,#230,.F.);
#139=ORIENTED_EDGE('',*,*,#229,.F.);
#140=ORIENTED_EDGE('',*,*,#224,.T.);
#141=ORIENTED_EDGE('',*,*,#223,.F.);
#142=ORIENTED_EDGE('',*,*,#231,.F.);
#143=ORIENTED_EDGE('',*,*,#232,.T.);
#144=ORIENTED_EDGE('',*,*,#233,.T.);
#145=ORIENTED_EDGE('',*,*,#234,.F.);
#146=ORIENTED_EDGE('',*,*,#235,.F.);
#147=ORIENTED_EDGE('',*,*,#234,.T.);
#148=ORIENTED_EDGE('',*,*,#236,.T.);
#149=ORIENTED_EDGE('',*,*,#232,.F.);
#150=ORIENTED_EDGE('',*,*,#233,.F.);
#151=ORIENTED_EDGE('',*,*,#236,.F.);
#152=ORIENTED_EDGE('',*,*,#237,.T.);
#153=ORIENTED_EDGE('',*,*,#238,.T.);
#154=ORIENTED_EDGE('',*,*,#239,.F.);
#155=ORIENTED_EDGE('',*,*,#235,.T.);
#156=ORIENTED_EDGE('',*,*,#237,.F.);
#157=ORIENTED_EDGE('',*,*,#231,.T.);
#158=ORIENTED_EDGE('',*,*,#239,.T.);
#159=ORIENTED_EDGE('',*,*,#240,.T.);
#160=ORIENTED_EDGE('',*,*,#241,.T.);
#161=ORIENTED_EDGE('',*,*,#240,.F.);
#162=ORIENTED_EDGE('',*,*,#242,.F.);
#163=ORIENTED_EDGE('',*,*,#243,.F.);
#164=ORIENTED_EDGE('',*,*,#244,.T.);
#165=ORIENTED_EDGE('',*,*,#243,.T.);
#166=ORIENTED_EDGE('',*,*,#245,.F.);
#167=ORIENTED_EDGE('',*,*,#246,.T.);
#168=ORIENTED_EDGE('',*,*,#247,.T.);
#169=ORIENTED_EDGE('',*,*,#246,.F.);
#170=ORIENTED_EDGE('',*,*,#248,.F.);
#171=ORIENTED_EDGE('',*,*,#249,.F.);
#172=ORIENTED_EDGE('',*,*,#250,.T.);
#173=ORIENTED_EDGE('',*,*,#249,.T.);
#174=ORIENTED_EDGE('',*,*,#251,.F.);
#175=ORIENTED_EDGE('',*,*,#252,.T.);
#176=ORIENTED_EDGE('',*,*,#253,.T.);
#177=ORIENTED_EDGE('',*,*,#252,.F.);
#178=ORIENTED_EDGE('',*,*,#254,.F.);
#179=ORIENTED_EDGE('',*,*,#255,.T.);
#180=ORIENTED_EDGE('',*,*,#256,.F.);
#181=ORIENTED_EDGE('',*,*,#255,.F.);
#182=ORIENTED_EDGE('',*,*,#253,.F.);
#183=ORIENTED_EDGE('',*,*,#256,.T.);
#184=ORIENTED_EDGE('',*,*,#254,.T.);
#185=ORIENTED_EDGE('',*,*,#257,.F.);
#186=ORIENTED_EDGE('',*,*,#250,.F.);
#187=ORIENTED_EDGE('',*,*,#257,.T.);
#188=ORIENTED_EDGE('',*,*,#251,.T.);
#189=ORIENTED_EDGE('',*,*,#258,.T.);
#190=ORIENTED_EDGE('',*,*,#247,.F.);
#191=ORIENTED_EDGE('',*,*,#258,.F.);
#192=ORIENTED_EDGE('',*,*,#248,.T.);
#193=ORIENTED_EDGE('',*,*,#259,.F.);
#194=ORIENTED_EDGE('',*,*,#244,.F.);
#195=ORIENTED_EDGE('',*,*,#259,.T.);
#196=ORIENTED_EDGE('',*,*,#245,.T.);
#197=ORIENTED_EDGE('',*,*,#260,.T.);
#198=ORIENTED_EDGE('',*,*,#241,.F.);
#199=ORIENTED_EDGE('',*,*,#260,.F.);
#200=ORIENTED_EDGE('',*,*,#242,.T.);
#201=ORIENTED_EDGE('',*,*,#238,.F.);
#202=VERTEX_POINT('',#586);
#203=VERTEX_POINT('',#587);
#204=VERTEX_POINT('',#589);
#205=VERTEX_POINT('',#593);
#206=VERTEX_POINT('',#595);
#207=VERTEX_POINT('',#604);
#208=VERTEX_POINT('',#605);
#209=VERTEX_POINT('',#607);
#210=VERTEX_POINT('',#609);
#211=VERTEX_POINT('',#617);
#212=VERTEX_POINT('',#619);
#213=VERTEX_POINT('',#625);
#214=VERTEX_POINT('',#627);
#215=VERTEX_POINT('',#631);
#216=VERTEX_POINT('',#633);
#217=VERTEX_POINT('',#637);
#218=VERTEX_POINT('',#639);
#219=VERTEX_POINT('',#643);
#220=VERTEX_POINT('',#645);
#221=VERTEX_POINT('',#649);
#222=VERTEX_POINT('',#651);
#223=EDGE_CURVE('',#202,#203,#264,.T.);
#224=EDGE_CURVE('',#204,#203,#265,.T.);
#225=EDGE_CURVE('',#202,#204,#266,.T.);
#226=EDGE_CURVE('',#205,#204,#318,.T.);
#227=EDGE_CURVE('',#205,#206,#267,.T.);
#228=EDGE_CURVE('',#206,#202,#319,.T.);
#229=EDGE_CURVE('',#204,#202,#268,.T.);
#230=EDGE_CURVE('',#206,#205,#269,.T.);
#231=EDGE_CURVE('',#207,#208,#270,.T.);
#232=EDGE_CURVE('',#207,#209,#320,.T.);
#233=EDGE_CURVE('',#209,#210,#271,.T.);
#234=EDGE_CURVE('',#208,#210,#321,.T.);
#235=EDGE_CURVE('',#208,#207,#272,.T.);
#236=EDGE_CURVE('',#210,#209,#273,.T.);
#237=EDGE_CURVE('',#207,#211,#322,.T.);
#238=EDGE_CURVE('',#211,#212,#274,.T.);
#239=EDGE_CURVE('',#208,#212,#323,.T.);
#240=EDGE_CURVE('',#212,#211,#275,.T.);
#241=EDGE_CURVE('',#213,#211,#324,.T.);
#242=EDGE_CURVE('',#214,#212,#325,.T.);
#243=EDGE_CURVE('',#213,#214,#276,.T.);
#244=EDGE_CURVE('',#215,#213,#326,.T.);
#245=EDGE_CURVE('',#216,#214,#327,.T.);
#246=EDGE_CURVE('',#216,#215,#277,.T.);
#247=EDGE_CURVE('',#217,#215,#328,.T.);
#248=EDGE_CURVE('',#218,#216,#329,.T.);
#249=EDGE_CURVE('',#217,#218,#278,.T.);
#250=EDGE_CURVE('',#219,#217,#330,.T.);
#251=EDGE_CURVE('',#220,#218,#331,.T.);
#252=EDGE_CURVE('',#220,#219,#279,.T.);
#253=EDGE_CURVE('',#221,#219,#332,.T.);
#254=EDGE_CURVE('',#222,#220,#333,.T.);
#255=EDGE_CURVE('',#222,#221,#280,.T.);
#256=EDGE_CURVE('',#221,#222,#281,.T.);
#257=EDGE_CURVE('',#219,#220,#282,.T.);
#258=EDGE_CURVE('',#218,#217,#283,.T.);
#259=EDGE_CURVE('',#215,#216,#284,.T.);
#260=EDGE_CURVE('',#214,#213,#285,.T.);
#261=DRAUGHTING_PRE_DEFINED_COLOUR('yellow');
#262=CIRCLE('',#394,6.);
#263=CIRCLE('',#395,6.);
#264=CIRCLE('',#403,6.);
#265=CIRCLE('',#404,6.);
#266=CIRCLE('',#405,6.);
#267=CIRCLE('',#407,6.);
#268=CIRCLE('',#409,6.);
#269=CIRCLE('',#410,6.);
#270=CIRCLE('',#414,5.379999999997);
#271=CIRCLE('',#415,6.000000000003);
#272=CIRCLE('',#417,5.379999999997);
#273=CIRCLE('',#418,6.000000000003);
#274=CIRCLE('',#421,5.38);
#275=CIRCLE('',#423,5.38);
#276=CIRCLE('',#425,5.75);
#277=CIRCLE('',#427,5.75);
#278=CIRCLE('',#429,6.35);
#279=CIRCLE('',#431,6.35);
#280=CIRCLE('',#433,5.35);
#281=CIRCLE('',#435,5.35);
#282=CIRCLE('',#437,6.35);
#283=CIRCLE('',#439,6.35);
#284=CIRCLE('',#441,5.75);
#285=CIRCLE('',#443,5.75);
#286=CURVE_STYLE('',#298,POSITIVE_LENGTH_MEASURE(0.18),#388);
#287=CURVE_STYLE('',#299,POSITIVE_LENGTH_MEASURE(0.18),#388);
#288=CURVE_STYLE('',#300,POSITIVE_LENGTH_MEASURE(0.18),#388);
#289=CURVE_STYLE('',#301,POSITIVE_LENGTH_MEASURE(0.18),#388);
#290=CURVE_STYLE('',#302,POSITIVE_LENGTH_MEASURE(0.18),#388);
#291=CURVE_STYLE('',#303,POSITIVE_LENGTH_MEASURE(0.13),#389);
#292=CURVE_STYLE('',#304,POSITIVE_LENGTH_MEASURE(0.13),#389);
#293=CURVE_STYLE('',#305,POSITIVE_LENGTH_MEASURE(0.13),#390);
#294=CURVE_STYLE('',#306,POSITIVE_LENGTH_MEASURE(0.13),#390);
#295=CURVE_STYLE('',#307,POSITIVE_LENGTH_MEASURE(0.13),#261);
#296=CURVE_STYLE('',#308,POSITIVE_LENGTH_MEASURE(0.13),#389);
#297=CURVE_STYLE('',#309,POSITIVE_LENGTH_MEASURE(0.13),#389);
#298=DRAUGHTING_PRE_DEFINED_CURVE_FONT('continuous');
#299=DRAUGHTING_PRE_DEFINED_CURVE_FONT('continuous');
#300=DRAUGHTING_PRE_DEFINED_CURVE_FONT('continuous');
#301=DRAUGHTING_PRE_DEFINED_CURVE_FONT('continuous');
#302=DRAUGHTING_PRE_DEFINED_CURVE_FONT('continuous');
#303=DRAUGHTING_PRE_DEFINED_CURVE_FONT('continuous');
#304=DRAUGHTING_PRE_DEFINED_CURVE_FONT('continuous');
#305=DRAUGHTING_PRE_DEFINED_CURVE_FONT('continuous');
#306=DRAUGHTING_PRE_DEFINED_CURVE_FONT('continuous');
#307=DRAUGHTING_PRE_DEFINED_CURVE_FONT('continuous');
#308=DRAUGHTING_PRE_DEFINED_CURVE_FONT('continuous');
#309=DRAUGHTING_PRE_DEFINED_CURVE_FONT('continuous');
#310=TRIMMED_CURVE('',#315,(PARAMETER_VALUE(0.)),(PARAMETER_VALUE(1.)),
 .T.,.PARAMETER.);
#311=TRIMMED_CURVE('',#316,(PARAMETER_VALUE(0.)),(PARAMETER_VALUE(1.)),
 .T.,.PARAMETER.);
#312=TRIMMED_CURVE('',#317,(PARAMETER_VALUE(0.)),(PARAMETER_VALUE(1.)),
 .T.,.PARAMETER.);
#313=TRIMMED_CURVE('',#262,(PARAMETER_VALUE(0.)),(PARAMETER_VALUE(90.)),
 .T.,.PARAMETER.);
#314=TRIMMED_CURVE('',#263,(PARAMETER_VALUE(0.)),(PARAMETER_VALUE(90.)),
 .T.,.PARAMETER.);
#315=LINE('',#573,#334);
#316=LINE('',#574,#335);
#317=LINE('',#575,#336);
#318=LINE('',#592,#337);
#319=LINE('',#596,#338);
#320=LINE('',#606,#339);
#321=LINE('',#610,#340);
#322=LINE('',#616,#341);
#323=LINE('',#620,#342);
#324=LINE('',#624,#343);
#325=LINE('',#626,#344);
#326=LINE('',#630,#345);
#327=LINE('',#632,#346);
#328=LINE('',#636,#347);
#329=LINE('',#638,#348);
#330=LINE('',#642,#349);
#331=LINE('',#644,#350);
#332=LINE('',#648,#351);
#333=LINE('',#650,#352);
#334=VECTOR('',#448,0.5);
#335=VECTOR('',#449,12.);
#336=VECTOR('',#450,0.5);
#337=VECTOR('',#477,1.);
#338=VECTOR('',#480,1.);
#339=VECTOR('',#495,1.);
#340=VECTOR('',#498,1.);
#341=VECTOR('',#509,1.);
#342=VECTOR('',#512,1.);
#343=VECTOR('',#519,1.);
#344=VECTOR('',#520,1.);
#345=VECTOR('',#525,1.);
#346=VECTOR('',#526,1.);
#347=VECTOR('',#531,1.);
#348=VECTOR('',#532,1.);
#349=VECTOR('',#537,1.);
#350=VECTOR('',#538,1.);
#351=VECTOR('',#543,1.);
#352=VECTOR('',#544,1.);
#353=PRESENTATION_LAYER_ASSIGNMENT('2','Layer 2',(#572,#398,#399));
#354=PRESENTATION_LAYER_ASSIGNMENT('1','Layer 1',(#310,#311,#312,#313,#314,
#396,#397,#401,#402,#46,#47));
#355=PRESENTATION_LAYER_ASSIGNMENT('3','Layer 3',(#400));
#356=STYLED_ITEM('',(#371),#572);
#357=STYLED_ITEM('',(#372),#310);
#358=STYLED_ITEM('',(#373),#311);
#359=STYLED_ITEM('',(#374),#312);
#360=STYLED_ITEM('',(#375),#313);
#361=STYLED_ITEM('',(#376),#314);
#362=STYLED_ITEM('',(#377),#396);
#363=STYLED_ITEM('',(#378),#397);
#364=STYLED_ITEM('',(#379),#398);
#365=STYLED_ITEM('',(#380),#399);
#366=STYLED_ITEM('',(#381),#400);
#367=STYLED_ITEM('',(#382),#401);
#368=STYLED_ITEM('',(#383),#402);
#369=STYLED_ITEM('',(#384),#46);
#370=STYLED_ITEM('',(#385),#47);
#371=PRESENTATION_STYLE_ASSIGNMENT((#386));
#372=PRESENTATION_STYLE_ASSIGNMENT((#286));
#373=PRESENTATION_STYLE_ASSIGNMENT((#287));
#374=PRESENTATION_STYLE_ASSIGNMENT((#288));
#375=PRESENTATION_STYLE_ASSIGNMENT((#289));
#376=PRESENTATION_STYLE_ASSIGNMENT((#290));
#377=PRESENTATION_STYLE_ASSIGNMENT((#291));
#378=PRESENTATION_STYLE_ASSIGNMENT((#292));
#379=PRESENTATION_STYLE_ASSIGNMENT((#293));
#380=PRESENTATION_STYLE_ASSIGNMENT((#294));
#381=PRESENTATION_STYLE_ASSIGNMENT((#295));
#382=PRESENTATION_STYLE_ASSIGNMENT((#296));
#383=PRESENTATION_STYLE_ASSIGNMENT((#297));
#384=PRESENTATION_STYLE_ASSIGNMENT((#36));
#385=PRESENTATION_STYLE_ASSIGNMENT((#37));
#386=POINT_STYLE('',#387,POSITIVE_LENGTH_MEASURE(3.),#388);
#387=PRE_DEFINED_POINT_MARKER_SYMBOL('plus');
#388=COLOUR_RGB('Medium Royal',0.2,0.4,0.8);
#389=COLOUR_RGB('Strong Stone',0.576470588235294,0.54508278019379,0.392156862745098);
#390=COLOUR_RGB('Brown',0.6,0.4,0.2);
#391=COLOUR_RGB('cutting part',0.8,0.8,0.8);
#392=COLOUR_RGB('non-cutting part and shank',0.501960784313725,0.501960784313725,
0.501960784313725);
#393=AXIS2_PLACEMENT_3D('',#571,#446,#447);
#394=AXIS2_PLACEMENT_3D('',#576,#451,#452);
#395=AXIS2_PLACEMENT_3D('',#577,#453,#454);
#396=AXIS2_PLACEMENT_3D('',#578,#455,#456);
#397=AXIS2_PLACEMENT_3D('',#579,#457,#458);
#398=AXIS2_PLACEMENT_3D('CIP',#580,#459,#460);
#399=AXIS2_PLACEMENT_3D('PCS',#581,#461,#462);
#400=AXIS2_PLACEMENT_3D('MCS',#582,#463,#464);
#401=AXIS2_PLACEMENT_3D('',#583,#465,#466);
#402=AXIS2_PLACEMENT_3D('',#584,#467,#468);
#403=AXIS2_PLACEMENT_3D('',#585,#469,#470);
#404=AXIS2_PLACEMENT_3D('',#588,#471,#472);
#405=AXIS2_PLACEMENT_3D('',#590,#473,#474);
#406=AXIS2_PLACEMENT_3D('',#591,#475,#476);
#407=AXIS2_PLACEMENT_3D('',#594,#478,#479);
#408=AXIS2_PLACEMENT_3D('',#597,#481,#482);
#409=AXIS2_PLACEMENT_3D('',#598,#483,#484);
#410=AXIS2_PLACEMENT_3D('',#599,#485,#486);
#411=AXIS2_PLACEMENT_3D('',#600,#487,#488);
#412=AXIS2_PLACEMENT_3D('',#601,#489,#490);
#413=AXIS2_PLACEMENT_3D('',#602,#491,#492);
#414=AXIS2_PLACEMENT_3D('',#603,#493,#494);
#415=AXIS2_PLACEMENT_3D('',#608,#496,#497);
#416=AXIS2_PLACEMENT_3D('',#611,#499,#500);
#417=AXIS2_PLACEMENT_3D('',#612,#501,#502);
#418=AXIS2_PLACEMENT_3D('',#613,#503,#504);
#419=AXIS2_PLACEMENT_3D('',#614,#505,#506);
#420=AXIS2_PLACEMENT_3D('',#615,#507,#508);
#421=AXIS2_PLACEMENT_3D('',#618,#510,#511);
#422=AXIS2_PLACEMENT_3D('',#621,#513,#514);
#423=AXIS2_PLACEMENT_3D('',#622,#515,#516);
#424=AXIS2_PLACEMENT_3D('',#623,#517,#518);
#425=AXIS2_PLACEMENT_3D('',#628,#521,#522);
#426=AXIS2_PLACEMENT_3D('',#629,#523,#524);
#427=AXIS2_PLACEMENT_3D('',#634,#527,#528);
#428=AXIS2_PLACEMENT_3D('',#635,#529,#530);
#429=AXIS2_PLACEMENT_3D('',#640,#533,#534);
#430=AXIS2_PLACEMENT_3D('',#641,#535,#536);
#431=AXIS2_PLACEMENT_3D('',#646,#539,#540);
#432=AXIS2_PLACEMENT_3D('',#647,#541,#542);
#433=AXIS2_PLACEMENT_3D('',#652,#545,#546);
#434=AXIS2_PLACEMENT_3D('',#653,#547,#548);
#435=AXIS2_PLACEMENT_3D('',#654,#549,#550);
#436=AXIS2_PLACEMENT_3D('',#655,#551,#552);
#437=AXIS2_PLACEMENT_3D('',#656,#553,#554);
#438=AXIS2_PLACEMENT_3D('',#657,#555,#556);
#439=AXIS2_PLACEMENT_3D('',#658,#557,#558);
#440=AXIS2_PLACEMENT_3D('',#659,#559,#560);
#441=AXIS2_PLACEMENT_3D('',#660,#561,#562);
#442=AXIS2_PLACEMENT_3D('',#661,#563,#564);
#443=AXIS2_PLACEMENT_3D('',#662,#565,#566);
#444=AXIS2_PLACEMENT_3D('',#663,#567,#568);
#445=AXIS2_PLACEMENT_3D('',#664,#569,#570);
#446=DIRECTION('',(0.,0.,1.));
#447=DIRECTION('',(1.,0.,0.));
#448=DIRECTION('',(0.,0.,1.));
#449=DIRECTION('',(1.,0.,0.));
#450=DIRECTION('',(0.,0.,-1.));
#451=DIRECTION('',(0.,1.,0.));
#452=DIRECTION('',(1.,0.,0.));
#453=DIRECTION('',(0.,1.,0.));
#454=DIRECTION('',(0.,0.,-1.));
#455=DIRECTION('',(0.,0.,1.));
#456=DIRECTION('',(1.,0.,0.));
#457=DIRECTION('',(0.,0.,1.));
#458=DIRECTION('',(1.,0.,0.));
#459=DIRECTION('',(0.,0.,1.));
#460=DIRECTION('',(1.,0.,0.));
#461=DIRECTION('',(0.,0.,1.));
#462=DIRECTION('',(1.,0.,0.));
#463=DIRECTION('',(0.,0.,1.));
#464=DIRECTION('',(1.,0.,0.));
#465=DIRECTION('',(0.,0.,1.));
#466=DIRECTION('',(1.,0.,0.));
#467=DIRECTION('',(0.,0.,1.));
#468=DIRECTION('',(1.,0.,0.));
#469=DIRECTION('',(1.,0.,0.));
#470=DIRECTION('',(0.,-1.,0.));
#471=DIRECTION('',(-1.,0.,0.));
#472=DIRECTION('',(0.,1.,0.));
#473=DIRECTION('',(0.,0.,1.));
#474=DIRECTION('',(0.,-1.,0.));
#475=DIRECTION('',(0.,-6.12323399573677E-17,-1.));
#476=DIRECTION('',(0.,-1.,0.));
#477=DIRECTION('',(0.,0.,-1.));
#478=DIRECTION('',(0.,0.,-1.));
#479=DIRECTION('',(0.,1.,0.));
#480=DIRECTION('',(0.,0.,-1.));
#481=DIRECTION('',(0.,0.,-1.));
#482=DIRECTION('',(0.,-1.,0.));
#483=DIRECTION('',(0.,0.,1.));
#484=DIRECTION('',(0.,1.,0.));
#485=DIRECTION('',(0.,0.,-1.));
#486=DIRECTION('',(0.,-1.,0.));
#487=DIRECTION('',(0.,0.,-1.));
#488=DIRECTION('',(0.,-1.,0.));
#489=DIRECTION('',(0.,0.,-1.));
#490=DIRECTION('',(-1.,0.,0.));
#491=DIRECTION('',(0.,-6.12323399573677E-17,-1.));
#492=DIRECTION('',(0.,-1.,0.));
#493=DIRECTION('',(0.,0.,1.));
#494=DIRECTION('',(0.,-1.,0.));
#495=DIRECTION('',(0.,-0.173648177666206,-0.984807753012336));
#496=DIRECTION('',(0.,0.,1.));
#497=DIRECTION('',(0.,-1.,0.));
#498=DIRECTION('',(0.,0.173648177666206,-0.984807753012336));
#499=DIRECTION('',(0.,0.,-1.));
#500=DIRECTION('',(0.,-1.,3.04977870829368E-16));
#501=DIRECTION('',(0.,0.,1.));
#502=DIRECTION('',(0.,1.,0.));
#503=DIRECTION('',(0.,0.,1.));
#504=DIRECTION('',(0.,1.,0.));
#505=DIRECTION('',(0.,0.,-1.));
#506=DIRECTION('',(0.,-1.,3.04977870829368E-16));
#507=DIRECTION('',(0.,0.,1.));
#508=DIRECTION('',(1.,0.,0.));
#509=DIRECTION('',(0.,-7.973795553282E-13,1.));
#510=DIRECTION('',(0.,0.,-1.));
#511=DIRECTION('',(0.,-1.,0.));
#512=DIRECTION('',(0.,7.973795553282E-13,1.));
#513=DIRECTION('',(0.,0.,-1.));
#514=DIRECTION('',(0.,-1.,0.));
#515=DIRECTION('',(0.,0.,-1.));
#516=DIRECTION('',(0.,1.,0.));
#517=DIRECTION('',(0.,0.,-1.));
#518=DIRECTION('',(0.,-1.,0.));
#519=DIRECTION('',(0.,0.122405882175802,-0.992480125750014));
#520=DIRECTION('',(0.,-0.122405882175802,-0.992480125750014));
#521=DIRECTION('',(0.,0.,1.));
#522=DIRECTION('',(0.,-1.,0.));
#523=DIRECTION('',(0.,0.,1.));
#524=DIRECTION('',(0.,1.,0.));
#525=DIRECTION('',(0.,0.,-1.));
#526=DIRECTION('',(0.,0.,-1.));
#527=DIRECTION('',(0.,0.,-1.));
#528=DIRECTION('',(0.,1.,0.));
#529=DIRECTION('',(0.,0.,-1.));
#530=DIRECTION('',(0.,-1.,0.));
#531=DIRECTION('',(0.,0.707106781186498,-0.707106781186598));
#532=DIRECTION('',(0.,-0.707106781186498,-0.707106781186598));
#533=DIRECTION('',(0.,0.,1.));
#534=DIRECTION('',(0.,-1.,0.));
#535=DIRECTION('',(0.,0.,1.));
#536=DIRECTION('',(0.,1.,5.51773283944713E-17));
#537=DIRECTION('',(0.,0.,-1.));
#538=DIRECTION('',(0.,0.,-1.));
#539=DIRECTION('',(0.,0.,-1.));
#540=DIRECTION('',(0.,1.,0.));
#541=DIRECTION('',(0.,0.,-1.));
#542=DIRECTION('',(0.,-1.,0.));
#543=DIRECTION('',(0.,-0.707106781186547,-0.707106781186547));
#544=DIRECTION('',(0.,0.707106781186547,-0.707106781186547));
#545=DIRECTION('',(0.,0.,-1.));
#546=DIRECTION('',(0.,1.,0.));
#547=DIRECTION('',(0.,0.,-1.));
#548=DIRECTION('',(0.,-1.,5.47571410869052E-17));
#549=DIRECTION('',(0.,0.,-1.));
#550=DIRECTION('',(0.,-1.,0.));
#551=DIRECTION('',(0.,0.,-1.));
#552=DIRECTION('',(0.,-1.,0.));
#553=DIRECTION('',(0.,0.,-1.));
#554=DIRECTION('',(0.,-1.,0.));
#555=DIRECTION('',(0.,0.,-1.));
#556=DIRECTION('',(0.,-1.,5.47571410869052E-17));
#557=DIRECTION('',(0.,0.,1.));
#558=DIRECTION('',(0.,1.,0.));
#559=DIRECTION('',(0.,0.,-1.));
#560=DIRECTION('',(0.,-1.,0.));
#561=DIRECTION('',(0.,0.,-1.));
#562=DIRECTION('',(0.,-1.,0.));
#563=DIRECTION('',(0.,0.,1.));
#564=DIRECTION('',(0.,1.,5.51773283944713E-17));
#565=DIRECTION('',(0.,0.,1.));
#566=DIRECTION('',(0.,1.,0.));
#567=DIRECTION('',(0.,0.,-1.));
#568=DIRECTION('',(0.,-1.,0.));
#569=DIRECTION('',(0.,0.,1.));
#570=DIRECTION('',(0.,1.,0.));
#571=CARTESIAN_POINT('',(0.,0.,0.));
#572=CARTESIAN_POINT('CRP',(-6.,0.,-168.275));
#573=CARTESIAN_POINT('',(-6.,0.,-162.275));
#574=CARTESIAN_POINT('',(-6.,0.,-161.775));
#575=CARTESIAN_POINT('',(6.,0.,-161.775));
#576=CARTESIAN_POINT('',(0.,0.,-162.275));
#577=CARTESIAN_POINT('',(0.,0.,-162.275));
#578=CARTESIAN_POINT('',(0.,0.,0.));
#579=CARTESIAN_POINT('',(0.,0.,0.));
#580=CARTESIAN_POINT('',(0.,0.,-168.275));
#581=CARTESIAN_POINT('',(0.,0.,0.));
#582=CARTESIAN_POINT('',(0.,0.,-88.9));
#583=CARTESIAN_POINT('',(0.,0.,0.));
#584=CARTESIAN_POINT('',(0.,0.,0.));
#585=CARTESIAN_POINT('',(0.,0.,-162.275));
#586=CARTESIAN_POINT('',(0.,-6.,-162.275));
#587=CARTESIAN_POINT('',(0.,0.,-168.275));
#588=CARTESIAN_POINT('',(0.,0.,-162.275));
#589=CARTESIAN_POINT('',(0.,6.,-162.275));
#590=CARTESIAN_POINT('',(0.,0.,-162.275));
#591=CARTESIAN_POINT('',(0.,0.,-162.275));
#592=CARTESIAN_POINT('',(0.,6.,-162.275));
#593=CARTESIAN_POINT('',(0.,6.,-161.775));
#594=CARTESIAN_POINT('',(0.,0.,-161.775));
#595=CARTESIAN_POINT('',(0.,-6.,-161.775));
#596=CARTESIAN_POINT('',(0.,-6.,-162.275));
#597=CARTESIAN_POINT('',(0.,0.,8.41375));
#598=CARTESIAN_POINT('',(0.,0.,-162.275));
#599=CARTESIAN_POINT('',(0.,0.,-161.775));
#600=CARTESIAN_POINT('',(0.,0.,8.41375));
#601=CARTESIAN_POINT('',(150.,150.,-161.775));
#602=CARTESIAN_POINT('',(0.,0.,-162.275));
#603=CARTESIAN_POINT('',(0.,0.,-158.2588052718));
#604=CARTESIAN_POINT('',(0.,-5.379999999998,-158.2588052718));
#605=CARTESIAN_POINT('',(0.,5.379999999998,-158.2588052718));
#606=CARTESIAN_POINT('',(0.,-5.379999999998,-158.2588052718));
#607=CARTESIAN_POINT('',(0.,-6.000000000003,-161.775));
#608=CARTESIAN_POINT('',(0.,0.,-161.775));
#609=CARTESIAN_POINT('',(0.,6.000000000002,-161.775));
#610=CARTESIAN_POINT('',(0.,5.379999999998,-158.2588052718));
#611=CARTESIAN_POINT('',(0.,0.,-160.0169026359));
#612=CARTESIAN_POINT('',(0.,0.,-158.2588052718));
#613=CARTESIAN_POINT('',(0.,0.,-161.775));
#614=CARTESIAN_POINT('',(0.,0.,-160.0169026359));
#615=CARTESIAN_POINT('',(-150.,150.,-161.775));
#616=CARTESIAN_POINT('',(0.,-5.379999999998,-158.2588052718));
#617=CARTESIAN_POINT('',(0.,-5.38,-156.275));
#618=CARTESIAN_POINT('',(0.,0.,-156.275));
#619=CARTESIAN_POINT('',(0.,5.38,-156.275));
#620=CARTESIAN_POINT('',(0.,5.379999999998,-158.2588052718));
#621=CARTESIAN_POINT('',(0.,0.,8.41375));
#622=CARTESIAN_POINT('',(0.,0.,-156.275));
#623=CARTESIAN_POINT('',(0.,0.,8.41375));
#624=CARTESIAN_POINT('',(0.,-5.75,-153.275));
#625=CARTESIAN_POINT('',(0.,-5.75,-153.275));
#626=CARTESIAN_POINT('',(0.,5.75,-153.275));
#627=CARTESIAN_POINT('',(0.,5.75,-153.275));
#628=CARTESIAN_POINT('',(0.,0.,-153.275));
#629=CARTESIAN_POINT('',(0.,0.,-154.775));
#630=CARTESIAN_POINT('',(0.,-5.75,-153.275));
#631=CARTESIAN_POINT('',(0.,-5.75,-89.5));
#632=CARTESIAN_POINT('',(0.,5.75,-153.275));
#633=CARTESIAN_POINT('',(0.,5.75,-89.5));
#634=CARTESIAN_POINT('',(0.,0.,-89.5));
#635=CARTESIAN_POINT('',(0.,0.,8.41375));
#636=CARTESIAN_POINT('',(0.,-6.35,-88.9));
#637=CARTESIAN_POINT('',(0.,-6.35,-88.9));
#638=CARTESIAN_POINT('',(0.,6.35,-88.9));
#639=CARTESIAN_POINT('',(0.,6.35,-88.9));
#640=CARTESIAN_POINT('',(0.,0.,-88.9));
#641=CARTESIAN_POINT('',(0.,0.,-89.2));
#642=CARTESIAN_POINT('',(0.,-6.35,-88.9));
#643=CARTESIAN_POINT('',(0.,-6.35,-1.));
#644=CARTESIAN_POINT('',(0.,6.35,-88.9));
#645=CARTESIAN_POINT('',(0.,6.35,-1.));
#646=CARTESIAN_POINT('',(0.,0.,-1.));
#647=CARTESIAN_POINT('',(0.,0.,8.41375));
#648=CARTESIAN_POINT('',(0.,-5.35,0.));
#649=CARTESIAN_POINT('',(0.,-5.35,0.));
#650=CARTESIAN_POINT('',(0.,5.35,0.));
#651=CARTESIAN_POINT('',(0.,5.35,0.));
#652=CARTESIAN_POINT('',(0.,0.,0.));
#653=CARTESIAN_POINT('',(0.,0.,-0.5));
#654=CARTESIAN_POINT('',(0.,0.,0.));
#655=CARTESIAN_POINT('',(0.,0.,0.));
#656=CARTESIAN_POINT('',(0.,0.,-1.));
#657=CARTESIAN_POINT('',(0.,0.,-0.5));
#658=CARTESIAN_POINT('',(0.,0.,-88.9));
#659=CARTESIAN_POINT('',(0.,0.,8.41375));
#660=CARTESIAN_POINT('',(0.,0.,-89.5));
#661=CARTESIAN_POINT('',(0.,0.,-89.2));
#662=CARTESIAN_POINT('',(0.,0.,-153.275));
#663=CARTESIAN_POINT('',(0.,0.,8.41375));
#664=CARTESIAN_POINT('',(0.,0.,-154.775));
#665=MECHANICAL_DESIGN_GEOMETRIC_PRESENTATION_REPRESENTATION('',(#356,#357,
#358,#359,#360,#361,#362,#363,#364,#365,#366,#367,#368,#369,#370),#666);
#666=(
GEOMETRIC_REPRESENTATION_CONTEXT(3)
GLOBAL_UNCERTAINTY_ASSIGNED_CONTEXT((#667))
GLOBAL_UNIT_ASSIGNED_CONTEXT((#673,#669,#668))
REPRESENTATION_CONTEXT('SRFU08S08LW_IR0_2362','TOP_LEVEL_ASSEMBLY_PART')
);
#667=UNCERTAINTY_MEASURE_WITH_UNIT(LENGTH_MEASURE(2.E-5),#673,
'DISTANCE_ACCURACY_VALUE','Maximum Tolerance applied to model');
#668=(
NAMED_UNIT(*)
SI_UNIT($,.STERADIAN.)
SOLID_ANGLE_UNIT()
);
#669=(
CONVERSION_BASED_UNIT('DEGREE',#671)
NAMED_UNIT(#670)
PLANE_ANGLE_UNIT()
);
#670=DIMENSIONAL_EXPONENTS(0.,0.,0.,0.,0.,0.,0.);
#671=PLANE_ANGLE_MEASURE_WITH_UNIT(PLANE_ANGLE_MEASURE(0.0174532925),#672);
#672=(
NAMED_UNIT(*)
PLANE_ANGLE_UNIT()
SI_UNIT($,.RADIAN.)
);
#673=(
LENGTH_UNIT()
NAMED_UNIT(*)
SI_UNIT(.MILLI.,.METRE.)
);
ENDSEC;
END-ISO-10303-21;
