ISO-10303-21;
HEADER;
/* Generated by software containing ST-Developer
 * from STEP Tools, Inc. (www.steptools.com) 
 */
/* OPTION: using custom schema-name function */

FILE_DESCRIPTION(
/* description */ (''),
/* implementation_level */ '2;1');

FILE_NAME(
/* name */ 'SRFU06S06MW_IR0_1875.stp',
/* time_stamp */ '2021-02-02T08:25:33+09:00',
/* author */ (''),
/* organization */ (''),
/* preprocessor_version */ 'ST-DEVELOPER v16',
/* originating_system */ 'SIEMENS PLM Software NX 10.0',
/* authorisation */ '');

FILE_SCHEMA (('AUTOMOTIVE_DESIGN { 1 0 10303 214 3 1 1 1 }'));
ENDSEC;

DATA;
#10=CONSTRUCTIVE_GEOMETRY_REPRESENTATION_RELATIONSHIP(
'supplemental geometry','',#26,#11);
#11=CONSTRUCTIVE_GEOMETRY_REPRESENTATION('supplemental geometry',(#416,
#417,#418,#419,#420,#421,#422,#423,#424,#425),#700);
#12=GEOMETRICALLY_BOUNDED_WIREFRAME_SHAPE_REPRESENTATION(
'SRFU06S06MW_IR0_1875-None',(#27),#700);
#13=SHAPE_REPRESENTATION_RELATIONSHIP('None',
'relationship between SRFU06S06MW_IR0_1875-None and SRFU06S06MW_IR0_18
75-None',#26,#15);
#14=SHAPE_REPRESENTATION_RELATIONSHIP('None',
'relationship between SRFU06S06MW_IR0_1875-None and SRFU06S06MW_IR0_18
75-None',#26,#12);
#15=ADVANCED_BREP_SHAPE_REPRESENTATION('SRFU06S06MW_IR0_1875-None',(#46,
#47),#700);
#16=SHAPE_DEFINITION_REPRESENTATION(#17,#26);
#17=PRODUCT_DEFINITION_SHAPE('','SHAPE FOR SRFU06S06MW_IR0_1875_ASM.',#18);
#18=PRODUCT_DEFINITION('part definition','',#20,#19);
#19=PRODUCT_DEFINITION_CONTEXT('part definition',#25,'design');
#20=PRODUCT_DEFINITION_FORMATION_WITH_SPECIFIED_SOURCE(' ',' ',#22,
 .NOT_KNOWN.);
#21=PRODUCT_RELATED_PRODUCT_CATEGORY('part','',(#22));
#22=PRODUCT('SRFU06S06MW_IR0_1875_ASM','SRFU06S06MW_IR0_1875_ASM',
'NOT SPECIFIED',(#23));
#23=PRODUCT_CONTEXT('',#25,'mechanical');
#24=APPLICATION_PROTOCOL_DEFINITION('international standard',
'automotive_design',2010,#25);
#25=APPLICATION_CONTEXT(
'core data for automotive mechanical design processes');
#26=SHAPE_REPRESENTATION('SRFU06S06MW_IR0_1875-None',(#413),#700);
#27=GEOMETRIC_CURVE_SET('None',(#601,#602,#603,#315,#316,#317,#318,#319));
#28=CONICAL_SURFACE('',#439,4.54875,10.);
#29=CONICAL_SURFACE('',#442,4.54875,10.);
#30=CONICAL_SURFACE('',#449,4.4175,3.148096099563);
#31=CONICAL_SURFACE('',#453,4.63125,45.);
#32=CONICAL_SURFACE('',#457,4.2625,45.);
#33=CONICAL_SURFACE('',#461,4.2625,45.);
#34=CONICAL_SURFACE('',#465,4.63125,45.);
#35=CONICAL_SURFACE('',#468,4.4175,3.148096099563);
#36=SURFACE_STYLE_USAGE(.BOTH.,#38);
#37=SURFACE_STYLE_USAGE(.BOTH.,#39);
#38=SURFACE_SIDE_STYLE('',(#40));
#39=SURFACE_SIDE_STYLE('',(#41));
#40=SURFACE_STYLE_FILL_AREA(#42);
#41=SURFACE_STYLE_FILL_AREA(#43);
#42=FILL_AREA_STYLE('',(#44));
#43=FILL_AREA_STYLE('',(#45));
#44=FILL_AREA_STYLE_COLOUR('',#411);
#45=FILL_AREA_STYLE_COLOUR('',#412);
#46=MANIFOLD_SOLID_BREP('',#48);
#47=MANIFOLD_SOLID_BREP('',#49);
#48=CLOSED_SHELL('',(#61,#62,#63,#64,#65));
#49=CLOSED_SHELL('',(#66,#67,#68,#69,#70,#71,#72,#73,#74,#75,#76,#77,#78,
#79,#80,#81));
#50=PLANE('',#435);
#51=PLANE('',#443);
#52=PLANE('',#459);
#53=CYLINDRICAL_SURFACE('',#431,4.7625);
#54=CYLINDRICAL_SURFACE('',#434,4.7625);
#55=CYLINDRICAL_SURFACE('',#445,4.335);
#56=CYLINDRICAL_SURFACE('',#447,4.335);
#57=CYLINDRICAL_SURFACE('',#451,4.5);
#58=CYLINDRICAL_SURFACE('',#455,4.7625);
#59=CYLINDRICAL_SURFACE('',#463,4.7625);
#60=CYLINDRICAL_SURFACE('',#467,4.5);
#61=ADVANCED_FACE('',(#84),#82,.T.);
#62=ADVANCED_FACE('',(#85),#53,.T.);
#63=ADVANCED_FACE('',(#86),#54,.T.);
#64=ADVANCED_FACE('',(#87),#50,.F.);
#65=ADVANCED_FACE('',(#88),#83,.T.);
#66=ADVANCED_FACE('',(#89),#28,.T.);
#67=ADVANCED_FACE('',(#90),#29,.T.);
#68=ADVANCED_FACE('',(#91),#51,.F.);
#69=ADVANCED_FACE('',(#92),#55,.T.);
#70=ADVANCED_FACE('',(#93),#56,.T.);
#71=ADVANCED_FACE('',(#94),#30,.T.);
#72=ADVANCED_FACE('',(#95),#57,.T.);
#73=ADVANCED_FACE('',(#96),#31,.T.);
#74=ADVANCED_FACE('',(#97),#58,.T.);
#75=ADVANCED_FACE('',(#98),#32,.T.);
#76=ADVANCED_FACE('',(#99),#52,.F.);
#77=ADVANCED_FACE('',(#100),#33,.T.);
#78=ADVANCED_FACE('',(#101),#59,.T.);
#79=ADVANCED_FACE('',(#102),#34,.T.);
#80=ADVANCED_FACE('',(#103),#60,.T.);
#81=ADVANCED_FACE('',(#104),#35,.T.);
#82=SPHERICAL_SURFACE('',#429,4.7625);
#83=SPHERICAL_SURFACE('',#436,4.7625);
#84=FACE_OUTER_BOUND('',#105,.T.);
#85=FACE_OUTER_BOUND('',#106,.T.);
#86=FACE_OUTER_BOUND('',#107,.T.);
#87=FACE_OUTER_BOUND('',#108,.T.);
#88=FACE_OUTER_BOUND('',#109,.T.);
#89=FACE_OUTER_BOUND('',#110,.T.);
#90=FACE_OUTER_BOUND('',#111,.T.);
#91=FACE_OUTER_BOUND('',#112,.T.);
#92=FACE_OUTER_BOUND('',#113,.T.);
#93=FACE_OUTER_BOUND('',#114,.T.);
#94=FACE_OUTER_BOUND('',#115,.T.);
#95=FACE_OUTER_BOUND('',#116,.T.);
#96=FACE_OUTER_BOUND('',#117,.T.);
#97=FACE_OUTER_BOUND('',#118,.T.);
#98=FACE_OUTER_BOUND('',#119,.T.);
#99=FACE_OUTER_BOUND('',#120,.T.);
#100=FACE_OUTER_BOUND('',#121,.T.);
#101=FACE_OUTER_BOUND('',#122,.T.);
#102=FACE_OUTER_BOUND('',#123,.T.);
#103=FACE_OUTER_BOUND('',#124,.T.);
#104=FACE_OUTER_BOUND('',#125,.T.);
#105=EDGE_LOOP('',(#126,#127,#128));
#106=EDGE_LOOP('',(#129,#130,#131,#132));
#107=EDGE_LOOP('',(#133,#134,#135,#136));
#108=EDGE_LOOP('',(#137,#138));
#109=EDGE_LOOP('',(#139,#140,#141));
#110=EDGE_LOOP('',(#142,#143,#144,#145));
#111=EDGE_LOOP('',(#146,#147,#148,#149));
#112=EDGE_LOOP('',(#150,#151));
#113=EDGE_LOOP('',(#152,#153,#154,#155));
#114=EDGE_LOOP('',(#156,#157,#158,#159));
#115=EDGE_LOOP('',(#160,#161,#162,#163));
#116=EDGE_LOOP('',(#164,#165,#166,#167));
#117=EDGE_LOOP('',(#168,#169,#170,#171));
#118=EDGE_LOOP('',(#172,#173,#174,#175));
#119=EDGE_LOOP('',(#176,#177,#178,#179));
#120=EDGE_LOOP('',(#180,#181));
#121=EDGE_LOOP('',(#182,#183,#184,#185));
#122=EDGE_LOOP('',(#186,#187,#188,#189));
#123=EDGE_LOOP('',(#190,#191,#192,#193));
#124=EDGE_LOOP('',(#194,#195,#196,#197));
#125=EDGE_LOOP('',(#198,#199,#200,#201));
#126=ORIENTED_EDGE('',*,*,#223,.T.);
#127=ORIENTED_EDGE('',*,*,#224,.F.);
#128=ORIENTED_EDGE('',*,*,#225,.T.);
#129=ORIENTED_EDGE('',*,*,#225,.F.);
#130=ORIENTED_EDGE('',*,*,#226,.F.);
#131=ORIENTED_EDGE('',*,*,#227,.F.);
#132=ORIENTED_EDGE('',*,*,#228,.T.);
#133=ORIENTED_EDGE('',*,*,#229,.F.);
#134=ORIENTED_EDGE('',*,*,#228,.F.);
#135=ORIENTED_EDGE('',*,*,#230,.F.);
#136=ORIENTED_EDGE('',*,*,#226,.T.);
#137=ORIENTED_EDGE('',*,*,#227,.T.);
#138=ORIENTED_EDGE('',*,*,#230,.T.);
#139=ORIENTED_EDGE('',*,*,#229,.T.);
#140=ORIENTED_EDGE('',*,*,#224,.T.);
#141=ORIENTED_EDGE('',*,*,#223,.F.);
#142=ORIENTED_EDGE('',*,*,#231,.T.);
#143=ORIENTED_EDGE('',*,*,#232,.T.);
#144=ORIENTED_EDGE('',*,*,#233,.F.);
#145=ORIENTED_EDGE('',*,*,#234,.F.);
#146=ORIENTED_EDGE('',*,*,#235,.T.);
#147=ORIENTED_EDGE('',*,*,#234,.T.);
#148=ORIENTED_EDGE('',*,*,#236,.F.);
#149=ORIENTED_EDGE('',*,*,#232,.F.);
#150=ORIENTED_EDGE('',*,*,#233,.T.);
#151=ORIENTED_EDGE('',*,*,#236,.T.);
#152=ORIENTED_EDGE('',*,*,#237,.T.);
#153=ORIENTED_EDGE('',*,*,#238,.F.);
#154=ORIENTED_EDGE('',*,*,#239,.F.);
#155=ORIENTED_EDGE('',*,*,#235,.F.);
#156=ORIENTED_EDGE('',*,*,#237,.F.);
#157=ORIENTED_EDGE('',*,*,#231,.F.);
#158=ORIENTED_EDGE('',*,*,#239,.T.);
#159=ORIENTED_EDGE('',*,*,#240,.F.);
#160=ORIENTED_EDGE('',*,*,#241,.T.);
#161=ORIENTED_EDGE('',*,*,#240,.T.);
#162=ORIENTED_EDGE('',*,*,#242,.F.);
#163=ORIENTED_EDGE('',*,*,#243,.T.);
#164=ORIENTED_EDGE('',*,*,#244,.T.);
#165=ORIENTED_EDGE('',*,*,#243,.F.);
#166=ORIENTED_EDGE('',*,*,#245,.F.);
#167=ORIENTED_EDGE('',*,*,#246,.F.);
#168=ORIENTED_EDGE('',*,*,#247,.T.);
#169=ORIENTED_EDGE('',*,*,#246,.T.);
#170=ORIENTED_EDGE('',*,*,#248,.F.);
#171=ORIENTED_EDGE('',*,*,#249,.T.);
#172=ORIENTED_EDGE('',*,*,#250,.T.);
#173=ORIENTED_EDGE('',*,*,#249,.F.);
#174=ORIENTED_EDGE('',*,*,#251,.F.);
#175=ORIENTED_EDGE('',*,*,#252,.F.);
#176=ORIENTED_EDGE('',*,*,#253,.T.);
#177=ORIENTED_EDGE('',*,*,#252,.T.);
#178=ORIENTED_EDGE('',*,*,#254,.F.);
#179=ORIENTED_EDGE('',*,*,#255,.F.);
#180=ORIENTED_EDGE('',*,*,#256,.T.);
#181=ORIENTED_EDGE('',*,*,#255,.T.);
#182=ORIENTED_EDGE('',*,*,#253,.F.);
#183=ORIENTED_EDGE('',*,*,#256,.F.);
#184=ORIENTED_EDGE('',*,*,#254,.T.);
#185=ORIENTED_EDGE('',*,*,#257,.T.);
#186=ORIENTED_EDGE('',*,*,#250,.F.);
#187=ORIENTED_EDGE('',*,*,#257,.F.);
#188=ORIENTED_EDGE('',*,*,#251,.T.);
#189=ORIENTED_EDGE('',*,*,#258,.F.);
#190=ORIENTED_EDGE('',*,*,#247,.F.);
#191=ORIENTED_EDGE('',*,*,#258,.T.);
#192=ORIENTED_EDGE('',*,*,#248,.T.);
#193=ORIENTED_EDGE('',*,*,#259,.T.);
#194=ORIENTED_EDGE('',*,*,#244,.F.);
#195=ORIENTED_EDGE('',*,*,#259,.F.);
#196=ORIENTED_EDGE('',*,*,#245,.T.);
#197=ORIENTED_EDGE('',*,*,#260,.F.);
#198=ORIENTED_EDGE('',*,*,#241,.F.);
#199=ORIENTED_EDGE('',*,*,#260,.T.);
#200=ORIENTED_EDGE('',*,*,#242,.T.);
#201=ORIENTED_EDGE('',*,*,#238,.T.);
#202=VERTEX_POINT('',#620);
#203=VERTEX_POINT('',#621);
#204=VERTEX_POINT('',#623);
#205=VERTEX_POINT('',#627);
#206=VERTEX_POINT('',#629);
#207=VERTEX_POINT('',#638);
#208=VERTEX_POINT('',#639);
#209=VERTEX_POINT('',#641);
#210=VERTEX_POINT('',#643);
#211=VERTEX_POINT('',#651);
#212=VERTEX_POINT('',#653);
#213=VERTEX_POINT('',#659);
#214=VERTEX_POINT('',#661);
#215=VERTEX_POINT('',#665);
#216=VERTEX_POINT('',#667);
#217=VERTEX_POINT('',#671);
#218=VERTEX_POINT('',#673);
#219=VERTEX_POINT('',#677);
#220=VERTEX_POINT('',#679);
#221=VERTEX_POINT('',#683);
#222=VERTEX_POINT('',#685);
#223=EDGE_CURVE('',#202,#203,#263,.T.);
#224=EDGE_CURVE('',#204,#203,#264,.T.);
#225=EDGE_CURVE('',#204,#202,#265,.T.);
#226=EDGE_CURVE('',#205,#204,#323,.T.);
#227=EDGE_CURVE('',#206,#205,#266,.T.);
#228=EDGE_CURVE('',#206,#202,#324,.T.);
#229=EDGE_CURVE('',#202,#204,#267,.T.);
#230=EDGE_CURVE('',#205,#206,#268,.T.);
#231=EDGE_CURVE('',#207,#208,#269,.T.);
#232=EDGE_CURVE('',#208,#209,#325,.T.);
#233=EDGE_CURVE('',#210,#209,#270,.T.);
#234=EDGE_CURVE('',#207,#210,#326,.T.);
#235=EDGE_CURVE('',#208,#207,#271,.T.);
#236=EDGE_CURVE('',#209,#210,#272,.T.);
#237=EDGE_CURVE('',#208,#211,#327,.T.);
#238=EDGE_CURVE('',#212,#211,#273,.T.);
#239=EDGE_CURVE('',#207,#212,#328,.T.);
#240=EDGE_CURVE('',#211,#212,#274,.T.);
#241=EDGE_CURVE('',#213,#211,#329,.T.);
#242=EDGE_CURVE('',#214,#212,#330,.T.);
#243=EDGE_CURVE('',#214,#213,#275,.T.);
#244=EDGE_CURVE('',#215,#213,#331,.T.);
#245=EDGE_CURVE('',#216,#214,#332,.T.);
#246=EDGE_CURVE('',#215,#216,#276,.T.);
#247=EDGE_CURVE('',#217,#215,#333,.T.);
#248=EDGE_CURVE('',#218,#216,#334,.T.);
#249=EDGE_CURVE('',#218,#217,#277,.T.);
#250=EDGE_CURVE('',#219,#217,#335,.T.);
#251=EDGE_CURVE('',#220,#218,#336,.T.);
#252=EDGE_CURVE('',#219,#220,#278,.T.);
#253=EDGE_CURVE('',#221,#219,#337,.T.);
#254=EDGE_CURVE('',#222,#220,#338,.T.);
#255=EDGE_CURVE('',#221,#222,#279,.T.);
#256=EDGE_CURVE('',#222,#221,#280,.T.);
#257=EDGE_CURVE('',#220,#219,#281,.T.);
#258=EDGE_CURVE('',#217,#218,#282,.T.);
#259=EDGE_CURVE('',#216,#215,#283,.T.);
#260=EDGE_CURVE('',#213,#214,#284,.T.);
#261=CIRCLE('',#414,4.7625);
#262=CIRCLE('',#415,4.7625);
#263=CIRCLE('',#426,4.7625);
#264=CIRCLE('',#427,4.7625);
#265=CIRCLE('',#428,4.7625);
#266=CIRCLE('',#430,4.7625);
#267=CIRCLE('',#432,4.7625);
#268=CIRCLE('',#433,4.7625);
#269=CIRCLE('',#437,4.335);
#270=CIRCLE('',#438,4.7625);
#271=CIRCLE('',#440,4.335);
#272=CIRCLE('',#441,4.7625);
#273=CIRCLE('',#444,4.335);
#274=CIRCLE('',#446,4.335);
#275=CIRCLE('',#448,4.5);
#276=CIRCLE('',#450,4.5);
#277=CIRCLE('',#452,4.7625);
#278=CIRCLE('',#454,4.7625);
#279=CIRCLE('',#456,3.7625);
#280=CIRCLE('',#458,3.7625);
#281=CIRCLE('',#460,4.7625);
#282=CIRCLE('',#462,4.7625);
#283=CIRCLE('',#464,4.5);
#284=CIRCLE('',#466,4.5);
#285=CURVE_STYLE('',#300,POSITIVE_LENGTH_MEASURE(0.18),#359);
#286=CURVE_STYLE('',#301,POSITIVE_LENGTH_MEASURE(0.18),#359);
#287=CURVE_STYLE('',#302,POSITIVE_LENGTH_MEASURE(0.18),#359);
#288=CURVE_STYLE('',#303,POSITIVE_LENGTH_MEASURE(0.18),#359);
#289=CURVE_STYLE('',#304,POSITIVE_LENGTH_MEASURE(0.18),#359);
#290=CURVE_STYLE('',#305,POSITIVE_LENGTH_MEASURE(0.13),#410);
#291=CURVE_STYLE('',#306,POSITIVE_LENGTH_MEASURE(0.13),#410);
#292=CURVE_STYLE('',#307,POSITIVE_LENGTH_MEASURE(0.13),#410);
#293=CURVE_STYLE('',#308,POSITIVE_LENGTH_MEASURE(0.13),#409);
#294=CURVE_STYLE('',#309,POSITIVE_LENGTH_MEASURE(0.13),#409);
#295=CURVE_STYLE('',#310,POSITIVE_LENGTH_MEASURE(0.13),#358);
#296=CURVE_STYLE('',#311,POSITIVE_LENGTH_MEASURE(0.13),#410);
#297=CURVE_STYLE('',#312,POSITIVE_LENGTH_MEASURE(0.13),#410);
#298=CURVE_STYLE('',#313,POSITIVE_LENGTH_MEASURE(0.13),#410);
#299=CURVE_STYLE('',#314,POSITIVE_LENGTH_MEASURE(0.13),#410);
#300=DRAUGHTING_PRE_DEFINED_CURVE_FONT('continuous');
#301=DRAUGHTING_PRE_DEFINED_CURVE_FONT('continuous');
#302=DRAUGHTING_PRE_DEFINED_CURVE_FONT('continuous');
#303=DRAUGHTING_PRE_DEFINED_CURVE_FONT('continuous');
#304=DRAUGHTING_PRE_DEFINED_CURVE_FONT('continuous');
#305=DRAUGHTING_PRE_DEFINED_CURVE_FONT('continuous');
#306=DRAUGHTING_PRE_DEFINED_CURVE_FONT('continuous');
#307=DRAUGHTING_PRE_DEFINED_CURVE_FONT('continuous');
#308=DRAUGHTING_PRE_DEFINED_CURVE_FONT('continuous');
#309=DRAUGHTING_PRE_DEFINED_CURVE_FONT('continuous');
#310=DRAUGHTING_PRE_DEFINED_CURVE_FONT('continuous');
#311=DRAUGHTING_PRE_DEFINED_CURVE_FONT('continuous');
#312=DRAUGHTING_PRE_DEFINED_CURVE_FONT('continuous');
#313=DRAUGHTING_PRE_DEFINED_CURVE_FONT('continuous');
#314=DRAUGHTING_PRE_DEFINED_CURVE_FONT('continuous');
#315=TRIMMED_CURVE('',#320,(PARAMETER_VALUE(0.)),(PARAMETER_VALUE(1.)),
 .T.,.PARAMETER.);
#316=TRIMMED_CURVE('',#321,(PARAMETER_VALUE(0.)),(PARAMETER_VALUE(1.)),
 .T.,.PARAMETER.);
#317=TRIMMED_CURVE('',#322,(PARAMETER_VALUE(0.)),(PARAMETER_VALUE(1.)),
 .T.,.PARAMETER.);
#318=TRIMMED_CURVE('',#261,(PARAMETER_VALUE(0.)),(PARAMETER_VALUE(90.)),
 .T.,.PARAMETER.);
#319=TRIMMED_CURVE('',#262,(PARAMETER_VALUE(0.)),(PARAMETER_VALUE(90.)),
 .T.,.PARAMETER.);
#320=LINE('',#604,#339);
#321=LINE('',#605,#340);
#322=LINE('',#606,#341);
#323=LINE('',#626,#342);
#324=LINE('',#630,#343);
#325=LINE('',#640,#344);
#326=LINE('',#644,#345);
#327=LINE('',#650,#346);
#328=LINE('',#654,#347);
#329=LINE('',#658,#348);
#330=LINE('',#660,#349);
#331=LINE('',#664,#350);
#332=LINE('',#666,#351);
#333=LINE('',#670,#352);
#334=LINE('',#672,#353);
#335=LINE('',#676,#354);
#336=LINE('',#678,#355);
#337=LINE('',#682,#356);
#338=LINE('',#684,#357);
#339=VECTOR('',#471,0.508499999999998);
#340=VECTOR('',#472,9.525);
#341=VECTOR('',#473,0.508499999999998);
#342=VECTOR('',#506,1.);
#343=VECTOR('',#509,1.);
#344=VECTOR('',#524,1.);
#345=VECTOR('',#527,1.);
#346=VECTOR('',#538,1.);
#347=VECTOR('',#541,1.);
#348=VECTOR('',#548,1.);
#349=VECTOR('',#549,1.);
#350=VECTOR('',#554,1.);
#351=VECTOR('',#555,1.);
#352=VECTOR('',#560,1.);
#353=VECTOR('',#561,1.);
#354=VECTOR('',#566,1.);
#355=VECTOR('',#567,1.);
#356=VECTOR('',#572,1.);
#357=VECTOR('',#573,1.);
#358=DRAUGHTING_PRE_DEFINED_COLOUR('yellow');
#359=DRAUGHTING_PRE_DEFINED_COLOUR('blue');
#360=PRESENTATION_LAYER_ASSIGNMENT('2','Layer 2',(#601,#602,#419,#420));
#361=PRESENTATION_LAYER_ASSIGNMENT('3','Layer 3',(#603,#421));
#362=PRESENTATION_LAYER_ASSIGNMENT('1','Layer 1',(#315,#316,#317,#318,#319,
#416,#417,#418,#422,#423,#424,#425,#46,#47));
#363=STYLED_ITEM('',(#383),#601);
#364=STYLED_ITEM('',(#384),#602);
#365=STYLED_ITEM('',(#385),#603);
#366=STYLED_ITEM('',(#386),#315);
#367=STYLED_ITEM('',(#387),#316);
#368=STYLED_ITEM('',(#388),#317);
#369=STYLED_ITEM('',(#389),#318);
#370=STYLED_ITEM('',(#390),#319);
#371=STYLED_ITEM('',(#391),#416);
#372=STYLED_ITEM('',(#392),#417);
#373=STYLED_ITEM('',(#393),#418);
#374=STYLED_ITEM('',(#394),#419);
#375=STYLED_ITEM('',(#395),#420);
#376=STYLED_ITEM('',(#396),#421);
#377=STYLED_ITEM('',(#397),#422);
#378=STYLED_ITEM('',(#398),#423);
#379=STYLED_ITEM('',(#399),#424);
#380=STYLED_ITEM('',(#400),#425);
#381=STYLED_ITEM('',(#401),#46);
#382=STYLED_ITEM('',(#402),#47);
#383=PRESENTATION_STYLE_ASSIGNMENT((#403));
#384=PRESENTATION_STYLE_ASSIGNMENT((#404));
#385=PRESENTATION_STYLE_ASSIGNMENT((#405));
#386=PRESENTATION_STYLE_ASSIGNMENT((#285));
#387=PRESENTATION_STYLE_ASSIGNMENT((#286));
#388=PRESENTATION_STYLE_ASSIGNMENT((#287));
#389=PRESENTATION_STYLE_ASSIGNMENT((#288));
#390=PRESENTATION_STYLE_ASSIGNMENT((#289));
#391=PRESENTATION_STYLE_ASSIGNMENT((#290));
#392=PRESENTATION_STYLE_ASSIGNMENT((#291));
#393=PRESENTATION_STYLE_ASSIGNMENT((#292));
#394=PRESENTATION_STYLE_ASSIGNMENT((#293));
#395=PRESENTATION_STYLE_ASSIGNMENT((#294));
#396=PRESENTATION_STYLE_ASSIGNMENT((#295));
#397=PRESENTATION_STYLE_ASSIGNMENT((#296));
#398=PRESENTATION_STYLE_ASSIGNMENT((#297));
#399=PRESENTATION_STYLE_ASSIGNMENT((#298));
#400=PRESENTATION_STYLE_ASSIGNMENT((#299));
#401=PRESENTATION_STYLE_ASSIGNMENT((#36));
#402=PRESENTATION_STYLE_ASSIGNMENT((#37));
#403=POINT_STYLE('',#406,POSITIVE_LENGTH_MEASURE(3.),#409);
#404=POINT_STYLE('',#407,POSITIVE_LENGTH_MEASURE(3.),#409);
#405=POINT_STYLE('',#408,POSITIVE_LENGTH_MEASURE(3.),#358);
#406=PRE_DEFINED_POINT_MARKER_SYMBOL('plus');
#407=PRE_DEFINED_POINT_MARKER_SYMBOL('plus');
#408=PRE_DEFINED_POINT_MARKER_SYMBOL('plus');
#409=COLOUR_RGB('Brown',0.6,0.4,0.2);
#410=COLOUR_RGB('Strong Stone',0.576470588235294,0.54508278019379,0.392156862745098);
#411=COLOUR_RGB('Light Gray',0.8,0.8,0.8);
#412=COLOUR_RGB('non-cutting part and shank',0.501960784313725,0.501960784313725,
0.501960784313725);
#413=AXIS2_PLACEMENT_3D('',#600,#469,#470);
#414=AXIS2_PLACEMENT_3D('',#607,#474,#475);
#415=AXIS2_PLACEMENT_3D('',#608,#476,#477);
#416=AXIS2_PLACEMENT_3D('',#609,#478,#479);
#417=AXIS2_PLACEMENT_3D('',#610,#480,#481);
#418=AXIS2_PLACEMENT_3D('',#611,#482,#483);
#419=AXIS2_PLACEMENT_3D('CIP',#612,#484,#485);
#420=AXIS2_PLACEMENT_3D('PCS',#613,#486,#487);
#421=AXIS2_PLACEMENT_3D('MCS',#614,#488,#489);
#422=AXIS2_PLACEMENT_3D('',#615,#490,#491);
#423=AXIS2_PLACEMENT_3D('',#616,#492,#493);
#424=AXIS2_PLACEMENT_3D('',#617,#494,#495);
#425=AXIS2_PLACEMENT_3D('',#618,#496,#497);
#426=AXIS2_PLACEMENT_3D('',#619,#498,#499);
#427=AXIS2_PLACEMENT_3D('',#622,#500,#501);
#428=AXIS2_PLACEMENT_3D('',#624,#502,#503);
#429=AXIS2_PLACEMENT_3D('',#625,#504,#505);
#430=AXIS2_PLACEMENT_3D('',#628,#507,#508);
#431=AXIS2_PLACEMENT_3D('',#631,#510,#511);
#432=AXIS2_PLACEMENT_3D('',#632,#512,#513);
#433=AXIS2_PLACEMENT_3D('',#633,#514,#515);
#434=AXIS2_PLACEMENT_3D('',#634,#516,#517);
#435=AXIS2_PLACEMENT_3D('',#635,#518,#519);
#436=AXIS2_PLACEMENT_3D('',#636,#520,#521);
#437=AXIS2_PLACEMENT_3D('',#637,#522,#523);
#438=AXIS2_PLACEMENT_3D('',#642,#525,#526);
#439=AXIS2_PLACEMENT_3D('',#645,#528,#529);
#440=AXIS2_PLACEMENT_3D('',#646,#530,#531);
#441=AXIS2_PLACEMENT_3D('',#647,#532,#533);
#442=AXIS2_PLACEMENT_3D('',#648,#534,#535);
#443=AXIS2_PLACEMENT_3D('',#649,#536,#537);
#444=AXIS2_PLACEMENT_3D('',#652,#539,#540);
#445=AXIS2_PLACEMENT_3D('',#655,#542,#543);
#446=AXIS2_PLACEMENT_3D('',#656,#544,#545);
#447=AXIS2_PLACEMENT_3D('',#657,#546,#547);
#448=AXIS2_PLACEMENT_3D('',#662,#550,#551);
#449=AXIS2_PLACEMENT_3D('',#663,#552,#553);
#450=AXIS2_PLACEMENT_3D('',#668,#556,#557);
#451=AXIS2_PLACEMENT_3D('',#669,#558,#559);
#452=AXIS2_PLACEMENT_3D('',#674,#562,#563);
#453=AXIS2_PLACEMENT_3D('',#675,#564,#565);
#454=AXIS2_PLACEMENT_3D('',#680,#568,#569);
#455=AXIS2_PLACEMENT_3D('',#681,#570,#571);
#456=AXIS2_PLACEMENT_3D('',#686,#574,#575);
#457=AXIS2_PLACEMENT_3D('',#687,#576,#577);
#458=AXIS2_PLACEMENT_3D('',#688,#578,#579);
#459=AXIS2_PLACEMENT_3D('',#689,#580,#581);
#460=AXIS2_PLACEMENT_3D('',#690,#582,#583);
#461=AXIS2_PLACEMENT_3D('',#691,#584,#585);
#462=AXIS2_PLACEMENT_3D('',#692,#586,#587);
#463=AXIS2_PLACEMENT_3D('',#693,#588,#589);
#464=AXIS2_PLACEMENT_3D('',#694,#590,#591);
#465=AXIS2_PLACEMENT_3D('',#695,#592,#593);
#466=AXIS2_PLACEMENT_3D('',#696,#594,#595);
#467=AXIS2_PLACEMENT_3D('',#697,#596,#597);
#468=AXIS2_PLACEMENT_3D('',#698,#598,#599);
#469=DIRECTION('',(0.,0.,1.));
#470=DIRECTION('',(1.,0.,0.));
#471=DIRECTION('',(0.,0.,1.));
#472=DIRECTION('',(1.,0.,0.));
#473=DIRECTION('',(0.,0.,-1.));
#474=DIRECTION('',(0.,1.,0.));
#475=DIRECTION('',(1.,0.,0.));
#476=DIRECTION('',(0.,1.,0.));
#477=DIRECTION('',(0.,0.,-1.));
#478=DIRECTION('',(0.,0.,1.));
#479=DIRECTION('',(1.,0.,0.));
#480=DIRECTION('',(0.,0.,1.));
#481=DIRECTION('',(1.,0.,0.));
#482=DIRECTION('',(0.,0.,1.));
#483=DIRECTION('',(1.,0.,0.));
#484=DIRECTION('',(0.,0.,1.));
#485=DIRECTION('',(1.,0.,0.));
#486=DIRECTION('',(0.,0.,1.));
#487=DIRECTION('',(1.,0.,0.));
#488=DIRECTION('',(0.,0.,1.));
#489=DIRECTION('',(1.,0.,0.));
#490=DIRECTION('',(0.,0.,1.));
#491=DIRECTION('',(1.,0.,0.));
#492=DIRECTION('',(0.,0.,1.));
#493=DIRECTION('',(1.,0.,0.));
#494=DIRECTION('',(0.,0.,1.));
#495=DIRECTION('',(1.,0.,0.));
#496=DIRECTION('',(0.,0.,1.));
#497=DIRECTION('',(1.,0.,0.));
#498=DIRECTION('',(1.,0.,0.));
#499=DIRECTION('',(0.,0.,-1.));
#500=DIRECTION('',(-1.,0.,0.));
#501=DIRECTION('',(0.,0.,-1.));
#502=DIRECTION('',(0.,0.,-1.));
#503=DIRECTION('',(0.,1.,0.));
#504=DIRECTION('',(0.,-6.12323399573677E-17,-1.));
#505=DIRECTION('',(0.,-1.,0.));
#506=DIRECTION('',(0.,0.,-1.));
#507=DIRECTION('',(0.,0.,1.));
#508=DIRECTION('',(0.,-1.,0.));
#509=DIRECTION('',(-1.001578067928E-14,0.,-1.));
#510=DIRECTION('',(0.,0.,-1.));
#511=DIRECTION('',(0.,-1.,0.));
#512=DIRECTION('',(0.,0.,-1.));
#513=DIRECTION('',(0.,-1.,0.));
#514=DIRECTION('',(0.,0.,1.));
#515=DIRECTION('',(0.,1.,0.));
#516=DIRECTION('',(0.,0.,-1.));
#517=DIRECTION('',(0.,-1.,0.));
#518=DIRECTION('',(0.,0.,-1.));
#519=DIRECTION('',(-1.,0.,0.));
#520=DIRECTION('',(0.,-6.12323399573677E-17,-1.));
#521=DIRECTION('',(0.,-1.,0.));
#522=DIRECTION('',(0.,0.,-1.));
#523=DIRECTION('',(0.,1.,0.));
#524=DIRECTION('',(0.,-0.173648177666902,-0.984807753012213));
#525=DIRECTION('',(0.,0.,-1.));
#526=DIRECTION('',(0.,1.,0.));
#527=DIRECTION('',(0.,0.173648177666902,-0.984807753012213));
#528=DIRECTION('',(0.,0.,-1.));
#529=DIRECTION('',(0.,-1.,-6.13804306568144E-16));
#530=DIRECTION('',(0.,0.,-1.));
#531=DIRECTION('',(0.,-1.,0.));
#532=DIRECTION('',(0.,0.,-1.));
#533=DIRECTION('',(0.,-1.,0.));
#534=DIRECTION('',(0.,0.,-1.));
#535=DIRECTION('',(0.,-1.,-6.13804306568144E-16));
#536=DIRECTION('',(0.,0.,1.));
#537=DIRECTION('',(1.,0.,0.));
#538=DIRECTION('',(0.,-2.466598061787E-14,1.));
#539=DIRECTION('',(0.,0.,1.));
#540=DIRECTION('',(0.,1.,0.));
#541=DIRECTION('',(0.,2.466598061787E-14,1.));
#542=DIRECTION('',(0.,0.,-1.));
#543=DIRECTION('',(0.,-1.,0.));
#544=DIRECTION('',(0.,0.,1.));
#545=DIRECTION('',(0.,-1.,0.));
#546=DIRECTION('',(0.,0.,-1.));
#547=DIRECTION('',(0.,-1.,0.));
#548=DIRECTION('',(0.,0.0549170007571405,-0.998490922857008));
#549=DIRECTION('',(0.,-0.0549170007571405,-0.998490922857008));
#550=DIRECTION('',(0.,0.,-1.));
#551=DIRECTION('',(0.,1.,0.));
#552=DIRECTION('',(0.,0.,1.));
#553=DIRECTION('',(0.,1.,7.00691941320998E-16));
#554=DIRECTION('',(0.,0.,-1.));
#555=DIRECTION('',(0.,0.,-1.));
#556=DIRECTION('',(0.,0.,1.));
#557=DIRECTION('',(0.,-1.,0.));
#558=DIRECTION('',(0.,0.,-1.));
#559=DIRECTION('',(0.,-1.,0.));
#560=DIRECTION('',(0.,0.707106781186598,-0.707106781186498));
#561=DIRECTION('',(0.,-0.707106781186598,-0.707106781186498));
#562=DIRECTION('',(0.,0.,-1.));
#563=DIRECTION('',(0.,1.,0.));
#564=DIRECTION('',(0.,0.,1.));
#565=DIRECTION('',(0.,1.,1.38138125882651E-17));
#566=DIRECTION('',(0.,0.,-1.));
#567=DIRECTION('',(0.,0.,-1.));
#568=DIRECTION('',(0.,0.,1.));
#569=DIRECTION('',(0.,-1.,0.));
#570=DIRECTION('',(0.,0.,-1.));
#571=DIRECTION('',(0.,-1.,0.));
#572=DIRECTION('',(0.,-0.707106781186547,-0.707106781186547));
#573=DIRECTION('',(0.,0.707106781186547,-0.707106781186547));
#574=DIRECTION('',(0.,0.,1.));
#575=DIRECTION('',(0.,-1.,0.));
#576=DIRECTION('',(0.,0.,-1.));
#577=DIRECTION('',(0.,-1.,5.48436990948717E-17));
#578=DIRECTION('',(0.,0.,1.));
#579=DIRECTION('',(0.,1.,0.));
#580=DIRECTION('',(0.,0.,-1.));
#581=DIRECTION('',(0.,-1.,0.));
#582=DIRECTION('',(0.,0.,1.));
#583=DIRECTION('',(0.,1.,0.));
#584=DIRECTION('',(0.,0.,-1.));
#585=DIRECTION('',(0.,-1.,5.48436990948717E-17));
#586=DIRECTION('',(0.,0.,-1.));
#587=DIRECTION('',(0.,-1.,0.));
#588=DIRECTION('',(0.,0.,-1.));
#589=DIRECTION('',(0.,-1.,0.));
#590=DIRECTION('',(0.,0.,1.));
#591=DIRECTION('',(0.,1.,0.));
#592=DIRECTION('',(0.,0.,1.));
#593=DIRECTION('',(0.,1.,1.38138125882651E-17));
#594=DIRECTION('',(0.,0.,-1.));
#595=DIRECTION('',(0.,-1.,0.));
#596=DIRECTION('',(0.,0.,-1.));
#597=DIRECTION('',(0.,-1.,0.));
#598=DIRECTION('',(0.,0.,1.));
#599=DIRECTION('',(0.,1.,7.00691941320998E-16));
#600=CARTESIAN_POINT('',(0.,0.,0.));
#601=CARTESIAN_POINT('',(0.,0.,-111.125));
#602=CARTESIAN_POINT('',(0.,0.,0.));
#603=CARTESIAN_POINT('',(0.,0.,-69.85));
#604=CARTESIAN_POINT('',(-4.7625,0.,-106.3625));
#605=CARTESIAN_POINT('',(-4.7625,0.,-105.854));
#606=CARTESIAN_POINT('',(4.7625,0.,-105.854));
#607=CARTESIAN_POINT('',(0.,0.,-106.3625));
#608=CARTESIAN_POINT('',(0.,0.,-106.3625));
#609=CARTESIAN_POINT('',(0.,0.,0.));
#610=CARTESIAN_POINT('',(0.,0.,0.));
#611=CARTESIAN_POINT('',(0.,0.,0.));
#612=CARTESIAN_POINT('',(0.,0.,-111.125));
#613=CARTESIAN_POINT('',(0.,0.,0.));
#614=CARTESIAN_POINT('',(0.,0.,-69.85));
#615=CARTESIAN_POINT('',(0.,0.,0.));
#616=CARTESIAN_POINT('',(0.,0.,0.));
#617=CARTESIAN_POINT('',(0.,0.,0.));
#618=CARTESIAN_POINT('',(0.,0.,0.));
#619=CARTESIAN_POINT('',(0.,0.,-106.3625));
#620=CARTESIAN_POINT('',(0.,-4.7625,-106.3625));
#621=CARTESIAN_POINT('',(0.,0.,-111.125));
#622=CARTESIAN_POINT('',(0.,0.,-106.3625));
#623=CARTESIAN_POINT('',(0.,4.7625,-106.3625));
#624=CARTESIAN_POINT('',(0.,0.,-106.3625));
#625=CARTESIAN_POINT('',(0.,0.,-106.3625));
#626=CARTESIAN_POINT('',(0.,4.7625,-105.854));
#627=CARTESIAN_POINT('',(0.,4.7625,-105.854));
#628=CARTESIAN_POINT('',(0.,0.,-105.854));
#629=CARTESIAN_POINT('',(0.,-4.7625,-105.854));
#630=CARTESIAN_POINT('',(0.,-4.7625,-105.854));
#631=CARTESIAN_POINT('',(0.,0.,5.55625));
#632=CARTESIAN_POINT('',(0.,0.,-106.3625));
#633=CARTESIAN_POINT('',(0.,0.,-105.854));
#634=CARTESIAN_POINT('',(0.,0.,5.55625));
#635=CARTESIAN_POINT('',(150.,150.,-105.854));
#636=CARTESIAN_POINT('',(0.,0.,-106.3625));
#637=CARTESIAN_POINT('',(0.,0.,-103.4295270221));
#638=CARTESIAN_POINT('',(0.,4.335,-103.4295270221));
#639=CARTESIAN_POINT('',(0.,-4.335,-103.4295270221));
#640=CARTESIAN_POINT('',(0.,-4.7625,-105.854));
#641=CARTESIAN_POINT('',(0.,-4.7625,-105.854));
#642=CARTESIAN_POINT('',(0.,0.,-105.854));
#643=CARTESIAN_POINT('',(0.,4.7625,-105.854));
#644=CARTESIAN_POINT('',(0.,4.7625,-105.854));
#645=CARTESIAN_POINT('',(0.,0.,-104.6417635111));
#646=CARTESIAN_POINT('',(0.,0.,-103.4295270221));
#647=CARTESIAN_POINT('',(0.,0.,-105.854));
#648=CARTESIAN_POINT('',(0.,0.,-104.6417635111));
#649=CARTESIAN_POINT('',(-150.,150.,-105.854));
#650=CARTESIAN_POINT('',(0.,-4.335,-101.125));
#651=CARTESIAN_POINT('',(0.,-4.335,-101.125));
#652=CARTESIAN_POINT('',(0.,0.,-101.125));
#653=CARTESIAN_POINT('',(0.,4.335,-101.125));
#654=CARTESIAN_POINT('',(0.,4.335,-101.125));
#655=CARTESIAN_POINT('',(0.,0.,5.55625));
#656=CARTESIAN_POINT('',(0.,0.,-101.125));
#657=CARTESIAN_POINT('',(0.,0.,5.55625));
#658=CARTESIAN_POINT('',(0.,-4.335,-101.125));
#659=CARTESIAN_POINT('',(0.,-4.5,-98.125));
#660=CARTESIAN_POINT('',(0.,4.335,-101.125));
#661=CARTESIAN_POINT('',(0.,4.5,-98.125));
#662=CARTESIAN_POINT('',(0.,0.,-98.125));
#663=CARTESIAN_POINT('',(0.,0.,-99.625));
#664=CARTESIAN_POINT('',(0.,-4.5,-70.1125));
#665=CARTESIAN_POINT('',(0.,-4.5,-70.1125));
#666=CARTESIAN_POINT('',(0.,4.5,-70.1125));
#667=CARTESIAN_POINT('',(0.,4.5,-70.1125));
#668=CARTESIAN_POINT('',(0.,0.,-70.1125));
#669=CARTESIAN_POINT('',(0.,0.,5.55625));
#670=CARTESIAN_POINT('',(0.,-4.5,-70.1125));
#671=CARTESIAN_POINT('',(0.,-4.7625,-69.85));
#672=CARTESIAN_POINT('',(0.,4.5,-70.1125));
#673=CARTESIAN_POINT('',(0.,4.7625,-69.85));
#674=CARTESIAN_POINT('',(0.,0.,-69.85));
#675=CARTESIAN_POINT('',(0.,0.,-69.98125));
#676=CARTESIAN_POINT('',(0.,-4.7625,-1.));
#677=CARTESIAN_POINT('',(0.,-4.7625,-1.));
#678=CARTESIAN_POINT('',(0.,4.7625,-1.));
#679=CARTESIAN_POINT('',(0.,4.7625,-1.));
#680=CARTESIAN_POINT('',(0.,0.,-1.));
#681=CARTESIAN_POINT('',(0.,0.,5.55625));
#682=CARTESIAN_POINT('',(0.,-4.7625,-1.));
#683=CARTESIAN_POINT('',(0.,-3.7625,1.06581410364E-14));
#684=CARTESIAN_POINT('',(0.,4.7625,-1.));
#685=CARTESIAN_POINT('',(0.,3.7625,1.06581410364E-14));
#686=CARTESIAN_POINT('',(0.,0.,1.06581410364E-14));
#687=CARTESIAN_POINT('',(0.,0.,-0.5));
#688=CARTESIAN_POINT('',(0.,0.,1.06581410364E-14));
#689=CARTESIAN_POINT('',(0.,0.,0.));
#690=CARTESIAN_POINT('',(0.,0.,-1.));
#691=CARTESIAN_POINT('',(0.,0.,-0.5));
#692=CARTESIAN_POINT('',(0.,0.,-69.85));
#693=CARTESIAN_POINT('',(0.,0.,5.55625));
#694=CARTESIAN_POINT('',(0.,0.,-70.1125));
#695=CARTESIAN_POINT('',(0.,0.,-69.98125));
#696=CARTESIAN_POINT('',(0.,0.,-98.125));
#697=CARTESIAN_POINT('',(0.,0.,5.55625));
#698=CARTESIAN_POINT('',(0.,0.,-99.625));
#699=MECHANICAL_DESIGN_GEOMETRIC_PRESENTATION_REPRESENTATION('',(#363,#364,
#365,#366,#367,#368,#369,#370,#371,#372,#373,#374,#375,#376,#377,#378,#379,
#380,#381,#382),#700);
#700=(
GEOMETRIC_REPRESENTATION_CONTEXT(3)
GLOBAL_UNCERTAINTY_ASSIGNED_CONTEXT((#701))
GLOBAL_UNIT_ASSIGNED_CONTEXT((#707,#703,#702))
REPRESENTATION_CONTEXT('SRFU06S06MW_IR0_1875','TOP_LEVEL_ASSEMBLY_PART')
);
#701=UNCERTAINTY_MEASURE_WITH_UNIT(LENGTH_MEASURE(2.E-5),#707,
'DISTANCE_ACCURACY_VALUE','Maximum Tolerance applied to model');
#702=(
NAMED_UNIT(*)
SI_UNIT($,.STERADIAN.)
SOLID_ANGLE_UNIT()
);
#703=(
CONVERSION_BASED_UNIT('DEGREE',#705)
NAMED_UNIT(#704)
PLANE_ANGLE_UNIT()
);
#704=DIMENSIONAL_EXPONENTS(0.,0.,0.,0.,0.,0.,0.);
#705=PLANE_ANGLE_MEASURE_WITH_UNIT(PLANE_ANGLE_MEASURE(0.0174532925),#706);
#706=(
NAMED_UNIT(*)
PLANE_ANGLE_UNIT()
SI_UNIT($,.RADIAN.)
);
#707=(
LENGTH_UNIT()
NAMED_UNIT(*)
SI_UNIT(.MILLI.,.METRE.)
);
ENDSEC;
END-ISO-10303-21;
