ISO-10303-21;
HEADER;
/* Generated by software containing ST-Developer
 * from STEP Tools, Inc. (www.steptools.com) 
 */
/* OPTION: using custom schema-name function */

FILE_DESCRIPTION(
/* description */ (''),
/* implementation_level */ '2;1');

FILE_NAME(
/* name */ 'AQXUR112SA10L_IR0_031.stp',
/* time_stamp */ '2021-09-08T11:42:27+09:00',
/* author */ (''),
/* organization */ (''),
/* preprocessor_version */ 'ST-DEVELOPER v16',
/* originating_system */ 'SIEMENS PLM Software NX 10.0',
/* authorisation */ '');

FILE_SCHEMA (('AUTOMOTIVE_DESIGN { 1 0 10303 214 3 1 1 1 }'));
ENDSEC;

DATA;
#10=CONSTRUCTIVE_GEOMETRY_REPRESENTATION_RELATIONSHIP(
'supplemental geometry','',#26,#11);
#11=CONSTRUCTIVE_GEOMETRY_REPRESENTATION('supplemental geometry',(#400,
#401,#402,#403,#404,#405,#406,#407,#408,#409),#682);
#12=GEOMETRICALLY_BOUNDED_WIREFRAME_SHAPE_REPRESENTATION(
'AQXUR112SA10L_IR0_031-None',(#27),#682);
#13=SHAPE_REPRESENTATION_RELATIONSHIP('None',
'relationship between AQXUR112SA10L_IR0_031-None and AQXUR112SA10L_IR0
_031-None',#26,#15);
#14=SHAPE_REPRESENTATION_RELATIONSHIP('None',
'relationship between AQXUR112SA10L_IR0_031-None and AQXUR112SA10L_IR0
_031-None',#26,#12);
#15=ADVANCED_BREP_SHAPE_REPRESENTATION('AQXUR112SA10L_IR0_031-None',(#38,
#39),#682);
#16=SHAPE_DEFINITION_REPRESENTATION(#17,#26);
#17=PRODUCT_DEFINITION_SHAPE('','SHAPE FOR AQXUR112SA10L_IR0_031_ASM.',
#18);
#18=PRODUCT_DEFINITION('part definition','',#20,#19);
#19=PRODUCT_DEFINITION_CONTEXT('part definition',#25,'design');
#20=PRODUCT_DEFINITION_FORMATION_WITH_SPECIFIED_SOURCE(' ',' ',#22,
 .NOT_KNOWN.);
#21=PRODUCT_RELATED_PRODUCT_CATEGORY('part','',(#22));
#22=PRODUCT('AQXUR112SA10L_IR0_031_ASM','AQXUR112SA10L_IR0_031_ASM',
'NOT SPECIFIED',(#23));
#23=PRODUCT_CONTEXT('',#25,'mechanical');
#24=APPLICATION_PROTOCOL_DEFINITION('international standard',
'automotive_design',2010,#25);
#25=APPLICATION_CONTEXT(
'core data for automotive mechanical design processes');
#26=SHAPE_REPRESENTATION('AQXUR112SA10L_IR0_031-None',(#397),#682);
#27=GEOMETRIC_CURVE_SET('None',(#586,#587,#588,#307,#308,#309,#310,#311,
#312));
#28=SURFACE_STYLE_USAGE(.BOTH.,#30);
#29=SURFACE_STYLE_USAGE(.BOTH.,#31);
#30=SURFACE_SIDE_STYLE('',(#32));
#31=SURFACE_SIDE_STYLE('',(#33));
#32=SURFACE_STYLE_FILL_AREA(#34);
#33=SURFACE_STYLE_FILL_AREA(#35);
#34=FILL_AREA_STYLE('',(#36));
#35=FILL_AREA_STYLE('',(#37));
#36=FILL_AREA_STYLE_COLOUR('',#395);
#37=FILL_AREA_STYLE_COLOUR('',#396);
#38=MANIFOLD_SOLID_BREP('CUT',#40);
#39=MANIFOLD_SOLID_BREP('NOCUT',#41);
#40=CLOSED_SHELL('',(#57,#58,#59,#60,#61,#62,#63,#64,#65));
#41=CLOSED_SHELL('',(#66,#67,#68,#69,#70,#71,#72,#73,#74,#75));
#42=PLANE('',#423);
#43=PLANE('',#437);
#44=PLANE('',#454);
#45=CYLINDRICAL_SURFACE('',#417,8.533);
#46=CYLINDRICAL_SURFACE('',#427,8.533);
#47=CYLINDRICAL_SURFACE('',#433,7.83);
#48=CYLINDRICAL_SURFACE('',#436,7.83);
#49=CYLINDRICAL_SURFACE('',#446,7.9375);
#50=CYLINDRICAL_SURFACE('',#449,7.9375);
#51=TOROIDAL_SURFACE('',#415,7.733,0.8);
#52=TOROIDAL_SURFACE('',#421,7.933,0.6);
#53=TOROIDAL_SURFACE('',#425,7.933,0.6);
#54=TOROIDAL_SURFACE('',#429,7.733,0.8);
#55=TOROIDAL_SURFACE('',#441,8.23,0.4);
#56=TOROIDAL_SURFACE('',#443,8.23,0.4);
#57=ADVANCED_FACE('',(#80),#76,.F.);
#58=ADVANCED_FACE('',(#81),#51,.T.);
#59=ADVANCED_FACE('',(#82),#45,.T.);
#60=ADVANCED_FACE('',(#83),#52,.T.);
#61=ADVANCED_FACE('',(#84),#42,.F.);
#62=ADVANCED_FACE('',(#85),#53,.T.);
#63=ADVANCED_FACE('',(#86),#46,.T.);
#64=ADVANCED_FACE('',(#87),#54,.T.);
#65=ADVANCED_FACE('',(#88),#77,.F.);
#66=ADVANCED_FACE('',(#89),#47,.T.);
#67=ADVANCED_FACE('',(#90),#48,.T.);
#68=ADVANCED_FACE('',(#91),#43,.T.);
#69=ADVANCED_FACE('',(#92),#55,.F.);
#70=ADVANCED_FACE('',(#93),#56,.F.);
#71=ADVANCED_FACE('',(#94),#49,.T.);
#72=ADVANCED_FACE('',(#95),#50,.T.);
#73=ADVANCED_FACE('',(#96),#78,.T.);
#74=ADVANCED_FACE('',(#97),#79,.T.);
#75=ADVANCED_FACE('',(#98),#44,.F.);
#76=CONICAL_SURFACE('',#411,3.91892219587,86.5);
#77=CONICAL_SURFACE('',#430,3.91892219587,86.5);
#78=CONICAL_SURFACE('',#451,7.4375,45.);
#79=CONICAL_SURFACE('',#453,7.4375,45.);
#80=FACE_OUTER_BOUND('',#99,.T.);
#81=FACE_OUTER_BOUND('',#100,.T.);
#82=FACE_OUTER_BOUND('',#101,.T.);
#83=FACE_OUTER_BOUND('',#102,.T.);
#84=FACE_OUTER_BOUND('',#103,.T.);
#85=FACE_OUTER_BOUND('',#104,.T.);
#86=FACE_OUTER_BOUND('',#105,.T.);
#87=FACE_OUTER_BOUND('',#106,.T.);
#88=FACE_OUTER_BOUND('',#107,.T.);
#89=FACE_OUTER_BOUND('',#108,.T.);
#90=FACE_OUTER_BOUND('',#109,.T.);
#91=FACE_OUTER_BOUND('',#110,.T.);
#92=FACE_OUTER_BOUND('',#111,.T.);
#93=FACE_OUTER_BOUND('',#112,.T.);
#94=FACE_OUTER_BOUND('',#113,.T.);
#95=FACE_OUTER_BOUND('',#114,.T.);
#96=FACE_OUTER_BOUND('',#115,.T.);
#97=FACE_OUTER_BOUND('',#116,.T.);
#98=FACE_OUTER_BOUND('',#117,.T.);
#99=EDGE_LOOP('',(#118,#119,#120));
#100=EDGE_LOOP('',(#121,#122,#123,#124));
#101=EDGE_LOOP('',(#125,#126,#127,#128));
#102=EDGE_LOOP('',(#129,#130,#131,#132));
#103=EDGE_LOOP('',(#133,#134));
#104=EDGE_LOOP('',(#135,#136,#137,#138));
#105=EDGE_LOOP('',(#139,#140,#141,#142));
#106=EDGE_LOOP('',(#143,#144,#145,#146));
#107=EDGE_LOOP('',(#147,#148,#149));
#108=EDGE_LOOP('',(#150,#151,#152,#153));
#109=EDGE_LOOP('',(#154,#155,#156,#157));
#110=EDGE_LOOP('',(#158,#159));
#111=EDGE_LOOP('',(#160,#161,#162,#163));
#112=EDGE_LOOP('',(#164,#165,#166,#167));
#113=EDGE_LOOP('',(#168,#169,#170,#171,#172));
#114=EDGE_LOOP('',(#173,#174,#175,#176,#177));
#115=EDGE_LOOP('',(#178,#179,#180,#181,#182));
#116=EDGE_LOOP('',(#183,#184,#185,#186,#187));
#117=EDGE_LOOP('',(#188,#189));
#118=ORIENTED_EDGE('',*,*,#211,.T.);
#119=ORIENTED_EDGE('',*,*,#212,.F.);
#120=ORIENTED_EDGE('',*,*,#213,.F.);
#121=ORIENTED_EDGE('',*,*,#214,.T.);
#122=ORIENTED_EDGE('',*,*,#213,.T.);
#123=ORIENTED_EDGE('',*,*,#215,.F.);
#124=ORIENTED_EDGE('',*,*,#216,.T.);
#125=ORIENTED_EDGE('',*,*,#217,.T.);
#126=ORIENTED_EDGE('',*,*,#216,.F.);
#127=ORIENTED_EDGE('',*,*,#218,.F.);
#128=ORIENTED_EDGE('',*,*,#219,.F.);
#129=ORIENTED_EDGE('',*,*,#220,.T.);
#130=ORIENTED_EDGE('',*,*,#219,.T.);
#131=ORIENTED_EDGE('',*,*,#221,.F.);
#132=ORIENTED_EDGE('',*,*,#222,.F.);
#133=ORIENTED_EDGE('',*,*,#223,.T.);
#134=ORIENTED_EDGE('',*,*,#222,.T.);
#135=ORIENTED_EDGE('',*,*,#220,.F.);
#136=ORIENTED_EDGE('',*,*,#223,.F.);
#137=ORIENTED_EDGE('',*,*,#221,.T.);
#138=ORIENTED_EDGE('',*,*,#224,.T.);
#139=ORIENTED_EDGE('',*,*,#217,.F.);
#140=ORIENTED_EDGE('',*,*,#224,.F.);
#141=ORIENTED_EDGE('',*,*,#218,.T.);
#142=ORIENTED_EDGE('',*,*,#225,.F.);
#143=ORIENTED_EDGE('',*,*,#214,.F.);
#144=ORIENTED_EDGE('',*,*,#225,.T.);
#145=ORIENTED_EDGE('',*,*,#215,.T.);
#146=ORIENTED_EDGE('',*,*,#226,.T.);
#147=ORIENTED_EDGE('',*,*,#226,.F.);
#148=ORIENTED_EDGE('',*,*,#212,.T.);
#149=ORIENTED_EDGE('',*,*,#211,.F.);
#150=ORIENTED_EDGE('',*,*,#227,.F.);
#151=ORIENTED_EDGE('',*,*,#228,.F.);
#152=ORIENTED_EDGE('',*,*,#229,.F.);
#153=ORIENTED_EDGE('',*,*,#230,.T.);
#154=ORIENTED_EDGE('',*,*,#231,.F.);
#155=ORIENTED_EDGE('',*,*,#230,.F.);
#156=ORIENTED_EDGE('',*,*,#232,.F.);
#157=ORIENTED_EDGE('',*,*,#228,.T.);
#158=ORIENTED_EDGE('',*,*,#229,.T.);
#159=ORIENTED_EDGE('',*,*,#232,.T.);
#160=ORIENTED_EDGE('',*,*,#231,.T.);
#161=ORIENTED_EDGE('',*,*,#233,.F.);
#162=ORIENTED_EDGE('',*,*,#234,.T.);
#163=ORIENTED_EDGE('',*,*,#235,.T.);
#164=ORIENTED_EDGE('',*,*,#227,.T.);
#165=ORIENTED_EDGE('',*,*,#235,.F.);
#166=ORIENTED_EDGE('',*,*,#236,.T.);
#167=ORIENTED_EDGE('',*,*,#233,.T.);
#168=ORIENTED_EDGE('',*,*,#237,.F.);
#169=ORIENTED_EDGE('',*,*,#238,.F.);
#170=ORIENTED_EDGE('',*,*,#239,.F.);
#171=ORIENTED_EDGE('',*,*,#236,.F.);
#172=ORIENTED_EDGE('',*,*,#240,.T.);
#173=ORIENTED_EDGE('',*,*,#241,.F.);
#174=ORIENTED_EDGE('',*,*,#242,.F.);
#175=ORIENTED_EDGE('',*,*,#240,.F.);
#176=ORIENTED_EDGE('',*,*,#234,.F.);
#177=ORIENTED_EDGE('',*,*,#239,.T.);
#178=ORIENTED_EDGE('',*,*,#242,.T.);
#179=ORIENTED_EDGE('',*,*,#241,.T.);
#180=ORIENTED_EDGE('',*,*,#243,.F.);
#181=ORIENTED_EDGE('',*,*,#244,.T.);
#182=ORIENTED_EDGE('',*,*,#245,.T.);
#183=ORIENTED_EDGE('',*,*,#238,.T.);
#184=ORIENTED_EDGE('',*,*,#237,.T.);
#185=ORIENTED_EDGE('',*,*,#245,.F.);
#186=ORIENTED_EDGE('',*,*,#246,.T.);
#187=ORIENTED_EDGE('',*,*,#243,.T.);
#188=ORIENTED_EDGE('',*,*,#244,.F.);
#189=ORIENTED_EDGE('',*,*,#246,.F.);
#190=VERTEX_POINT('',#606);
#191=VERTEX_POINT('',#607);
#192=VERTEX_POINT('',#609);
#193=VERTEX_POINT('',#613);
#194=VERTEX_POINT('',#615);
#195=VERTEX_POINT('',#619);
#196=VERTEX_POINT('',#621);
#197=VERTEX_POINT('',#625);
#198=VERTEX_POINT('',#627);
#199=VERTEX_POINT('',#640);
#200=VERTEX_POINT('',#641);
#201=VERTEX_POINT('',#643);
#202=VERTEX_POINT('',#645);
#203=VERTEX_POINT('',#653);
#204=VERTEX_POINT('',#655);
#205=VERTEX_POINT('',#661);
#206=VERTEX_POINT('',#662);
#207=VERTEX_POINT('',#664);
#208=VERTEX_POINT('',#669);
#209=VERTEX_POINT('',#673);
#210=VERTEX_POINT('',#675);
#211=EDGE_CURVE('',#190,#191,#317,.T.);
#212=EDGE_CURVE('',#192,#191,#318,.T.);
#213=EDGE_CURVE('',#190,#192,#249,.T.);
#214=EDGE_CURVE('',#193,#190,#250,.T.);
#215=EDGE_CURVE('',#194,#192,#251,.T.);
#216=EDGE_CURVE('',#194,#193,#252,.T.);
#217=EDGE_CURVE('',#195,#193,#319,.T.);
#218=EDGE_CURVE('',#196,#194,#320,.T.);
#219=EDGE_CURVE('',#195,#196,#253,.T.);
#220=EDGE_CURVE('',#197,#195,#254,.T.);
#221=EDGE_CURVE('',#198,#196,#255,.T.);
#222=EDGE_CURVE('',#197,#198,#256,.T.);
#223=EDGE_CURVE('',#198,#197,#257,.T.);
#224=EDGE_CURVE('',#196,#195,#258,.T.);
#225=EDGE_CURVE('',#193,#194,#259,.T.);
#226=EDGE_CURVE('',#192,#190,#260,.T.);
#227=EDGE_CURVE('',#199,#200,#261,.T.);
#228=EDGE_CURVE('',#201,#199,#321,.T.);
#229=EDGE_CURVE('',#202,#201,#262,.T.);
#230=EDGE_CURVE('',#202,#200,#322,.T.);
#231=EDGE_CURVE('',#200,#199,#263,.T.);
#232=EDGE_CURVE('',#201,#202,#264,.T.);
#233=EDGE_CURVE('',#203,#199,#265,.T.);
#234=EDGE_CURVE('',#203,#204,#266,.T.);
#235=EDGE_CURVE('',#204,#200,#267,.T.);
#236=EDGE_CURVE('',#204,#203,#268,.T.);
#237=EDGE_CURVE('',#205,#206,#269,.T.);
#238=EDGE_CURVE('',#207,#205,#270,.T.);
#239=EDGE_CURVE('',#203,#207,#323,.T.);
#240=EDGE_CURVE('',#204,#206,#324,.T.);
#241=EDGE_CURVE('',#208,#207,#271,.T.);
#242=EDGE_CURVE('',#206,#208,#272,.T.);
#243=EDGE_CURVE('',#209,#207,#325,.T.);
#244=EDGE_CURVE('',#209,#210,#273,.T.);
#245=EDGE_CURVE('',#210,#206,#326,.T.);
#246=EDGE_CURVE('',#210,#209,#274,.T.);
#247=CIRCLE('',#398,0.8);
#248=CIRCLE('',#399,0.6);
#249=CIRCLE('',#410,7.684161168372);
#250=CIRCLE('',#412,0.8);
#251=CIRCLE('',#413,0.8);
#252=CIRCLE('',#414,8.533);
#253=CIRCLE('',#416,8.533);
#254=CIRCLE('',#418,0.6);
#255=CIRCLE('',#419,0.6);
#256=CIRCLE('',#420,7.933);
#257=CIRCLE('',#422,7.933);
#258=CIRCLE('',#424,8.533);
#259=CIRCLE('',#426,8.533);
#260=CIRCLE('',#428,7.684161168372);
#261=CIRCLE('',#431,7.83);
#262=CIRCLE('',#432,7.83);
#263=CIRCLE('',#434,7.83);
#264=CIRCLE('',#435,7.83);
#265=CIRCLE('',#438,0.4);
#266=CIRCLE('',#439,7.937500000005);
#267=CIRCLE('',#440,0.4);
#268=CIRCLE('',#442,7.937500000005);
#269=CIRCLE('',#444,7.9375);
#270=CIRCLE('',#445,7.9375);
#271=CIRCLE('',#447,7.9375);
#272=CIRCLE('',#448,7.9375);
#273=CIRCLE('',#450,6.9375);
#274=CIRCLE('',#452,6.9375);
#275=CURVE_STYLE('',#291,POSITIVE_LENGTH_MEASURE(0.18),#342);
#276=CURVE_STYLE('',#292,POSITIVE_LENGTH_MEASURE(0.18),#342);
#277=CURVE_STYLE('',#293,POSITIVE_LENGTH_MEASURE(0.18),#342);
#278=CURVE_STYLE('',#294,POSITIVE_LENGTH_MEASURE(0.18),#342);
#279=CURVE_STYLE('',#295,POSITIVE_LENGTH_MEASURE(0.18),#342);
#280=CURVE_STYLE('',#296,POSITIVE_LENGTH_MEASURE(0.18),#342);
#281=CURVE_STYLE('',#297,POSITIVE_LENGTH_MEASURE(0.13),#394);
#282=CURVE_STYLE('',#298,POSITIVE_LENGTH_MEASURE(0.13),#394);
#283=CURVE_STYLE('',#299,POSITIVE_LENGTH_MEASURE(0.13),#394);
#284=CURVE_STYLE('',#300,POSITIVE_LENGTH_MEASURE(0.13),#393);
#285=CURVE_STYLE('',#301,POSITIVE_LENGTH_MEASURE(0.13),#393);
#286=CURVE_STYLE('',#302,POSITIVE_LENGTH_MEASURE(0.13),#341);
#287=CURVE_STYLE('',#303,POSITIVE_LENGTH_MEASURE(0.13),#394);
#288=CURVE_STYLE('',#304,POSITIVE_LENGTH_MEASURE(0.13),#394);
#289=CURVE_STYLE('',#305,POSITIVE_LENGTH_MEASURE(0.13),#394);
#290=CURVE_STYLE('',#306,POSITIVE_LENGTH_MEASURE(0.13),#394);
#291=DRAUGHTING_PRE_DEFINED_CURVE_FONT('continuous');
#292=DRAUGHTING_PRE_DEFINED_CURVE_FONT('continuous');
#293=DRAUGHTING_PRE_DEFINED_CURVE_FONT('continuous');
#294=DRAUGHTING_PRE_DEFINED_CURVE_FONT('continuous');
#295=DRAUGHTING_PRE_DEFINED_CURVE_FONT('continuous');
#296=DRAUGHTING_PRE_DEFINED_CURVE_FONT('continuous');
#297=DRAUGHTING_PRE_DEFINED_CURVE_FONT('continuous');
#298=DRAUGHTING_PRE_DEFINED_CURVE_FONT('continuous');
#299=DRAUGHTING_PRE_DEFINED_CURVE_FONT('continuous');
#300=DRAUGHTING_PRE_DEFINED_CURVE_FONT('continuous');
#301=DRAUGHTING_PRE_DEFINED_CURVE_FONT('continuous');
#302=DRAUGHTING_PRE_DEFINED_CURVE_FONT('continuous');
#303=DRAUGHTING_PRE_DEFINED_CURVE_FONT('continuous');
#304=DRAUGHTING_PRE_DEFINED_CURVE_FONT('continuous');
#305=DRAUGHTING_PRE_DEFINED_CURVE_FONT('continuous');
#306=DRAUGHTING_PRE_DEFINED_CURVE_FONT('continuous');
#307=TRIMMED_CURVE('',#313,(PARAMETER_VALUE(0.)),(PARAMETER_VALUE(1.)),
 .T.,.PARAMETER.);
#308=TRIMMED_CURVE('',#314,(PARAMETER_VALUE(0.)),(PARAMETER_VALUE(1.)),
 .T.,.PARAMETER.);
#309=TRIMMED_CURVE('',#315,(PARAMETER_VALUE(0.)),(PARAMETER_VALUE(1.)),
 .T.,.PARAMETER.);
#310=TRIMMED_CURVE('',#316,(PARAMETER_VALUE(0.)),(PARAMETER_VALUE(1.)),
 .T.,.PARAMETER.);
#311=TRIMMED_CURVE('',#247,(PARAMETER_VALUE(0.)),(PARAMETER_VALUE(93.5)),
 .T.,.PARAMETER.);
#312=TRIMMED_CURVE('',#248,(PARAMETER_VALUE(0.)),(PARAMETER_VALUE(90.)),
 .T.,.PARAMETER.);
#313=LINE('',#589,#327);
#314=LINE('',#590,#328);
#315=LINE('',#591,#329);
#316=LINE('',#592,#330);
#317=LINE('',#605,#331);
#318=LINE('',#608,#332);
#319=LINE('',#618,#333);
#320=LINE('',#620,#334);
#321=LINE('',#642,#335);
#322=LINE('',#646,#336);
#323=LINE('',#665,#337);
#324=LINE('',#666,#338);
#325=LINE('',#672,#339);
#326=LINE('',#676,#340);
#327=VECTOR('',#457,7.69852046088526);
#328=VECTOR('',#458,6.30000000000001);
#329=VECTOR('',#459,7.933);
#330=VECTOR('',#460,7.228524408021);
#331=VECTOR('',#485,1.);
#332=VECTOR('',#486,1.);
#333=VECTOR('',#499,1.);
#334=VECTOR('',#500,1.);
#335=VECTOR('',#533,1.);
#336=VECTOR('',#536,1.);
#337=VECTOR('',#563,1.);
#338=VECTOR('',#564,1.);
#339=VECTOR('',#573,1.);
#340=VECTOR('',#576,1.);
#341=DRAUGHTING_PRE_DEFINED_COLOUR('yellow');
#342=DRAUGHTING_PRE_DEFINED_COLOUR('blue');
#343=PRESENTATION_LAYER_ASSIGNMENT('2','Layer 2',(#586,#587,#403,#404));
#344=PRESENTATION_LAYER_ASSIGNMENT('1','Layer 1',(#588,#307,#308,#309,#310,
#311,#312,#400,#401,#402,#405,#406,#407,#408,#409,#38,#39));
#345=STYLED_ITEM('',(#366),#586);
#346=STYLED_ITEM('',(#367),#587);
#347=STYLED_ITEM('',(#368),#588);
#348=STYLED_ITEM('',(#369),#307);
#349=STYLED_ITEM('',(#370),#308);
#350=STYLED_ITEM('',(#371),#309);
#351=STYLED_ITEM('',(#372),#310);
#352=STYLED_ITEM('',(#373),#311);
#353=STYLED_ITEM('',(#374),#312);
#354=STYLED_ITEM('',(#375),#400);
#355=STYLED_ITEM('',(#376),#401);
#356=STYLED_ITEM('',(#377),#402);
#357=STYLED_ITEM('',(#378),#403);
#358=STYLED_ITEM('',(#379),#404);
#359=STYLED_ITEM('',(#380),#405);
#360=STYLED_ITEM('',(#381),#406);
#361=STYLED_ITEM('',(#382),#407);
#362=STYLED_ITEM('',(#383),#408);
#363=STYLED_ITEM('',(#384),#409);
#364=STYLED_ITEM('',(#385),#38);
#365=STYLED_ITEM('',(#386),#39);
#366=PRESENTATION_STYLE_ASSIGNMENT((#387));
#367=PRESENTATION_STYLE_ASSIGNMENT((#388));
#368=PRESENTATION_STYLE_ASSIGNMENT((#389));
#369=PRESENTATION_STYLE_ASSIGNMENT((#275));
#370=PRESENTATION_STYLE_ASSIGNMENT((#276));
#371=PRESENTATION_STYLE_ASSIGNMENT((#277));
#372=PRESENTATION_STYLE_ASSIGNMENT((#278));
#373=PRESENTATION_STYLE_ASSIGNMENT((#279));
#374=PRESENTATION_STYLE_ASSIGNMENT((#280));
#375=PRESENTATION_STYLE_ASSIGNMENT((#281));
#376=PRESENTATION_STYLE_ASSIGNMENT((#282));
#377=PRESENTATION_STYLE_ASSIGNMENT((#283));
#378=PRESENTATION_STYLE_ASSIGNMENT((#284));
#379=PRESENTATION_STYLE_ASSIGNMENT((#285));
#380=PRESENTATION_STYLE_ASSIGNMENT((#286));
#381=PRESENTATION_STYLE_ASSIGNMENT((#287));
#382=PRESENTATION_STYLE_ASSIGNMENT((#288));
#383=PRESENTATION_STYLE_ASSIGNMENT((#289));
#384=PRESENTATION_STYLE_ASSIGNMENT((#290));
#385=PRESENTATION_STYLE_ASSIGNMENT((#28));
#386=PRESENTATION_STYLE_ASSIGNMENT((#29));
#387=POINT_STYLE('',#390,POSITIVE_LENGTH_MEASURE(3.),#393);
#388=POINT_STYLE('',#391,POSITIVE_LENGTH_MEASURE(3.),#393);
#389=POINT_STYLE('',#392,POSITIVE_LENGTH_MEASURE(3.),#341);
#390=PRE_DEFINED_POINT_MARKER_SYMBOL('plus');
#391=PRE_DEFINED_POINT_MARKER_SYMBOL('plus');
#392=PRE_DEFINED_POINT_MARKER_SYMBOL('plus');
#393=COLOUR_RGB('Brown',0.6,0.4,0.2);
#394=COLOUR_RGB('Strong Stone',0.576470588235294,0.54508278019379,0.392156862745098);
#395=COLOUR_RGB('Light Gray',0.8,0.8,0.8);
#396=COLOUR_RGB('non-cutting part and shank',0.501960784313725,0.501960784313725,
0.501960784313725);
#397=AXIS2_PLACEMENT_3D('',#585,#455,#456);
#398=AXIS2_PLACEMENT_3D('',#593,#461,#462);
#399=AXIS2_PLACEMENT_3D('',#594,#463,#464);
#400=AXIS2_PLACEMENT_3D('',#595,#465,#466);
#401=AXIS2_PLACEMENT_3D('',#596,#467,#468);
#402=AXIS2_PLACEMENT_3D('',#597,#469,#470);
#403=AXIS2_PLACEMENT_3D('CIP',#598,#471,#472);
#404=AXIS2_PLACEMENT_3D('PCS',#599,#473,#474);
#405=AXIS2_PLACEMENT_3D('MCS',#600,#475,#476);
#406=AXIS2_PLACEMENT_3D('',#601,#477,#478);
#407=AXIS2_PLACEMENT_3D('',#602,#479,#480);
#408=AXIS2_PLACEMENT_3D('',#603,#481,#482);
#409=AXIS2_PLACEMENT_3D('',#604,#483,#484);
#410=AXIS2_PLACEMENT_3D('',#610,#487,#488);
#411=AXIS2_PLACEMENT_3D('',#611,#489,#490);
#412=AXIS2_PLACEMENT_3D('',#612,#491,#492);
#413=AXIS2_PLACEMENT_3D('',#614,#493,#494);
#414=AXIS2_PLACEMENT_3D('',#616,#495,#496);
#415=AXIS2_PLACEMENT_3D('',#617,#497,#498);
#416=AXIS2_PLACEMENT_3D('',#622,#501,#502);
#417=AXIS2_PLACEMENT_3D('',#623,#503,#504);
#418=AXIS2_PLACEMENT_3D('',#624,#505,#506);
#419=AXIS2_PLACEMENT_3D('',#626,#507,#508);
#420=AXIS2_PLACEMENT_3D('',#628,#509,#510);
#421=AXIS2_PLACEMENT_3D('',#629,#511,#512);
#422=AXIS2_PLACEMENT_3D('',#630,#513,#514);
#423=AXIS2_PLACEMENT_3D('',#631,#515,#516);
#424=AXIS2_PLACEMENT_3D('',#632,#517,#518);
#425=AXIS2_PLACEMENT_3D('',#633,#519,#520);
#426=AXIS2_PLACEMENT_3D('',#634,#521,#522);
#427=AXIS2_PLACEMENT_3D('',#635,#523,#524);
#428=AXIS2_PLACEMENT_3D('',#636,#525,#526);
#429=AXIS2_PLACEMENT_3D('',#637,#527,#528);
#430=AXIS2_PLACEMENT_3D('',#638,#529,#530);
#431=AXIS2_PLACEMENT_3D('',#639,#531,#532);
#432=AXIS2_PLACEMENT_3D('',#644,#534,#535);
#433=AXIS2_PLACEMENT_3D('',#647,#537,#538);
#434=AXIS2_PLACEMENT_3D('',#648,#539,#540);
#435=AXIS2_PLACEMENT_3D('',#649,#541,#542);
#436=AXIS2_PLACEMENT_3D('',#650,#543,#544);
#437=AXIS2_PLACEMENT_3D('',#651,#545,#546);
#438=AXIS2_PLACEMENT_3D('',#652,#547,#548);
#439=AXIS2_PLACEMENT_3D('',#654,#549,#550);
#440=AXIS2_PLACEMENT_3D('',#656,#551,#552);
#441=AXIS2_PLACEMENT_3D('',#657,#553,#554);
#442=AXIS2_PLACEMENT_3D('',#658,#555,#556);
#443=AXIS2_PLACEMENT_3D('',#659,#557,#558);
#444=AXIS2_PLACEMENT_3D('',#660,#559,#560);
#445=AXIS2_PLACEMENT_3D('',#663,#561,#562);
#446=AXIS2_PLACEMENT_3D('',#667,#565,#566);
#447=AXIS2_PLACEMENT_3D('',#668,#567,#568);
#448=AXIS2_PLACEMENT_3D('',#670,#569,#570);
#449=AXIS2_PLACEMENT_3D('',#671,#571,#572);
#450=AXIS2_PLACEMENT_3D('',#674,#574,#575);
#451=AXIS2_PLACEMENT_3D('',#677,#577,#578);
#452=AXIS2_PLACEMENT_3D('',#678,#579,#580);
#453=AXIS2_PLACEMENT_3D('',#679,#581,#582);
#454=AXIS2_PLACEMENT_3D('',#680,#583,#584);
#455=DIRECTION('',(0.,0.,1.));
#456=DIRECTION('',(1.,0.,0.));
#457=DIRECTION('',(-0.998134798421867,0.,-0.0610485395348583));
#458=DIRECTION('',(0.,0.,1.));
#459=DIRECTION('',(1.,0.,0.));
#460=DIRECTION('',(0.,0.,-1.));
#461=DIRECTION('',(0.,1.,0.));
#462=DIRECTION('',(0.0610485395348572,0.,-0.998134798421867));
#463=DIRECTION('',(0.,1.,0.));
#464=DIRECTION('',(-1.,0.,0.));
#465=DIRECTION('',(0.,0.,1.));
#466=DIRECTION('',(1.,0.,0.));
#467=DIRECTION('',(0.,0.,1.));
#468=DIRECTION('',(1.,0.,0.));
#469=DIRECTION('',(0.,0.,1.));
#470=DIRECTION('',(1.,0.,0.));
#471=DIRECTION('',(0.,0.,1.));
#472=DIRECTION('',(1.,0.,0.));
#473=DIRECTION('',(0.,0.,1.));
#474=DIRECTION('',(1.,0.,0.));
#475=DIRECTION('',(0.,0.,1.));
#476=DIRECTION('',(1.,0.,0.));
#477=DIRECTION('',(0.,0.,1.));
#478=DIRECTION('',(1.,0.,0.));
#479=DIRECTION('',(0.,0.,1.));
#480=DIRECTION('',(1.,0.,0.));
#481=DIRECTION('',(0.,0.,1.));
#482=DIRECTION('',(1.,0.,0.));
#483=DIRECTION('',(0.,0.,1.));
#484=DIRECTION('',(1.,0.,0.));
#485=DIRECTION('',(0.998134798421865,0.,0.0610485395348879));
#486=DIRECTION('',(-0.998134798421865,0.,0.0610485395348879));
#487=DIRECTION('',(0.,0.,1.));
#488=DIRECTION('',(-1.,0.,0.));
#489=DIRECTION('',(0.,0.,-1.));
#490=DIRECTION('',(-1.,0.,1.69719692467579E-18));
#491=DIRECTION('',(0.,-1.,0.));
#492=DIRECTION('',(-0.999999999999999,0.,0.));
#493=DIRECTION('',(0.,1.,0.));
#494=DIRECTION('',(0.999999999999999,0.,0.));
#495=DIRECTION('',(0.,0.,-1.));
#496=DIRECTION('',(1.,0.,0.));
#497=DIRECTION('',(0.,0.,-1.));
#498=DIRECTION('',(-1.,0.,0.));
#499=DIRECTION('',(0.,0.,-1.));
#500=DIRECTION('',(0.,0.,-1.));
#501=DIRECTION('',(0.,0.,1.));
#502=DIRECTION('',(-1.,0.,0.));
#503=DIRECTION('',(0.,0.,-1.));
#504=DIRECTION('',(-1.,0.,0.));
#505=DIRECTION('',(0.,-1.,0.));
#506=DIRECTION('',(0.,0.,0.999999999999982));
#507=DIRECTION('',(0.,1.,0.));
#508=DIRECTION('',(0.,0.,0.999999999999982));
#509=DIRECTION('',(0.,0.,1.));
#510=DIRECTION('',(-1.,0.,0.));
#511=DIRECTION('',(0.,0.,-1.));
#512=DIRECTION('',(-1.,0.,0.));
#513=DIRECTION('',(0.,0.,1.));
#514=DIRECTION('',(1.,0.,0.));
#515=DIRECTION('',(0.,0.,-1.));
#516=DIRECTION('',(-1.,0.,0.));
#517=DIRECTION('',(0.,0.,1.));
#518=DIRECTION('',(1.,0.,0.));
#519=DIRECTION('',(0.,0.,-1.));
#520=DIRECTION('',(-1.,0.,0.));
#521=DIRECTION('',(0.,0.,-1.));
#522=DIRECTION('',(-1.,0.,0.));
#523=DIRECTION('',(0.,0.,-1.));
#524=DIRECTION('',(-1.,0.,0.));
#525=DIRECTION('',(0.,0.,1.));
#526=DIRECTION('',(1.,0.,0.));
#527=DIRECTION('',(0.,0.,-1.));
#528=DIRECTION('',(-1.,0.,0.));
#529=DIRECTION('',(0.,0.,-1.));
#530=DIRECTION('',(-1.,0.,1.69719692467579E-18));
#531=DIRECTION('',(0.,0.,1.));
#532=DIRECTION('',(1.,0.,0.));
#533=DIRECTION('',(0.,0.,1.));
#534=DIRECTION('',(0.,0.,-1.));
#535=DIRECTION('',(-1.,0.,0.));
#536=DIRECTION('',(0.,0.,1.));
#537=DIRECTION('',(0.,0.,-1.));
#538=DIRECTION('',(1.,0.,0.));
#539=DIRECTION('',(0.,0.,1.));
#540=DIRECTION('',(-1.,0.,0.));
#541=DIRECTION('',(0.,0.,-1.));
#542=DIRECTION('',(1.,0.,0.));
#543=DIRECTION('',(0.,0.,-1.));
#544=DIRECTION('',(1.,0.,0.));
#545=DIRECTION('',(0.,0.,-1.));
#546=DIRECTION('',(1.,0.,0.));
#547=DIRECTION('',(0.,-1.,0.));
#548=DIRECTION('',(-0.999999999999998,0.,0.));
#549=DIRECTION('',(0.,0.,-1.));
#550=DIRECTION('',(1.,0.,0.));
#551=DIRECTION('',(0.,1.,0.));
#552=DIRECTION('',(0.999999999999998,0.,0.));
#553=DIRECTION('',(0.,0.,-1.));
#554=DIRECTION('',(0.999999999686704,2.50318110211201E-5,0.));
#555=DIRECTION('',(0.,0.,-1.));
#556=DIRECTION('',(-1.,0.,0.));
#557=DIRECTION('',(0.,0.,-1.));
#558=DIRECTION('',(-0.999999999678387,-2.53618897605897E-5,0.));
#559=DIRECTION('',(0.,0.,1.));
#560=DIRECTION('',(0.,1.,0.));
#561=DIRECTION('',(0.,0.,1.));
#562=DIRECTION('',(1.,0.,0.));
#563=DIRECTION('',(-1.601844016502E-14,0.,1.));
#564=DIRECTION('',(1.601844016502E-14,0.,1.));
#565=DIRECTION('',(0.,0.,-1.));
#566=DIRECTION('',(1.,0.,0.));
#567=DIRECTION('',(0.,0.,1.));
#568=DIRECTION('',(0.,-1.,0.));
#569=DIRECTION('',(0.,0.,1.));
#570=DIRECTION('',(-1.,0.,0.));
#571=DIRECTION('',(0.,0.,-1.));
#572=DIRECTION('',(1.,0.,0.));
#573=DIRECTION('',(0.707106781186547,0.,-0.707106781186547));
#574=DIRECTION('',(0.,0.,-1.));
#575=DIRECTION('',(1.,0.,0.));
#576=DIRECTION('',(-0.707106781186547,-1.18053879143608E-14,-0.707106781186547));
#577=DIRECTION('',(0.,0.,-1.));
#578=DIRECTION('',(0.,-1.,5.46708558717177E-17));
#579=DIRECTION('',(0.,0.,-1.));
#580=DIRECTION('',(-1.,0.,0.));
#581=DIRECTION('',(0.,0.,-1.));
#582=DIRECTION('',(0.,-1.,5.46708558717177E-17));
#583=DIRECTION('',(0.,0.,-1.));
#584=DIRECTION('',(1.,0.,0.));
#585=CARTESIAN_POINT('',(0.,0.,0.));
#586=CARTESIAN_POINT('',(0.,0.,-174.625));
#587=CARTESIAN_POINT('',(0.,0.,0.));
#588=CARTESIAN_POINT('',(0.,0.,-146.05));
#589=CARTESIAN_POINT('',(0.,0.,-174.153524408));
#590=CARTESIAN_POINT('',(-8.533,0.,-173.825));
#591=CARTESIAN_POINT('',(-7.933,0.,-166.925));
#592=CARTESIAN_POINT('',(0.,0.,-166.925));
#593=CARTESIAN_POINT('',(-7.733,0.,-173.825));
#594=CARTESIAN_POINT('',(-7.933,0.,-167.525));
#595=CARTESIAN_POINT('',(0.,0.,0.));
#596=CARTESIAN_POINT('',(0.,0.,0.));
#597=CARTESIAN_POINT('',(0.,0.,0.));
#598=CARTESIAN_POINT('',(0.,0.,-174.625));
#599=CARTESIAN_POINT('',(0.,0.,0.));
#600=CARTESIAN_POINT('',(0.,0.,-146.05));
#601=CARTESIAN_POINT('',(0.,0.,0.));
#602=CARTESIAN_POINT('',(0.,0.,0.));
#603=CARTESIAN_POINT('',(0.,0.,0.));
#604=CARTESIAN_POINT('',(0.,0.,0.));
#605=CARTESIAN_POINT('',(0.,0.,-174.153524408));
#606=CARTESIAN_POINT('',(-7.684161168372,0.,-174.6235078387));
#607=CARTESIAN_POINT('',(0.,0.,-174.153524408));
#608=CARTESIAN_POINT('',(0.,0.,-174.153524408));
#609=CARTESIAN_POINT('',(7.684161168372,0.,-174.6235078387));
#610=CARTESIAN_POINT('',(0.,0.,-174.6235078387));
#611=CARTESIAN_POINT('',(0.,0.,-174.3932159577));
#612=CARTESIAN_POINT('',(-7.733,1.27895480693E-14,-173.825));
#613=CARTESIAN_POINT('',(-8.533,1.411266179689E-14,-173.825));
#614=CARTESIAN_POINT('',(7.733,0.,-173.825));
#615=CARTESIAN_POINT('',(8.533,0.,-173.825));
#616=CARTESIAN_POINT('',(0.,0.,-173.825));
#617=CARTESIAN_POINT('',(0.,0.,-173.825));
#618=CARTESIAN_POINT('',(-8.533,0.,-173.825));
#619=CARTESIAN_POINT('',(-8.533,0.,-167.525));
#620=CARTESIAN_POINT('',(8.533,0.,-173.825));
#621=CARTESIAN_POINT('',(8.533,0.,-167.525));
#622=CARTESIAN_POINT('',(0.,0.,-167.525));
#623=CARTESIAN_POINT('',(0.,0.,-166.54));
#624=CARTESIAN_POINT('',(-7.933,0.,-167.525));
#625=CARTESIAN_POINT('',(-7.933,0.,-166.925));
#626=CARTESIAN_POINT('',(7.933,0.,-167.525));
#627=CARTESIAN_POINT('',(7.933,0.,-166.925));
#628=CARTESIAN_POINT('',(0.,0.,-166.925));
#629=CARTESIAN_POINT('',(0.,0.,-167.525));
#630=CARTESIAN_POINT('',(0.,0.,-166.925));
#631=CARTESIAN_POINT('',(0.,0.,-166.925));
#632=CARTESIAN_POINT('',(0.,0.,-167.525));
#633=CARTESIAN_POINT('',(0.,0.,-167.525));
#634=CARTESIAN_POINT('',(0.,0.,-173.825));
#635=CARTESIAN_POINT('',(0.,0.,-166.54));
#636=CARTESIAN_POINT('',(0.,0.,-174.6235078387));
#637=CARTESIAN_POINT('',(0.,0.,-173.825));
#638=CARTESIAN_POINT('',(0.,0.,-174.3932159577));
#639=CARTESIAN_POINT('',(0.,0.,-146.3228438198));
#640=CARTESIAN_POINT('',(7.83,0.,-146.3228438198));
#641=CARTESIAN_POINT('',(-7.83,0.,-146.3228438198));
#642=CARTESIAN_POINT('',(7.83,0.,-146.3228438198));
#643=CARTESIAN_POINT('',(7.83,0.,-172.625));
#644=CARTESIAN_POINT('',(0.,0.,-172.625));
#645=CARTESIAN_POINT('',(-7.83,0.,-172.625));
#646=CARTESIAN_POINT('',(-7.83,0.,-146.3228438198));
#647=CARTESIAN_POINT('',(0.,0.,8.73125));
#648=CARTESIAN_POINT('',(0.,0.,-146.3228438198));
#649=CARTESIAN_POINT('',(0.,0.,-172.625));
#650=CARTESIAN_POINT('',(0.,0.,8.73125));
#651=CARTESIAN_POINT('',(0.,0.,-172.625));
#652=CARTESIAN_POINT('',(8.23,0.,-146.3228438198));
#653=CARTESIAN_POINT('',(7.937500000005,0.,-146.05));
#654=CARTESIAN_POINT('',(0.,0.,-146.05));
#655=CARTESIAN_POINT('',(-7.937500000005,0.,-146.05));
#656=CARTESIAN_POINT('',(-8.23,0.,-146.3228438198));
#657=CARTESIAN_POINT('',(0.,0.,-146.3228438198));
#658=CARTESIAN_POINT('',(0.,0.,-146.05));
#659=CARTESIAN_POINT('',(0.,0.,-146.3228438198));
#660=CARTESIAN_POINT('',(0.,0.,-1.));
#661=CARTESIAN_POINT('',(0.,7.9375,-1.));
#662=CARTESIAN_POINT('',(-7.9375,0.,-1.));
#663=CARTESIAN_POINT('',(0.,0.,-1.));
#664=CARTESIAN_POINT('',(7.9375,-6.800763546449E-14,-1.));
#665=CARTESIAN_POINT('',(7.937500000002,0.,-146.05));
#666=CARTESIAN_POINT('',(-7.937500000002,0.,-146.05));
#667=CARTESIAN_POINT('',(0.,0.,8.73125));
#668=CARTESIAN_POINT('',(0.,0.,-1.));
#669=CARTESIAN_POINT('',(0.,-7.9375,-1.));
#670=CARTESIAN_POINT('',(0.,0.,-1.));
#671=CARTESIAN_POINT('',(0.,0.,8.73125));
#672=CARTESIAN_POINT('',(6.9375,-7.974860491466E-14,0.));
#673=CARTESIAN_POINT('',(6.9375,-7.974860491466E-14,0.));
#674=CARTESIAN_POINT('',(0.,0.,0.));
#675=CARTESIAN_POINT('',(-6.9375,1.146651190391E-13,0.));
#676=CARTESIAN_POINT('',(-6.9375,1.146651190391E-13,0.));
#677=CARTESIAN_POINT('',(0.,0.,-0.5));
#678=CARTESIAN_POINT('',(0.,0.,0.));
#679=CARTESIAN_POINT('',(0.,0.,-0.5));
#680=CARTESIAN_POINT('',(0.,0.,0.));
#681=MECHANICAL_DESIGN_GEOMETRIC_PRESENTATION_REPRESENTATION('',(#345,#346,
#347,#348,#349,#350,#351,#352,#353,#354,#355,#356,#357,#358,#359,#360,#361,
#362,#363,#364,#365),#682);
#682=(
GEOMETRIC_REPRESENTATION_CONTEXT(3)
GLOBAL_UNCERTAINTY_ASSIGNED_CONTEXT((#683))
GLOBAL_UNIT_ASSIGNED_CONTEXT((#689,#685,#684))
REPRESENTATION_CONTEXT('AQXUR112SA10L_IR0_031',
'TOP_LEVEL_ASSEMBLY_PART')
);
#683=UNCERTAINTY_MEASURE_WITH_UNIT(LENGTH_MEASURE(2.E-5),#689,
'DISTANCE_ACCURACY_VALUE','Maximum Tolerance applied to model');
#684=(
NAMED_UNIT(*)
SI_UNIT($,.STERADIAN.)
SOLID_ANGLE_UNIT()
);
#685=(
CONVERSION_BASED_UNIT('DEGREE',#687)
NAMED_UNIT(#686)
PLANE_ANGLE_UNIT()
);
#686=DIMENSIONAL_EXPONENTS(0.,0.,0.,0.,0.,0.,0.);
#687=PLANE_ANGLE_MEASURE_WITH_UNIT(PLANE_ANGLE_MEASURE(0.0174532925),#688);
#688=(
NAMED_UNIT(*)
PLANE_ANGLE_UNIT()
SI_UNIT($,.RADIAN.)
);
#689=(
LENGTH_UNIT()
NAMED_UNIT(*)
SI_UNIT(.MILLI.,.METRE.)
);
ENDSEC;
END-ISO-10303-21;
