ISO-10303-21;
HEADER;
/* Generated by software containing ST-Developer
 * from STEP Tools, Inc. (www.steptools.com) 
 */
/* OPTION: using custom schema-name function */

FILE_DESCRIPTION(
/* description */ (''),
/* implementation_level */ '2;1');

FILE_NAME(
/* name */ 'TP110308N.stp',
/* time_stamp */ '2021-11-11T11:52:00+09:00',
/* author */ (''),
/* organization */ (''),
/* preprocessor_version */ 'ST-DEVELOPER v16',
/* originating_system */ 'SIEMENS PLM Software NX 10.0',
/* authorisation */ '');

FILE_SCHEMA (('AUTOMOTIVE_DESIGN { 1 0 10303 214 3 1 1 1 }'));
ENDSEC;

DATA;
#10=CONSTRUCTIVE_GEOMETRY_REPRESENTATION_RELATIONSHIP(
'supplemental geometry','',#26,#11);
#11=CONSTRUCTIVE_GEOMETRY_REPRESENTATION('supplemental geometry',(#331,
#332,#333),#536);
#12=GEOMETRICALLY_BOUNDED_WIREFRAME_SHAPE_REPRESENTATION(
'TP110308N-None',(#27),#536);
#13=SHAPE_REPRESENTATION_RELATIONSHIP('None',
'relationship between TP110308N-None and TP110308N-None',#26,#15);
#14=SHAPE_REPRESENTATION_RELATIONSHIP('None',
'relationship between TP110308N-None and TP110308N-None',#26,#12);
#15=ADVANCED_BREP_SHAPE_REPRESENTATION('TP110308N-None',(#33),#536);
#16=SHAPE_DEFINITION_REPRESENTATION(#17,#26);
#17=PRODUCT_DEFINITION_SHAPE('','',#18);
#18=PRODUCT_DEFINITION('part definition','',#20,#19);
#19=PRODUCT_DEFINITION_CONTEXT('part definition',#25,'design');
#20=PRODUCT_DEFINITION_FORMATION_WITH_SPECIFIED_SOURCE(' ',' ',#22,
 .NOT_KNOWN.);
#21=PRODUCT_RELATED_PRODUCT_CATEGORY('part','',(#22));
#22=PRODUCT('TP110308L','TP110308L','NOT SPECIFIED',(#23));
#23=PRODUCT_CONTEXT('',#25,'mechanical');
#24=APPLICATION_PROTOCOL_DEFINITION('international standard',
'automotive_design',2010,#25);
#25=APPLICATION_CONTEXT(
'core data for automotive mechanical design processes');
#26=SHAPE_REPRESENTATION('TP110308N-None',(#327),#536);
#27=GEOMETRIC_CURVE_SET('None',(#458,#459,#250,#251,#252,#253,#254,#255));
#28=SURFACE_STYLE_USAGE(.BOTH.,#29);
#29=SURFACE_SIDE_STYLE('',(#30));
#30=SURFACE_STYLE_FILL_AREA(#31);
#31=FILL_AREA_STYLE('',(#32));
#32=FILL_AREA_STYLE_COLOUR('',#212);
#33=MANIFOLD_SOLID_BREP('',#34);
#34=CLOSED_SHELL('',(#56,#57,#58,#59,#60,#61,#62,#63,#64,#65,#66,#67,#68,
#69));
#35=TOROIDAL_SURFACE('',#359,3.5,1.8);
#36=TOROIDAL_SURFACE('',#361,3.5,1.8);
#37=CYLINDRICAL_SURFACE('',#353,1.7);
#38=CYLINDRICAL_SURFACE('',#355,1.7);
#39=CONICAL_SURFACE('',#342,0.490935308471,11.);
#40=CONICAL_SURFACE('',#345,0.490935308471,11.);
#41=CONICAL_SURFACE('',#348,0.490935308471,11.);
#42=CONICAL_SURFACE('',#362,2.250568634689,39.);
#43=CONICAL_SURFACE('',#363,2.250568634689,39.);
#44=FACE_OUTER_BOUND('',#81,.T.);
#45=FACE_OUTER_BOUND('',#82,.T.);
#46=FACE_OUTER_BOUND('',#83,.T.);
#47=FACE_OUTER_BOUND('',#84,.T.);
#48=FACE_OUTER_BOUND('',#85,.T.);
#49=FACE_OUTER_BOUND('',#86,.T.);
#50=FACE_OUTER_BOUND('',#89,.T.);
#51=FACE_OUTER_BOUND('',#90,.T.);
#52=FACE_OUTER_BOUND('',#91,.T.);
#53=FACE_OUTER_BOUND('',#92,.T.);
#54=FACE_OUTER_BOUND('',#93,.T.);
#55=FACE_OUTER_BOUND('',#94,.T.);
#56=ADVANCED_FACE('',(#75,#76),#70,.T.);
#57=ADVANCED_FACE('',(#44),#71,.T.);
#58=ADVANCED_FACE('',(#45),#39,.T.);
#59=ADVANCED_FACE('',(#46),#72,.T.);
#60=ADVANCED_FACE('',(#47),#40,.T.);
#61=ADVANCED_FACE('',(#48),#73,.T.);
#62=ADVANCED_FACE('',(#49),#41,.T.);
#63=ADVANCED_FACE('',(#77,#78),#74,.F.);
#64=ADVANCED_FACE('',(#50),#37,.F.);
#65=ADVANCED_FACE('',(#51),#38,.F.);
#66=ADVANCED_FACE('',(#52),#35,.T.);
#67=ADVANCED_FACE('',(#53),#36,.T.);
#68=ADVANCED_FACE('',(#54),#42,.F.);
#69=ADVANCED_FACE('',(#55),#43,.F.);
#70=PLANE('',#339);
#71=PLANE('',#340);
#72=PLANE('',#343);
#73=PLANE('',#346);
#74=PLANE('',#351);
#75=FACE_BOUND('',#79,.T.);
#76=FACE_BOUND('',#80,.T.);
#77=FACE_BOUND('',#87,.T.);
#78=FACE_BOUND('',#88,.T.);
#79=EDGE_LOOP('',(#95,#96,#97,#98,#99,#100));
#80=EDGE_LOOP('',(#101,#102));
#81=EDGE_LOOP('',(#103,#104,#105,#106));
#82=EDGE_LOOP('',(#107,#108,#109,#110));
#83=EDGE_LOOP('',(#111,#112,#113,#114));
#84=EDGE_LOOP('',(#115,#116,#117,#118));
#85=EDGE_LOOP('',(#119,#120,#121,#122));
#86=EDGE_LOOP('',(#123,#124,#125,#126));
#87=EDGE_LOOP('',(#127,#128,#129,#130,#131,#132));
#88=EDGE_LOOP('',(#133,#134));
#89=EDGE_LOOP('',(#135,#136,#137,#138));
#90=EDGE_LOOP('',(#139,#140,#141,#142));
#91=EDGE_LOOP('',(#143,#144,#145,#146));
#92=EDGE_LOOP('',(#147,#148,#149,#150));
#93=EDGE_LOOP('',(#151,#152,#153,#154));
#94=EDGE_LOOP('',(#155,#156,#157,#158));
#95=ORIENTED_EDGE('',*,*,#179,.F.);
#96=ORIENTED_EDGE('',*,*,#180,.F.);
#97=ORIENTED_EDGE('',*,*,#181,.F.);
#98=ORIENTED_EDGE('',*,*,#182,.F.);
#99=ORIENTED_EDGE('',*,*,#183,.F.);
#100=ORIENTED_EDGE('',*,*,#184,.F.);
#101=ORIENTED_EDGE('',*,*,#185,.F.);
#102=ORIENTED_EDGE('',*,*,#186,.F.);
#103=ORIENTED_EDGE('',*,*,#187,.T.);
#104=ORIENTED_EDGE('',*,*,#188,.T.);
#105=ORIENTED_EDGE('',*,*,#189,.T.);
#106=ORIENTED_EDGE('',*,*,#184,.T.);
#107=ORIENTED_EDGE('',*,*,#189,.F.);
#108=ORIENTED_EDGE('',*,*,#190,.T.);
#109=ORIENTED_EDGE('',*,*,#191,.F.);
#110=ORIENTED_EDGE('',*,*,#179,.T.);
#111=ORIENTED_EDGE('',*,*,#191,.T.);
#112=ORIENTED_EDGE('',*,*,#192,.F.);
#113=ORIENTED_EDGE('',*,*,#193,.T.);
#114=ORIENTED_EDGE('',*,*,#180,.T.);
#115=ORIENTED_EDGE('',*,*,#193,.F.);
#116=ORIENTED_EDGE('',*,*,#194,.T.);
#117=ORIENTED_EDGE('',*,*,#195,.F.);
#118=ORIENTED_EDGE('',*,*,#181,.T.);
#119=ORIENTED_EDGE('',*,*,#195,.T.);
#120=ORIENTED_EDGE('',*,*,#196,.T.);
#121=ORIENTED_EDGE('',*,*,#197,.T.);
#122=ORIENTED_EDGE('',*,*,#182,.T.);
#123=ORIENTED_EDGE('',*,*,#197,.F.);
#124=ORIENTED_EDGE('',*,*,#198,.T.);
#125=ORIENTED_EDGE('',*,*,#187,.F.);
#126=ORIENTED_EDGE('',*,*,#183,.T.);
#127=ORIENTED_EDGE('',*,*,#198,.F.);
#128=ORIENTED_EDGE('',*,*,#196,.F.);
#129=ORIENTED_EDGE('',*,*,#194,.F.);
#130=ORIENTED_EDGE('',*,*,#192,.T.);
#131=ORIENTED_EDGE('',*,*,#190,.F.);
#132=ORIENTED_EDGE('',*,*,#188,.F.);
#133=ORIENTED_EDGE('',*,*,#199,.F.);
#134=ORIENTED_EDGE('',*,*,#200,.F.);
#135=ORIENTED_EDGE('',*,*,#201,.T.);
#136=ORIENTED_EDGE('',*,*,#202,.T.);
#137=ORIENTED_EDGE('',*,*,#203,.F.);
#138=ORIENTED_EDGE('',*,*,#200,.T.);
#139=ORIENTED_EDGE('',*,*,#203,.T.);
#140=ORIENTED_EDGE('',*,*,#204,.T.);
#141=ORIENTED_EDGE('',*,*,#201,.F.);
#142=ORIENTED_EDGE('',*,*,#199,.T.);
#143=ORIENTED_EDGE('',*,*,#205,.F.);
#144=ORIENTED_EDGE('',*,*,#206,.T.);
#145=ORIENTED_EDGE('',*,*,#204,.F.);
#146=ORIENTED_EDGE('',*,*,#207,.F.);
#147=ORIENTED_EDGE('',*,*,#202,.F.);
#148=ORIENTED_EDGE('',*,*,#206,.F.);
#149=ORIENTED_EDGE('',*,*,#208,.F.);
#150=ORIENTED_EDGE('',*,*,#207,.T.);
#151=ORIENTED_EDGE('',*,*,#209,.F.);
#152=ORIENTED_EDGE('',*,*,#208,.T.);
#153=ORIENTED_EDGE('',*,*,#210,.T.);
#154=ORIENTED_EDGE('',*,*,#186,.T.);
#155=ORIENTED_EDGE('',*,*,#210,.F.);
#156=ORIENTED_EDGE('',*,*,#205,.T.);
#157=ORIENTED_EDGE('',*,*,#209,.T.);
#158=ORIENTED_EDGE('',*,*,#185,.T.);
#159=VERTEX_POINT('',#470);
#160=VERTEX_POINT('',#471);
#161=VERTEX_POINT('',#473);
#162=VERTEX_POINT('',#475);
#163=VERTEX_POINT('',#477);
#164=VERTEX_POINT('',#479);
#165=VERTEX_POINT('',#482);
#166=VERTEX_POINT('',#483);
#167=VERTEX_POINT('',#487);
#168=VERTEX_POINT('',#489);
#169=VERTEX_POINT('',#493);
#170=VERTEX_POINT('',#497);
#171=VERTEX_POINT('',#501);
#172=VERTEX_POINT('',#505);
#173=VERTEX_POINT('',#511);
#174=VERTEX_POINT('',#512);
#175=VERTEX_POINT('',#516);
#176=VERTEX_POINT('',#518);
#177=VERTEX_POINT('',#524);
#178=VERTEX_POINT('',#525);
#179=EDGE_CURVE('',#159,#160,#216,.T.);
#180=EDGE_CURVE('',#161,#159,#259,.T.);
#181=EDGE_CURVE('',#162,#161,#217,.T.);
#182=EDGE_CURVE('',#163,#162,#260,.T.);
#183=EDGE_CURVE('',#164,#163,#218,.T.);
#184=EDGE_CURVE('',#160,#164,#261,.T.);
#185=EDGE_CURVE('',#165,#166,#219,.T.);
#186=EDGE_CURVE('',#166,#165,#220,.T.);
#187=EDGE_CURVE('',#164,#167,#262,.T.);
#188=EDGE_CURVE('',#167,#168,#263,.T.);
#189=EDGE_CURVE('',#168,#160,#264,.T.);
#190=EDGE_CURVE('',#168,#169,#221,.T.);
#191=EDGE_CURVE('',#159,#169,#265,.T.);
#192=EDGE_CURVE('',#170,#169,#266,.T.);
#193=EDGE_CURVE('',#170,#161,#267,.T.);
#194=EDGE_CURVE('',#170,#171,#222,.T.);
#195=EDGE_CURVE('',#162,#171,#268,.T.);
#196=EDGE_CURVE('',#171,#172,#269,.T.);
#197=EDGE_CURVE('',#172,#163,#270,.T.);
#198=EDGE_CURVE('',#172,#167,#223,.T.);
#199=EDGE_CURVE('',#173,#174,#224,.T.);
#200=EDGE_CURVE('',#174,#173,#225,.T.);
#201=EDGE_CURVE('',#173,#175,#271,.T.);
#202=EDGE_CURVE('',#175,#176,#226,.T.);
#203=EDGE_CURVE('',#174,#176,#272,.T.);
#204=EDGE_CURVE('',#176,#175,#227,.T.);
#205=EDGE_CURVE('',#177,#178,#228,.T.);
#206=EDGE_CURVE('',#177,#175,#229,.T.);
#207=EDGE_CURVE('',#178,#176,#230,.T.);
#208=EDGE_CURVE('',#178,#177,#231,.T.);
#209=EDGE_CURVE('',#178,#165,#273,.T.);
#210=EDGE_CURVE('',#177,#166,#274,.T.);
#211=COLOUR_RGB('Strong Stone',0.576470588235294,0.54508278019379,0.392156862745098);
#212=COLOUR_RGB('cutting part',0.8,0.8,0.8);
#213=CIRCLE('',#328,0.8);
#214=CIRCLE('',#329,0.8);
#215=CIRCLE('',#330,0.8);
#216=CIRCLE('',#334,0.8);
#217=CIRCLE('',#335,0.8);
#218=CIRCLE('',#336,0.8);
#219=CIRCLE('',#337,2.4);
#220=CIRCLE('',#338,2.4);
#221=CIRCLE('',#341,0.181870616942);
#222=CIRCLE('',#344,0.181870616942);
#223=CIRCLE('',#347,0.181870616942);
#224=CIRCLE('',#349,1.7);
#225=CIRCLE('',#350,1.7);
#226=CIRCLE('',#352,1.7);
#227=CIRCLE('',#354,1.7);
#228=CIRCLE('',#356,2.101137269377);
#229=CIRCLE('',#357,1.8);
#230=CIRCLE('',#358,1.8);
#231=CIRCLE('',#360,2.101137269377);
#232=CURVE_STYLE('',#241,POSITIVE_LENGTH_MEASURE(0.18),#326);
#233=CURVE_STYLE('',#242,POSITIVE_LENGTH_MEASURE(0.18),#326);
#234=CURVE_STYLE('',#243,POSITIVE_LENGTH_MEASURE(0.18),#326);
#235=CURVE_STYLE('',#244,POSITIVE_LENGTH_MEASURE(0.18),#326);
#236=CURVE_STYLE('',#245,POSITIVE_LENGTH_MEASURE(0.18),#326);
#237=CURVE_STYLE('',#246,POSITIVE_LENGTH_MEASURE(0.18),#326);
#238=CURVE_STYLE('',#247,POSITIVE_LENGTH_MEASURE(0.13),#325);
#239=CURVE_STYLE('',#248,POSITIVE_LENGTH_MEASURE(0.13),#325);
#240=CURVE_STYLE('',#249,POSITIVE_LENGTH_MEASURE(0.13),#211);
#241=DRAUGHTING_PRE_DEFINED_CURVE_FONT('continuous');
#242=DRAUGHTING_PRE_DEFINED_CURVE_FONT('continuous');
#243=DRAUGHTING_PRE_DEFINED_CURVE_FONT('continuous');
#244=DRAUGHTING_PRE_DEFINED_CURVE_FONT('continuous');
#245=DRAUGHTING_PRE_DEFINED_CURVE_FONT('continuous');
#246=DRAUGHTING_PRE_DEFINED_CURVE_FONT('continuous');
#247=DRAUGHTING_PRE_DEFINED_CURVE_FONT('continuous');
#248=DRAUGHTING_PRE_DEFINED_CURVE_FONT('continuous');
#249=DRAUGHTING_PRE_DEFINED_CURVE_FONT('continuous');
#250=TRIMMED_CURVE('',#256,(PARAMETER_VALUE(0.)),(PARAMETER_VALUE(1.)),
 .T.,.PARAMETER.);
#251=TRIMMED_CURVE('',#257,(PARAMETER_VALUE(0.)),(PARAMETER_VALUE(1.)),
 .T.,.PARAMETER.);
#252=TRIMMED_CURVE('',#258,(PARAMETER_VALUE(0.)),(PARAMETER_VALUE(1.)),
 .T.,.PARAMETER.);
#253=TRIMMED_CURVE('',#213,(PARAMETER_VALUE(0.)),(PARAMETER_VALUE(120.0000000001)),
 .T.,.PARAMETER.);
#254=TRIMMED_CURVE('',#214,(PARAMETER_VALUE(0.)),(PARAMETER_VALUE(120.0000000003)),
 .T.,.PARAMETER.);
#255=TRIMMED_CURVE('',#215,(PARAMETER_VALUE(0.)),(PARAMETER_VALUE(120.0000000001)),
 .T.,.PARAMETER.);
#256=LINE('',#460,#275);
#257=LINE('',#461,#276);
#258=LINE('',#462,#277);
#259=LINE('',#472,#278);
#260=LINE('',#476,#279);
#261=LINE('',#480,#280);
#262=LINE('',#486,#281);
#263=LINE('',#488,#282);
#264=LINE('',#490,#283);
#265=LINE('',#494,#284);
#266=LINE('',#496,#285);
#267=LINE('',#498,#286);
#268=LINE('',#502,#287);
#269=LINE('',#504,#288);
#270=LINE('',#506,#289);
#271=LINE('',#515,#290);
#272=LINE('',#519,#291);
#273=LINE('',#531,#292);
#274=LINE('',#532,#293);
#275=VECTOR('',#366,8.22724133595072);
#276=VECTOR('',#367,8.22724133594572);
#277=VECTOR('',#368,8.227241335952);
#278=VECTOR('',#383,1.);
#279=VECTOR('',#386,1.);
#280=VECTOR('',#389,1.);
#281=VECTOR('',#396,1.);
#282=VECTOR('',#397,1.);
#283=VECTOR('',#398,1.);
#284=VECTOR('',#403,1.);
#285=VECTOR('',#406,1.);
#286=VECTOR('',#407,1.);
#287=VECTOR('',#412,1.);
#288=VECTOR('',#415,1.);
#289=VECTOR('',#416,1.);
#290=VECTOR('',#429,1.);
#291=VECTOR('',#432,1.);
#292=VECTOR('',#451,1.);
#293=VECTOR('',#452,1.);
#294=PRESENTATION_LAYER_ASSIGNMENT('5','Layer 5',(#458,#331));
#295=PRESENTATION_LAYER_ASSIGNMENT('1','Layer 1',(#459,#332,#333,#33));
#296=PRESENTATION_LAYER_ASSIGNMENT('2','Layer 2',(#250,#251,#252,#253,#254,
#255));
#297=STYLED_ITEM('',(#309),#458);
#298=STYLED_ITEM('',(#310),#459);
#299=STYLED_ITEM('',(#311),#250);
#300=STYLED_ITEM('',(#312),#251);
#301=STYLED_ITEM('',(#313),#252);
#302=STYLED_ITEM('',(#314),#253);
#303=STYLED_ITEM('',(#315),#254);
#304=STYLED_ITEM('',(#316),#255);
#305=STYLED_ITEM('',(#317),#331);
#306=STYLED_ITEM('',(#318),#332);
#307=STYLED_ITEM('',(#319),#333);
#308=STYLED_ITEM('',(#320),#33);
#309=PRESENTATION_STYLE_ASSIGNMENT((#321));
#310=PRESENTATION_STYLE_ASSIGNMENT((#322));
#311=PRESENTATION_STYLE_ASSIGNMENT((#232));
#312=PRESENTATION_STYLE_ASSIGNMENT((#233));
#313=PRESENTATION_STYLE_ASSIGNMENT((#234));
#314=PRESENTATION_STYLE_ASSIGNMENT((#235));
#315=PRESENTATION_STYLE_ASSIGNMENT((#236));
#316=PRESENTATION_STYLE_ASSIGNMENT((#237));
#317=PRESENTATION_STYLE_ASSIGNMENT((#238));
#318=PRESENTATION_STYLE_ASSIGNMENT((#239));
#319=PRESENTATION_STYLE_ASSIGNMENT((#240));
#320=PRESENTATION_STYLE_ASSIGNMENT((#28));
#321=POINT_STYLE('',#323,POSITIVE_LENGTH_MEASURE(3.),#325);
#322=POINT_STYLE('',#324,POSITIVE_LENGTH_MEASURE(3.),#325);
#323=PRE_DEFINED_POINT_MARKER_SYMBOL('plus');
#324=PRE_DEFINED_POINT_MARKER_SYMBOL('plus');
#325=DRAUGHTING_PRE_DEFINED_COLOUR('yellow');
#326=DRAUGHTING_PRE_DEFINED_COLOUR('blue');
#327=AXIS2_PLACEMENT_3D('',#457,#364,#365);
#328=AXIS2_PLACEMENT_3D('',#463,#369,#370);
#329=AXIS2_PLACEMENT_3D('',#464,#371,#372);
#330=AXIS2_PLACEMENT_3D('',#465,#373,#374);
#331=AXIS2_PLACEMENT_3D('MCS',#466,#375,#376);
#332=AXIS2_PLACEMENT_3D('PCS',#467,#377,#378);
#333=AXIS2_PLACEMENT_3D('',#468,#379,#380);
#334=AXIS2_PLACEMENT_3D('',#469,#381,#382);
#335=AXIS2_PLACEMENT_3D('',#474,#384,#385);
#336=AXIS2_PLACEMENT_3D('',#478,#387,#388);
#337=AXIS2_PLACEMENT_3D('',#481,#390,#391);
#338=AXIS2_PLACEMENT_3D('',#484,#392,#393);
#339=AXIS2_PLACEMENT_3D('',#485,#394,#395);
#340=AXIS2_PLACEMENT_3D('',#491,#399,#400);
#341=AXIS2_PLACEMENT_3D('',#492,#401,#402);
#342=AXIS2_PLACEMENT_3D('',#495,#404,#405);
#343=AXIS2_PLACEMENT_3D('',#499,#408,#409);
#344=AXIS2_PLACEMENT_3D('',#500,#410,#411);
#345=AXIS2_PLACEMENT_3D('',#503,#413,#414);
#346=AXIS2_PLACEMENT_3D('',#507,#417,#418);
#347=AXIS2_PLACEMENT_3D('',#508,#419,#420);
#348=AXIS2_PLACEMENT_3D('',#509,#421,#422);
#349=AXIS2_PLACEMENT_3D('',#510,#423,#424);
#350=AXIS2_PLACEMENT_3D('',#513,#425,#426);
#351=AXIS2_PLACEMENT_3D('',#514,#427,#428);
#352=AXIS2_PLACEMENT_3D('',#517,#430,#431);
#353=AXIS2_PLACEMENT_3D('',#520,#433,#434);
#354=AXIS2_PLACEMENT_3D('',#521,#435,#436);
#355=AXIS2_PLACEMENT_3D('',#522,#437,#438);
#356=AXIS2_PLACEMENT_3D('',#523,#439,#440);
#357=AXIS2_PLACEMENT_3D('',#526,#441,#442);
#358=AXIS2_PLACEMENT_3D('',#527,#443,#444);
#359=AXIS2_PLACEMENT_3D('',#528,#445,#446);
#360=AXIS2_PLACEMENT_3D('',#529,#447,#448);
#361=AXIS2_PLACEMENT_3D('',#530,#449,#450);
#362=AXIS2_PLACEMENT_3D('',#533,#453,#454);
#363=AXIS2_PLACEMENT_3D('',#534,#455,#456);
#364=DIRECTION('',(0.,0.,1.));
#365=DIRECTION('',(1.,0.,0.));
#366=DIRECTION('',(0.500000000000017,0.866025403784429,0.));
#367=DIRECTION('',(0.500000000000017,-0.866025403784429,0.));
#368=DIRECTION('',(-1.,0.,0.));
#369=DIRECTION('',(0.,0.,-1.));
#370=DIRECTION('',(-0.866025403784094,0.500000000000597,0.));
#371=DIRECTION('',(0.,0.,-1.));
#372=DIRECTION('',(0.866025403781675,0.500000000004786,0.));
#373=DIRECTION('',(0.,0.,-1.));
#374=DIRECTION('',(0.,-1.,0.));
#375=DIRECTION('',(0.,0.,1.));
#376=DIRECTION('',(1.,0.,0.));
#377=DIRECTION('',(0.,0.,1.));
#378=DIRECTION('',(1.,0.,0.));
#379=DIRECTION('',(0.,0.,1.));
#380=DIRECTION('',(1.,0.,0.));
#381=DIRECTION('',(0.,0.,-1.));
#382=DIRECTION('',(0.,-1.,0.));
#383=DIRECTION('',(-1.,0.,0.));
#384=DIRECTION('',(0.,0.,-1.));
#385=DIRECTION('',(0.866025403781675,0.500000000004786,0.));
#386=DIRECTION('',(0.500000000000017,-0.866025403784429,0.));
#387=DIRECTION('',(0.,0.,-1.));
#388=DIRECTION('',(-0.866025403784094,0.500000000000597,0.));
#389=DIRECTION('',(0.500000000000017,0.866025403784429,0.));
#390=DIRECTION('',(0.,0.,1.));
#391=DIRECTION('',(1.,0.,0.));
#392=DIRECTION('',(0.,0.,1.));
#393=DIRECTION('',(-1.,0.,0.));
#394=DIRECTION('',(0.,0.,1.));
#395=DIRECTION('',(-1.,0.,0.));
#396=DIRECTION('',(0.165245437266596,-0.0954044976882877,-0.981627183447676));
#397=DIRECTION('',(-0.500000000000017,-0.866025403784429,0.));
#398=DIRECTION('',(-0.165245437266694,0.0954044976882663,0.981627183447662));
#399=DIRECTION('',(-0.85011407791108,0.490813591723789,-0.190808995376496));
#400=DIRECTION('',(0.499999999999953,0.866025403784465,-1.42145002321606E-14));
#401=DIRECTION('',(0.,0.,1.));
#402=DIRECTION('',(-0.866025403780285,0.500000000007191,0.));
#403=DIRECTION('',(-7.78642336070079E-14,0.190808995376495,-0.981627183447674));
#404=DIRECTION('',(0.,0.,1.));
#405=DIRECTION('',(0.,-1.,1.01259062594456E-16));
#406=DIRECTION('',(-1.,0.,0.));
#407=DIRECTION('',(-7.78642336070079E-14,-0.190808995376495,0.981627183447674));
#408=DIRECTION('',(0.,-0.981627183447674,-0.190808995376495));
#409=DIRECTION('',(-1.,0.,0.));
#410=DIRECTION('',(0.,0.,1.));
#411=DIRECTION('',(4.18251313491951E-12,-0.999999999999999,0.));
#412=DIRECTION('',(-0.165245437266495,-0.0954044976885469,-0.981627183447668));
#413=DIRECTION('',(0.,0.,1.));
#414=DIRECTION('',(0.866025403784429,0.500000000000017,1.01259062594456E-16));
#415=DIRECTION('',(-0.500000000000017,0.866025403784429,0.));
#416=DIRECTION('',(0.165245437266794,0.0954044976880467,0.981627183447666));
#417=DIRECTION('',(0.85011407791108,0.490813591723789,-0.190808995376496));
#418=DIRECTION('',(0.499999999999953,-0.866025403784465,1.42145002321606E-14));
#419=DIRECTION('',(0.,0.,1.));
#420=DIRECTION('',(0.866025403782593,0.500000000003195,0.));
#421=DIRECTION('',(0.,0.,1.));
#422=DIRECTION('',(-0.866025403784429,0.500000000000017,1.01259062594456E-16));
#423=DIRECTION('',(0.,0.,-1.));
#424=DIRECTION('',(-1.,0.,0.));
#425=DIRECTION('',(0.,0.,-1.));
#426=DIRECTION('',(1.,0.,0.));
#427=DIRECTION('',(0.,0.,1.));
#428=DIRECTION('',(-1.,0.,0.));
#429=DIRECTION('',(0.,0.,1.));
#430=DIRECTION('',(0.,0.,1.));
#431=DIRECTION('',(-1.,0.,0.));
#432=DIRECTION('',(0.,0.,1.));
#433=DIRECTION('',(0.,0.,-1.));
#434=DIRECTION('',(1.,0.,0.));
#435=DIRECTION('',(0.,0.,1.));
#436=DIRECTION('',(1.,0.,0.));
#437=DIRECTION('',(0.,0.,-1.));
#438=DIRECTION('',(1.,0.,0.));
#439=DIRECTION('',(0.,0.,-1.));
#440=DIRECTION('',(-1.,0.,0.));
#441=DIRECTION('',(0.,1.,0.));
#442=DIRECTION('',(0.777145961457001,0.,0.629320391049801));
#443=DIRECTION('',(0.,-1.,0.));
#444=DIRECTION('',(-0.777145961457001,0.,0.629320391049801));
#445=DIRECTION('',(0.,0.,-1.));
#446=DIRECTION('',(1.,0.,0.));
#447=DIRECTION('',(0.,0.,-1.));
#448=DIRECTION('',(1.,0.,0.));
#449=DIRECTION('',(0.,0.,-1.));
#450=DIRECTION('',(1.,0.,0.));
#451=DIRECTION('',(0.629320391049801,0.,0.777145961457001));
#452=DIRECTION('',(-0.629320391049801,0.,0.777145961457001));
#453=DIRECTION('',(0.,0.,1.));
#454=DIRECTION('',(-1.,0.,-3.32790488093865E-17));
#455=DIRECTION('',(0.,0.,1.));
#456=DIRECTION('',(-1.,0.,-3.32790488093865E-17));
#457=CARTESIAN_POINT('',(0.,0.,0.));
#458=CARTESIAN_POINT('',(0.,0.,0.));
#459=CARTESIAN_POINT('',(-5.499261314031,-3.175,0.));
#460=CARTESIAN_POINT('',(-4.806440991003,-1.974999999998,0.));
#461=CARTESIAN_POINT('',(0.6928203230286,5.149999999999,0.));
#462=CARTESIAN_POINT('',(4.113620667976,-3.175,0.));
#463=CARTESIAN_POINT('',(4.44089209850063E-16,4.75,0.));
#464=CARTESIAN_POINT('',(4.113620667976,-2.375,0.));
#465=CARTESIAN_POINT('',(-4.113620667976,-2.375,0.));
#466=CARTESIAN_POINT('',(0.,0.,0.));
#467=CARTESIAN_POINT('',(-5.499261314031,-3.175,0.));
#468=CARTESIAN_POINT('',(0.,0.,0.));
#469=CARTESIAN_POINT('',(-4.113620667976,-2.375,0.));
#470=CARTESIAN_POINT('',(-4.113620667976,-3.175,0.));
#471=CARTESIAN_POINT('',(-4.806440991003,-1.975,0.));
#472=CARTESIAN_POINT('',(4.113620667976,-3.175,0.));
#473=CARTESIAN_POINT('',(4.113620667976,-3.175,0.));
#474=CARTESIAN_POINT('',(4.113620667976,-2.375,0.));
#475=CARTESIAN_POINT('',(4.806440991003,-1.974999999999,3.707578009518E-14));
#476=CARTESIAN_POINT('',(0.6928203230278,5.149999999999,2.422212794312E-14));
#477=CARTESIAN_POINT('',(0.6928203230284,5.149999999998,0.));
#478=CARTESIAN_POINT('',(0.,4.75,0.));
#479=CARTESIAN_POINT('',(-0.6928203230275,5.15,0.));
#480=CARTESIAN_POINT('',(-4.806440991003,-1.975,0.));
#481=CARTESIAN_POINT('',(0.,0.,-1.167954621906E-13));
#482=CARTESIAN_POINT('',(2.4,0.,-1.167954621906E-13));
#483=CARTESIAN_POINT('',(-2.4,0.,-1.167954621906E-13));
#484=CARTESIAN_POINT('',(0.,0.,-1.167954621906E-13));
#485=CARTESIAN_POINT('',(0.,0.,0.));
#486=CARTESIAN_POINT('',(-0.6928203230275,5.15,0.));
#487=CARTESIAN_POINT('',(-0.1575045744738,4.840935308471,-3.18));
#488=CARTESIAN_POINT('',(-0.1575045744738,4.840935308471,-3.18));
#489=CARTESIAN_POINT('',(-4.27112524245,-2.284064691529,-3.18));
#490=CARTESIAN_POINT('',(-4.27112524245,-2.284064691529,-3.18));
#491=CARTESIAN_POINT('',(0.560002400096,7.319952609327,0.));
#492=CARTESIAN_POINT('',(-4.113620667976,-2.375,-3.18));
#493=CARTESIAN_POINT('',(-4.113620667977,-2.556870616942,-3.18));
#494=CARTESIAN_POINT('',(-4.113620667976,-3.175,0.));
#495=CARTESIAN_POINT('',(-4.113620667976,-2.375,-1.59));
#496=CARTESIAN_POINT('',(4.113620667976,-2.556870616942,-3.18));
#497=CARTESIAN_POINT('',(4.113620667976,-2.556870616942,-3.18));
#498=CARTESIAN_POINT('',(4.113620667976,-2.556870616942,-3.18));
#499=CARTESIAN_POINT('',(-6.619266114223,-3.175,0.));
#500=CARTESIAN_POINT('',(4.113620667976,-2.375,-3.18));
#501=CARTESIAN_POINT('',(4.271125242449,-2.284064691528,-3.18));
#502=CARTESIAN_POINT('',(4.806440991003,-1.974999999999,3.707578009518E-14));
#503=CARTESIAN_POINT('',(4.113620667976,-2.375,-1.59));
#504=CARTESIAN_POINT('',(4.27112524245,-2.284064691529,-3.18));
#505=CARTESIAN_POINT('',(0.1575045744736,4.840935308471,-3.18));
#506=CARTESIAN_POINT('',(0.1575045744736,4.840935308471,-3.18));
#507=CARTESIAN_POINT('',(6.059263714127,-4.144952609327,0.));
#508=CARTESIAN_POINT('',(0.,4.75,-3.18));
#509=CARTESIAN_POINT('',(0.,4.75,-1.59));
#510=CARTESIAN_POINT('',(0.,0.,-3.18));
#511=CARTESIAN_POINT('',(-1.7,0.,-3.18));
#512=CARTESIAN_POINT('',(1.7,0.,-3.18));
#513=CARTESIAN_POINT('',(0.,0.,-3.18));
#514=CARTESIAN_POINT('',(0.,0.,-3.18));
#515=CARTESIAN_POINT('',(-1.7,0.,-1.50184144013));
#516=CARTESIAN_POINT('',(-1.7,0.,-1.50184144013));
#517=CARTESIAN_POINT('',(0.,0.,-1.50184144013));
#518=CARTESIAN_POINT('',(1.7,0.,-1.50184144013));
#519=CARTESIAN_POINT('',(1.7,0.,-1.50184144013));
#520=CARTESIAN_POINT('',(0.,0.,0.159));
#521=CARTESIAN_POINT('',(0.,0.,-1.50184144013));
#522=CARTESIAN_POINT('',(0.,0.,0.159));
#523=CARTESIAN_POINT('',(0.,0.,-0.3690647362404));
#524=CARTESIAN_POINT('',(-2.101137269377,0.,-0.3690647362404));
#525=CARTESIAN_POINT('',(2.101137269377,0.,-0.3690647362404));
#526=CARTESIAN_POINT('',(-3.5,0.,-1.50184144013));
#527=CARTESIAN_POINT('',(3.5,0.,-1.50184144013));
#528=CARTESIAN_POINT('',(0.,0.,-1.50184144013));
#529=CARTESIAN_POINT('',(0.,0.,-0.3690647362404));
#530=CARTESIAN_POINT('',(0.,0.,-1.50184144013));
#531=CARTESIAN_POINT('',(2.4,0.,-7.786364146038E-14));
#532=CARTESIAN_POINT('',(-2.4,0.,-7.786364146038E-14));
#533=CARTESIAN_POINT('',(0.,0.,-0.1845323681203));
#534=CARTESIAN_POINT('',(0.,0.,-0.1845323681203));
#535=MECHANICAL_DESIGN_GEOMETRIC_PRESENTATION_REPRESENTATION('',(#297,#298,
#299,#300,#301,#302,#303,#304,#305,#306,#307,#308),#536);
#536=(
GEOMETRIC_REPRESENTATION_CONTEXT(3)
GLOBAL_UNCERTAINTY_ASSIGNED_CONTEXT((#537))
GLOBAL_UNIT_ASSIGNED_CONTEXT((#543,#539,#538))
REPRESENTATION_CONTEXT('TP110308N','TOP_LEVEL_ASSEMBLY_PART')
);
#537=UNCERTAINTY_MEASURE_WITH_UNIT(LENGTH_MEASURE(2.E-5),#543,
'DISTANCE_ACCURACY_VALUE','Maximum Tolerance applied to model');
#538=(
NAMED_UNIT(*)
SI_UNIT($,.STERADIAN.)
SOLID_ANGLE_UNIT()
);
#539=(
CONVERSION_BASED_UNIT('DEGREE',#541)
NAMED_UNIT(#540)
PLANE_ANGLE_UNIT()
);
#540=DIMENSIONAL_EXPONENTS(0.,0.,0.,0.,0.,0.,0.);
#541=PLANE_ANGLE_MEASURE_WITH_UNIT(PLANE_ANGLE_MEASURE(0.0174532925),#542);
#542=(
NAMED_UNIT(*)
PLANE_ANGLE_UNIT()
SI_UNIT($,.RADIAN.)
);
#543=(
LENGTH_UNIT()
NAMED_UNIT(*)
SI_UNIT(.MILLI.,.METRE.)
);
ENDSEC;
END-ISO-10303-21;
