ISO-10303-21;
HEADER;
/* Generated by software containing ST-Developer
 * from STEP Tools, Inc. (www.steptools.com) 
 */
/* OPTION: using custom schema-name function */

FILE_DESCRIPTION(
/* description */ (''),
/* implementation_level */ '2;1');

FILE_NAME(
/* name */ 'CC0602V3R.stp',
/* time_stamp */ '2021-12-22T08:51:19+09:00',
/* author */ (''),
/* organization */ (''),
/* preprocessor_version */ 'ST-DEVELOPER v16',
/* originating_system */ 'SIEMENS PLM Software NX 10.0',
/* authorisation */ '');

FILE_SCHEMA (('AUTOMOTIVE_DESIGN { 1 0 10303 214 3 1 1 1 }'));
ENDSEC;

DATA;
#10=CONSTRUCTIVE_GEOMETRY_REPRESENTATION_RELATIONSHIP(
'supplemental geometry','',#26,#11);
#11=CONSTRUCTIVE_GEOMETRY_REPRESENTATION('supplemental geometry',(#389,
#390,#391),#619);
#12=GEOMETRICALLY_BOUNDED_WIREFRAME_SHAPE_REPRESENTATION(
'CC0602V3R-None',(#27),#619);
#13=SHAPE_REPRESENTATION_RELATIONSHIP('None',
'relationship between CC0602V3R-None and CC0602V3R-None',#26,#15);
#14=SHAPE_REPRESENTATION_RELATIONSHIP('None',
'relationship between CC0602V3R-None and CC0602V3R-None',#26,#12);
#15=ADVANCED_BREP_SHAPE_REPRESENTATION('CC0602V3R-None',(#33),#619);
#16=SHAPE_DEFINITION_REPRESENTATION(#17,#26);
#17=PRODUCT_DEFINITION_SHAPE('','',#18);
#18=PRODUCT_DEFINITION('part definition','',#20,#19);
#19=PRODUCT_DEFINITION_CONTEXT('part definition',#25,'design');
#20=PRODUCT_DEFINITION_FORMATION_WITH_SPECIFIED_SOURCE(' ',' ',#22,
 .NOT_KNOWN.);
#21=PRODUCT_RELATED_PRODUCT_CATEGORY('part','',(#22));
#22=PRODUCT('CC0602V3L','CC0602V3L','NOT SPECIFIED',(#23));
#23=PRODUCT_CONTEXT('',#25,'mechanical');
#24=APPLICATION_PROTOCOL_DEFINITION('international standard',
'automotive_design',2010,#25);
#25=APPLICATION_CONTEXT(
'core data for automotive mechanical design processes');
#26=SHAPE_REPRESENTATION('CC0602V3R-None',(#384),#619);
#27=GEOMETRIC_CURVE_SET('None',(#527,#528,#283,#284,#285,#286,#287,#288,
#289,#290));
#28=SURFACE_STYLE_USAGE(.BOTH.,#29);
#29=SURFACE_SIDE_STYLE('',(#30));
#30=SURFACE_STYLE_FILL_AREA(#31);
#31=FILL_AREA_STYLE('',(#32));
#32=FILL_AREA_STYLE_COLOUR('',#242);
#33=MANIFOLD_SOLID_BREP('',#34);
#34=CLOSED_SHELL('',(#59,#60,#61,#62,#63,#64,#65,#66,#67,#68,#69,#70,#71,
#72,#73,#74));
#35=TOROIDAL_SURFACE('',#417,3.9,2.5);
#36=TOROIDAL_SURFACE('',#419,3.9,2.5);
#37=CYLINDRICAL_SURFACE('',#411,1.4);
#38=CYLINDRICAL_SURFACE('',#413,1.4);
#39=CYLINDRICAL_SURFACE('',#420,1.875);
#40=CYLINDRICAL_SURFACE('',#421,1.875);
#41=CONICAL_SURFACE('',#399,0.01573124531024,7.);
#42=CONICAL_SURFACE('',#406,0.01573124531024,7.);
#43=CONICAL_SURFACE('',#408,0.01573124531024,7.);
#44=CONICAL_SURFACE('',#409,0.01573124531024,7.);
#45=FACE_OUTER_BOUND('',#87,.T.);
#46=FACE_OUTER_BOUND('',#88,.T.);
#47=FACE_OUTER_BOUND('',#91,.T.);
#48=FACE_OUTER_BOUND('',#92,.T.);
#49=FACE_OUTER_BOUND('',#93,.T.);
#50=FACE_OUTER_BOUND('',#94,.T.);
#51=FACE_OUTER_BOUND('',#95,.T.);
#52=FACE_OUTER_BOUND('',#96,.T.);
#53=FACE_OUTER_BOUND('',#97,.T.);
#54=FACE_OUTER_BOUND('',#98,.T.);
#55=FACE_OUTER_BOUND('',#99,.T.);
#56=FACE_OUTER_BOUND('',#100,.T.);
#57=FACE_OUTER_BOUND('',#101,.T.);
#58=FACE_OUTER_BOUND('',#102,.T.);
#59=ADVANCED_FACE('',(#81,#82),#75,.T.);
#60=ADVANCED_FACE('',(#45),#41,.T.);
#61=ADVANCED_FACE('',(#46),#76,.T.);
#62=ADVANCED_FACE('',(#83,#84),#77,.F.);
#63=ADVANCED_FACE('',(#47),#78,.T.);
#64=ADVANCED_FACE('',(#48),#79,.T.);
#65=ADVANCED_FACE('',(#49),#42,.T.);
#66=ADVANCED_FACE('',(#50),#80,.T.);
#67=ADVANCED_FACE('',(#51),#43,.T.);
#68=ADVANCED_FACE('',(#52),#44,.T.);
#69=ADVANCED_FACE('',(#53),#37,.F.);
#70=ADVANCED_FACE('',(#54),#38,.F.);
#71=ADVANCED_FACE('',(#55),#35,.T.);
#72=ADVANCED_FACE('',(#56),#36,.T.);
#73=ADVANCED_FACE('',(#57),#39,.F.);
#74=ADVANCED_FACE('',(#58),#40,.F.);
#75=PLANE('',#398);
#76=PLANE('',#400);
#77=PLANE('',#403);
#78=PLANE('',#404);
#79=PLANE('',#405);
#80=PLANE('',#407);
#81=FACE_BOUND('',#85,.T.);
#82=FACE_BOUND('',#86,.T.);
#83=FACE_BOUND('',#89,.T.);
#84=FACE_BOUND('',#90,.T.);
#85=EDGE_LOOP('',(#103,#104,#105,#106,#107,#108,#109,#110));
#86=EDGE_LOOP('',(#111,#112));
#87=EDGE_LOOP('',(#113,#114,#115));
#88=EDGE_LOOP('',(#116,#117,#118,#119,#120,#121));
#89=EDGE_LOOP('',(#122,#123,#124,#125));
#90=EDGE_LOOP('',(#126,#127));
#91=EDGE_LOOP('',(#128,#129,#130,#131,#132,#133));
#92=EDGE_LOOP('',(#134,#135,#136,#137,#138,#139));
#93=EDGE_LOOP('',(#140,#141,#142));
#94=EDGE_LOOP('',(#143,#144,#145,#146,#147,#148));
#95=EDGE_LOOP('',(#149,#150,#151));
#96=EDGE_LOOP('',(#152,#153,#154));
#97=EDGE_LOOP('',(#155,#156,#157,#158));
#98=EDGE_LOOP('',(#159,#160,#161,#162));
#99=EDGE_LOOP('',(#163,#164,#165,#166));
#100=EDGE_LOOP('',(#167,#168,#169,#170));
#101=EDGE_LOOP('',(#171,#172,#173,#174));
#102=EDGE_LOOP('',(#175,#176,#177,#178));
#103=ORIENTED_EDGE('',*,*,#203,.F.);
#104=ORIENTED_EDGE('',*,*,#204,.F.);
#105=ORIENTED_EDGE('',*,*,#205,.F.);
#106=ORIENTED_EDGE('',*,*,#206,.F.);
#107=ORIENTED_EDGE('',*,*,#207,.F.);
#108=ORIENTED_EDGE('',*,*,#208,.F.);
#109=ORIENTED_EDGE('',*,*,#209,.F.);
#110=ORIENTED_EDGE('',*,*,#210,.F.);
#111=ORIENTED_EDGE('',*,*,#211,.F.);
#112=ORIENTED_EDGE('',*,*,#212,.F.);
#113=ORIENTED_EDGE('',*,*,#210,.T.);
#114=ORIENTED_EDGE('',*,*,#213,.F.);
#115=ORIENTED_EDGE('',*,*,#214,.F.);
#116=ORIENTED_EDGE('',*,*,#215,.F.);
#117=ORIENTED_EDGE('',*,*,#216,.T.);
#118=ORIENTED_EDGE('',*,*,#203,.T.);
#119=ORIENTED_EDGE('',*,*,#214,.T.);
#120=ORIENTED_EDGE('',*,*,#217,.T.);
#121=ORIENTED_EDGE('',*,*,#218,.T.);
#122=ORIENTED_EDGE('',*,*,#219,.F.);
#123=ORIENTED_EDGE('',*,*,#220,.F.);
#124=ORIENTED_EDGE('',*,*,#218,.F.);
#125=ORIENTED_EDGE('',*,*,#221,.F.);
#126=ORIENTED_EDGE('',*,*,#222,.F.);
#127=ORIENTED_EDGE('',*,*,#223,.F.);
#128=ORIENTED_EDGE('',*,*,#217,.F.);
#129=ORIENTED_EDGE('',*,*,#213,.T.);
#130=ORIENTED_EDGE('',*,*,#209,.T.);
#131=ORIENTED_EDGE('',*,*,#224,.T.);
#132=ORIENTED_EDGE('',*,*,#225,.T.);
#133=ORIENTED_EDGE('',*,*,#221,.T.);
#134=ORIENTED_EDGE('',*,*,#226,.T.);
#135=ORIENTED_EDGE('',*,*,#219,.T.);
#136=ORIENTED_EDGE('',*,*,#225,.F.);
#137=ORIENTED_EDGE('',*,*,#227,.T.);
#138=ORIENTED_EDGE('',*,*,#207,.T.);
#139=ORIENTED_EDGE('',*,*,#228,.T.);
#140=ORIENTED_EDGE('',*,*,#206,.T.);
#141=ORIENTED_EDGE('',*,*,#229,.F.);
#142=ORIENTED_EDGE('',*,*,#228,.F.);
#143=ORIENTED_EDGE('',*,*,#215,.T.);
#144=ORIENTED_EDGE('',*,*,#220,.T.);
#145=ORIENTED_EDGE('',*,*,#226,.F.);
#146=ORIENTED_EDGE('',*,*,#229,.T.);
#147=ORIENTED_EDGE('',*,*,#205,.T.);
#148=ORIENTED_EDGE('',*,*,#230,.T.);
#149=ORIENTED_EDGE('',*,*,#204,.T.);
#150=ORIENTED_EDGE('',*,*,#216,.F.);
#151=ORIENTED_EDGE('',*,*,#230,.F.);
#152=ORIENTED_EDGE('',*,*,#208,.T.);
#153=ORIENTED_EDGE('',*,*,#227,.F.);
#154=ORIENTED_EDGE('',*,*,#224,.F.);
#155=ORIENTED_EDGE('',*,*,#231,.F.);
#156=ORIENTED_EDGE('',*,*,#232,.T.);
#157=ORIENTED_EDGE('',*,*,#233,.T.);
#158=ORIENTED_EDGE('',*,*,#223,.T.);
#159=ORIENTED_EDGE('',*,*,#233,.F.);
#160=ORIENTED_EDGE('',*,*,#234,.T.);
#161=ORIENTED_EDGE('',*,*,#231,.T.);
#162=ORIENTED_EDGE('',*,*,#222,.T.);
#163=ORIENTED_EDGE('',*,*,#235,.F.);
#164=ORIENTED_EDGE('',*,*,#236,.F.);
#165=ORIENTED_EDGE('',*,*,#234,.F.);
#166=ORIENTED_EDGE('',*,*,#237,.T.);
#167=ORIENTED_EDGE('',*,*,#232,.F.);
#168=ORIENTED_EDGE('',*,*,#236,.T.);
#169=ORIENTED_EDGE('',*,*,#238,.F.);
#170=ORIENTED_EDGE('',*,*,#237,.F.);
#171=ORIENTED_EDGE('',*,*,#239,.T.);
#172=ORIENTED_EDGE('',*,*,#238,.T.);
#173=ORIENTED_EDGE('',*,*,#240,.F.);
#174=ORIENTED_EDGE('',*,*,#212,.T.);
#175=ORIENTED_EDGE('',*,*,#240,.T.);
#176=ORIENTED_EDGE('',*,*,#235,.T.);
#177=ORIENTED_EDGE('',*,*,#239,.F.);
#178=ORIENTED_EDGE('',*,*,#211,.T.);
#179=VERTEX_POINT('',#541);
#180=VERTEX_POINT('',#542);
#181=VERTEX_POINT('',#544);
#182=VERTEX_POINT('',#546);
#183=VERTEX_POINT('',#548);
#184=VERTEX_POINT('',#550);
#185=VERTEX_POINT('',#552);
#186=VERTEX_POINT('',#554);
#187=VERTEX_POINT('',#557);
#188=VERTEX_POINT('',#558);
#189=VERTEX_POINT('',#562);
#190=VERTEX_POINT('',#566);
#191=VERTEX_POINT('',#567);
#192=VERTEX_POINT('',#570);
#193=VERTEX_POINT('',#574);
#194=VERTEX_POINT('',#575);
#195=VERTEX_POINT('',#579);
#196=VERTEX_POINT('',#580);
#197=VERTEX_POINT('',#584);
#198=VERTEX_POINT('',#588);
#199=VERTEX_POINT('',#599);
#200=VERTEX_POINT('',#601);
#201=VERTEX_POINT('',#607);
#202=VERTEX_POINT('',#608);
#203=EDGE_CURVE('',#179,#180,#295,.T.);
#204=EDGE_CURVE('',#181,#179,#247,.T.);
#205=EDGE_CURVE('',#182,#181,#296,.T.);
#206=EDGE_CURVE('',#183,#182,#248,.T.);
#207=EDGE_CURVE('',#184,#183,#297,.T.);
#208=EDGE_CURVE('',#185,#184,#249,.T.);
#209=EDGE_CURVE('',#186,#185,#298,.T.);
#210=EDGE_CURVE('',#180,#186,#250,.T.);
#211=EDGE_CURVE('',#187,#188,#251,.T.);
#212=EDGE_CURVE('',#188,#187,#252,.T.);
#213=EDGE_CURVE('',#189,#186,#299,.T.);
#214=EDGE_CURVE('',#180,#189,#300,.T.);
#215=EDGE_CURVE('',#190,#191,#301,.T.);
#216=EDGE_CURVE('',#190,#179,#302,.T.);
#217=EDGE_CURVE('',#189,#192,#303,.T.);
#218=EDGE_CURVE('',#192,#191,#304,.T.);
#219=EDGE_CURVE('',#193,#194,#305,.T.);
#220=EDGE_CURVE('',#191,#193,#306,.T.);
#221=EDGE_CURVE('',#194,#192,#307,.T.);
#222=EDGE_CURVE('',#195,#196,#253,.T.);
#223=EDGE_CURVE('',#196,#195,#254,.T.);
#224=EDGE_CURVE('',#185,#197,#308,.T.);
#225=EDGE_CURVE('',#197,#194,#309,.T.);
#226=EDGE_CURVE('',#198,#193,#310,.T.);
#227=EDGE_CURVE('',#197,#184,#311,.T.);
#228=EDGE_CURVE('',#183,#198,#312,.T.);
#229=EDGE_CURVE('',#198,#182,#313,.T.);
#230=EDGE_CURVE('',#181,#190,#314,.T.);
#231=EDGE_CURVE('',#199,#195,#315,.T.);
#232=EDGE_CURVE('',#199,#200,#255,.T.);
#233=EDGE_CURVE('',#200,#196,#316,.T.);
#234=EDGE_CURVE('',#200,#199,#256,.T.);
#235=EDGE_CURVE('',#201,#202,#257,.T.);
#236=EDGE_CURVE('',#199,#201,#258,.T.);
#237=EDGE_CURVE('',#200,#202,#259,.T.);
#238=EDGE_CURVE('',#202,#201,#260,.T.);
#239=EDGE_CURVE('',#187,#202,#317,.T.);
#240=EDGE_CURVE('',#188,#201,#318,.T.);
#241=COLOUR_RGB('Strong Stone',0.576470588235294,0.54508278019379,0.392156862745098);
#242=COLOUR_RGB('cutting part',0.8,0.8,0.8);
#243=CIRCLE('',#385,0.03);
#244=CIRCLE('',#386,0.03);
#245=CIRCLE('',#387,0.03);
#246=CIRCLE('',#388,0.03);
#247=CIRCLE('',#392,0.03);
#248=CIRCLE('',#393,0.03);
#249=CIRCLE('',#394,0.03);
#250=CIRCLE('',#395,0.03);
#251=CIRCLE('',#396,1.875);
#252=CIRCLE('',#397,1.875);
#253=CIRCLE('',#401,1.4);
#254=CIRCLE('',#402,1.4);
#255=CIRCLE('',#410,1.4);
#256=CIRCLE('',#412,1.4);
#257=CIRCLE('',#414,1.875);
#258=CIRCLE('',#415,2.5);
#259=CIRCLE('',#416,2.5);
#260=CIRCLE('',#418,1.875);
#261=CURVE_STYLE('',#272,POSITIVE_LENGTH_MEASURE(0.18),#383);
#262=CURVE_STYLE('',#273,POSITIVE_LENGTH_MEASURE(0.18),#383);
#263=CURVE_STYLE('',#274,POSITIVE_LENGTH_MEASURE(0.18),#383);
#264=CURVE_STYLE('',#275,POSITIVE_LENGTH_MEASURE(0.18),#383);
#265=CURVE_STYLE('',#276,POSITIVE_LENGTH_MEASURE(0.18),#383);
#266=CURVE_STYLE('',#277,POSITIVE_LENGTH_MEASURE(0.18),#383);
#267=CURVE_STYLE('',#278,POSITIVE_LENGTH_MEASURE(0.18),#383);
#268=CURVE_STYLE('',#279,POSITIVE_LENGTH_MEASURE(0.18),#383);
#269=CURVE_STYLE('',#280,POSITIVE_LENGTH_MEASURE(0.13),#382);
#270=CURVE_STYLE('',#281,POSITIVE_LENGTH_MEASURE(0.13),#382);
#271=CURVE_STYLE('',#282,POSITIVE_LENGTH_MEASURE(0.13),#241);
#272=DRAUGHTING_PRE_DEFINED_CURVE_FONT('continuous');
#273=DRAUGHTING_PRE_DEFINED_CURVE_FONT('continuous');
#274=DRAUGHTING_PRE_DEFINED_CURVE_FONT('continuous');
#275=DRAUGHTING_PRE_DEFINED_CURVE_FONT('continuous');
#276=DRAUGHTING_PRE_DEFINED_CURVE_FONT('continuous');
#277=DRAUGHTING_PRE_DEFINED_CURVE_FONT('continuous');
#278=DRAUGHTING_PRE_DEFINED_CURVE_FONT('continuous');
#279=DRAUGHTING_PRE_DEFINED_CURVE_FONT('continuous');
#280=DRAUGHTING_PRE_DEFINED_CURVE_FONT('continuous');
#281=DRAUGHTING_PRE_DEFINED_CURVE_FONT('continuous');
#282=DRAUGHTING_PRE_DEFINED_CURVE_FONT('continuous');
#283=TRIMMED_CURVE('',#291,(PARAMETER_VALUE(0.)),(PARAMETER_VALUE(1.)),
 .T.,.PARAMETER.);
#284=TRIMMED_CURVE('',#292,(PARAMETER_VALUE(0.)),(PARAMETER_VALUE(1.)),
 .T.,.PARAMETER.);
#285=TRIMMED_CURVE('',#293,(PARAMETER_VALUE(0.)),(PARAMETER_VALUE(1.)),
 .T.,.PARAMETER.);
#286=TRIMMED_CURVE('',#294,(PARAMETER_VALUE(0.)),(PARAMETER_VALUE(1.)),
 .T.,.PARAMETER.);
#287=TRIMMED_CURVE('',#243,(PARAMETER_VALUE(0.)),(PARAMETER_VALUE(99.99999999692)),
 .T.,.PARAMETER.);
#288=TRIMMED_CURVE('',#244,(PARAMETER_VALUE(0.)),(PARAMETER_VALUE(79.99999999536)),
 .T.,.PARAMETER.);
#289=TRIMMED_CURVE('',#245,(PARAMETER_VALUE(0.)),(PARAMETER_VALUE(99.99999999692)),
 .T.,.PARAMETER.);
#290=TRIMMED_CURVE('',#246,(PARAMETER_VALUE(0.)),(PARAMETER_VALUE(79.99999999536)),
 .T.,.PARAMETER.);
#291=LINE('',#529,#319);
#292=LINE('',#530,#320);
#293=LINE('',#531,#321);
#294=LINE('',#532,#322);
#295=LINE('',#540,#323);
#296=LINE('',#545,#324);
#297=LINE('',#549,#325);
#298=LINE('',#553,#326);
#299=LINE('',#561,#327);
#300=LINE('',#563,#328);
#301=LINE('',#565,#329);
#302=LINE('',#568,#330);
#303=LINE('',#569,#331);
#304=LINE('',#571,#332);
#305=LINE('',#573,#333);
#306=LINE('',#576,#334);
#307=LINE('',#577,#335);
#308=LINE('',#583,#336);
#309=LINE('',#585,#337);
#310=LINE('',#587,#338);
#311=LINE('',#589,#339);
#312=LINE('',#590,#340);
#313=LINE('',#592,#341);
#314=LINE('',#594,#342);
#315=LINE('',#598,#343);
#316=LINE('',#602,#344);
#317=LINE('',#614,#345);
#318=LINE('',#615,#346);
#319=VECTOR('',#424,6.38703338876492);
#320=VECTOR('',#425,6.387033388762);
#321=VECTOR('',#426,6.38703338876492);
#322=VECTOR('',#427,6.387033388762);
#323=VECTOR('',#442,1.);
#324=VECTOR('',#445,1.);
#325=VECTOR('',#448,1.);
#326=VECTOR('',#451,1.);
#327=VECTOR('',#460,1.);
#328=VECTOR('',#461,1.);
#329=VECTOR('',#464,1.);
#330=VECTOR('',#465,1.);
#331=VECTOR('',#466,1.);
#332=VECTOR('',#467,1.);
#333=VECTOR('',#470,1.);
#334=VECTOR('',#471,1.);
#335=VECTOR('',#472,1.);
#336=VECTOR('',#479,1.);
#337=VECTOR('',#480,1.);
#338=VECTOR('',#483,1.);
#339=VECTOR('',#484,1.);
#340=VECTOR('',#485,1.);
#341=VECTOR('',#488,1.);
#342=VECTOR('',#491,1.);
#343=VECTOR('',#498,1.);
#344=VECTOR('',#501,1.);
#345=VECTOR('',#520,1.);
#346=VECTOR('',#521,1.);
#347=PRESENTATION_LAYER_ASSIGNMENT('5','Layer 5',(#527,#389));
#348=PRESENTATION_LAYER_ASSIGNMENT('1','Layer 1',(#528,#390,#391,#33));
#349=PRESENTATION_LAYER_ASSIGNMENT('2','Layer 2',(#283,#284,#285,#286,#287,
#288,#289,#290));
#350=STYLED_ITEM('',(#364),#527);
#351=STYLED_ITEM('',(#365),#528);
#352=STYLED_ITEM('',(#366),#283);
#353=STYLED_ITEM('',(#367),#284);
#354=STYLED_ITEM('',(#368),#285);
#355=STYLED_ITEM('',(#369),#286);
#356=STYLED_ITEM('',(#370),#287);
#357=STYLED_ITEM('',(#371),#288);
#358=STYLED_ITEM('',(#372),#289);
#359=STYLED_ITEM('',(#373),#290);
#360=STYLED_ITEM('',(#374),#389);
#361=STYLED_ITEM('',(#375),#390);
#362=STYLED_ITEM('',(#376),#391);
#363=STYLED_ITEM('',(#377),#33);
#364=PRESENTATION_STYLE_ASSIGNMENT((#378));
#365=PRESENTATION_STYLE_ASSIGNMENT((#379));
#366=PRESENTATION_STYLE_ASSIGNMENT((#261));
#367=PRESENTATION_STYLE_ASSIGNMENT((#262));
#368=PRESENTATION_STYLE_ASSIGNMENT((#263));
#369=PRESENTATION_STYLE_ASSIGNMENT((#264));
#370=PRESENTATION_STYLE_ASSIGNMENT((#265));
#371=PRESENTATION_STYLE_ASSIGNMENT((#266));
#372=PRESENTATION_STYLE_ASSIGNMENT((#267));
#373=PRESENTATION_STYLE_ASSIGNMENT((#268));
#374=PRESENTATION_STYLE_ASSIGNMENT((#269));
#375=PRESENTATION_STYLE_ASSIGNMENT((#270));
#376=PRESENTATION_STYLE_ASSIGNMENT((#271));
#377=PRESENTATION_STYLE_ASSIGNMENT((#28));
#378=POINT_STYLE('',#380,POSITIVE_LENGTH_MEASURE(3.),#382);
#379=POINT_STYLE('',#381,POSITIVE_LENGTH_MEASURE(3.),#382);
#380=PRE_DEFINED_POINT_MARKER_SYMBOL('plus');
#381=PRE_DEFINED_POINT_MARKER_SYMBOL('plus');
#382=DRAUGHTING_PRE_DEFINED_COLOUR('yellow');
#383=DRAUGHTING_PRE_DEFINED_COLOUR('blue');
#384=AXIS2_PLACEMENT_3D('',#526,#422,#423);
#385=AXIS2_PLACEMENT_3D('',#533,#428,#429);
#386=AXIS2_PLACEMENT_3D('',#534,#430,#431);
#387=AXIS2_PLACEMENT_3D('',#535,#432,#433);
#388=AXIS2_PLACEMENT_3D('',#536,#434,#435);
#389=AXIS2_PLACEMENT_3D('MCS',#537,#436,#437);
#390=AXIS2_PLACEMENT_3D('PCS',#538,#438,#439);
#391=AXIS2_PLACEMENT_3D('',#539,#440,#441);
#392=AXIS2_PLACEMENT_3D('',#543,#443,#444);
#393=AXIS2_PLACEMENT_3D('',#547,#446,#447);
#394=AXIS2_PLACEMENT_3D('',#551,#449,#450);
#395=AXIS2_PLACEMENT_3D('',#555,#452,#453);
#396=AXIS2_PLACEMENT_3D('',#556,#454,#455);
#397=AXIS2_PLACEMENT_3D('',#559,#456,#457);
#398=AXIS2_PLACEMENT_3D('',#560,#458,#459);
#399=AXIS2_PLACEMENT_3D('',#564,#462,#463);
#400=AXIS2_PLACEMENT_3D('',#572,#468,#469);
#401=AXIS2_PLACEMENT_3D('',#578,#473,#474);
#402=AXIS2_PLACEMENT_3D('',#581,#475,#476);
#403=AXIS2_PLACEMENT_3D('',#582,#477,#478);
#404=AXIS2_PLACEMENT_3D('',#586,#481,#482);
#405=AXIS2_PLACEMENT_3D('',#591,#486,#487);
#406=AXIS2_PLACEMENT_3D('',#593,#489,#490);
#407=AXIS2_PLACEMENT_3D('',#595,#492,#493);
#408=AXIS2_PLACEMENT_3D('',#596,#494,#495);
#409=AXIS2_PLACEMENT_3D('',#597,#496,#497);
#410=AXIS2_PLACEMENT_3D('',#600,#499,#500);
#411=AXIS2_PLACEMENT_3D('',#603,#502,#503);
#412=AXIS2_PLACEMENT_3D('',#604,#504,#505);
#413=AXIS2_PLACEMENT_3D('',#605,#506,#507);
#414=AXIS2_PLACEMENT_3D('',#606,#508,#509);
#415=AXIS2_PLACEMENT_3D('',#609,#510,#511);
#416=AXIS2_PLACEMENT_3D('',#610,#512,#513);
#417=AXIS2_PLACEMENT_3D('',#611,#514,#515);
#418=AXIS2_PLACEMENT_3D('',#612,#516,#517);
#419=AXIS2_PLACEMENT_3D('',#613,#518,#519);
#420=AXIS2_PLACEMENT_3D('',#616,#522,#523);
#421=AXIS2_PLACEMENT_3D('',#617,#524,#525);
#422=DIRECTION('',(0.,0.,1.));
#423=DIRECTION('',(1.,0.,0.));
#424=DIRECTION('',(-0.173648177666902,-0.984807753012213,0.));
#425=DIRECTION('',(-1.,0.,0.));
#426=DIRECTION('',(0.173648177666902,0.984807753012213,0.));
#427=DIRECTION('',(1.,0.,0.));
#428=DIRECTION('',(0.,0.,-1.));
#429=DIRECTION('',(-4.33680868994201E-14,1.,0.));
#430=DIRECTION('',(0.,0.,-1.));
#431=DIRECTION('',(0.984807752998142,-0.173648177746704,0.));
#432=DIRECTION('',(0.,0.,-1.));
#433=DIRECTION('',(4.33680868994201E-14,-1.,0.));
#434=DIRECTION('',(0.,0.,-1.));
#435=DIRECTION('',(-0.984807752998142,0.173648177746704,0.));
#436=DIRECTION('',(0.,0.,1.));
#437=DIRECTION('',(1.,0.,0.));
#438=DIRECTION('',(0.,0.,1.));
#439=DIRECTION('',(1.,0.,0.));
#440=DIRECTION('',(0.,0.,1.));
#441=DIRECTION('',(1.,0.,0.));
#442=DIRECTION('',(1.,0.,0.));
#443=DIRECTION('',(0.,0.,-1.));
#444=DIRECTION('',(-0.984807752998137,0.173648177746704,0.));
#445=DIRECTION('',(0.173648177666902,0.984807753012213,0.));
#446=DIRECTION('',(0.,0.,-1.));
#447=DIRECTION('',(4.33680868994202E-14,-1.,0.));
#448=DIRECTION('',(-1.,0.,0.));
#449=DIRECTION('',(0.,0.,-1.));
#450=DIRECTION('',(0.984807752998137,-0.173648177746704,0.));
#451=DIRECTION('',(-0.173648177666902,-0.984807753012213,0.));
#452=DIRECTION('',(0.,0.,-1.));
#453=DIRECTION('',(-4.33680868994202E-14,1.,0.));
#454=DIRECTION('',(0.,0.,1.));
#455=DIRECTION('',(-0.766044443119007,-0.642787609686505,0.));
#456=DIRECTION('',(0.,0.,1.));
#457=DIRECTION('',(0.766044443119007,0.642787609686505,0.));
#458=DIRECTION('',(0.,0.,1.));
#459=DIRECTION('',(-0.642787609686505,0.766044443119006,0.));
#460=DIRECTION('',(0.120017874240399,-0.0211623893945197,0.992546151641288));
#461=DIRECTION('',(-9.23662684469015E-13,-0.121869343405202,-0.992546151641315));
#462=DIRECTION('',(0.,0.,1.));
#463=DIRECTION('',(0.,1.,-2.07481192493073E-16));
#464=DIRECTION('',(0.101729998253904,-0.121237090893605,-0.987396868157337));
#465=DIRECTION('',(-1.05355274947602E-12,0.121869343405202,0.992546151641315));
#466=DIRECTION('',(-0.143730206185803,-0.120603962999502,-0.982240455254517));
#467=DIRECTION('',(-1.,0.,0.));
#468=DIRECTION('',(0.,0.992546151641327,-0.121869343405103));
#469=DIRECTION('',(1.,0.,0.));
#470=DIRECTION('',(1.,0.,0.));
#471=DIRECTION('',(-0.173648177666902,-0.984807753012213,0.));
#472=DIRECTION('',(0.173648177666902,0.984807753012213,0.));
#473=DIRECTION('',(0.,0.,-1.));
#474=DIRECTION('',(0.766044443119007,0.642787609686505,0.));
#475=DIRECTION('',(0.,0.,-1.));
#476=DIRECTION('',(-0.766044443119007,-0.642787609686505,0.));
#477=DIRECTION('',(0.,0.,1.));
#478=DIRECTION('',(-0.642787609686505,0.766044443119006,0.));
#479=DIRECTION('',(-0.120017874239995,0.0211623893980092,-0.992546151641262));
#480=DIRECTION('',(-0.101729998253904,0.121237090893605,-0.987396868157337));
#481=DIRECTION('',(0.977467145358817,-0.172353830482803,-0.121869343405102));
#482=DIRECTION('',(-0.173648177666892,-0.984807753012215,-1.28537043492081E-15));
#483=DIRECTION('',(0.143730206185803,0.120603962999502,-0.982240455254517));
#484=DIRECTION('',(1.05355274947602E-12,-0.121869343405202,0.992546151641315));
#485=DIRECTION('',(9.27270741830215E-13,0.121869343405202,-0.992546151641315));
#486=DIRECTION('',(0.,-0.992546151641327,-0.121869343405103));
#487=DIRECTION('',(-1.,0.,0.));
#488=DIRECTION('',(-0.120017874240399,0.0211623893945297,0.992546151641288));
#489=DIRECTION('',(0.,0.,1.));
#490=DIRECTION('',(0.,-1.,-2.07481192493073E-16));
#491=DIRECTION('',(0.120017874239995,-0.0211623893980092,-0.992546151641262));
#492=DIRECTION('',(-0.977467145358817,0.172353830482803,-0.121869343405102));
#493=DIRECTION('',(0.173648177666892,0.984807753012215,-1.28537043492081E-15));
#494=DIRECTION('',(0.,0.,1.));
#495=DIRECTION('',(-0.984807753012213,0.173648177666902,-2.07481192493073E-16));
#496=DIRECTION('',(0.,0.,1.));
#497=DIRECTION('',(0.984807753012213,-0.173648177666902,-2.07481192493073E-16));
#498=DIRECTION('',(4.838656379674E-13,-5.863249914616E-13,-1.));
#499=DIRECTION('',(0.,0.,1.));
#500=DIRECTION('',(0.766044443119097,0.642787609686398,0.));
#501=DIRECTION('',(-4.184203964684E-14,5.900800463017E-14,-1.));
#502=DIRECTION('',(0.,0.,-1.));
#503=DIRECTION('',(0.766044443119006,0.642787609686505,0.));
#504=DIRECTION('',(0.,0.,1.));
#505=DIRECTION('',(-0.766044443119007,-0.642787609686505,0.));
#506=DIRECTION('',(0.,0.,-1.));
#507=DIRECTION('',(0.766044443119006,0.642787609686505,0.));
#508=DIRECTION('',(0.,0.,-1.));
#509=DIRECTION('',(0.766044443119007,0.642787609686505,0.));
#510=DIRECTION('',(-0.64278760968678,0.766044443118776,0.));
#511=DIRECTION('',(-0.766044443118776,-0.64278760968678,0.));
#512=DIRECTION('',(0.642787609686505,-0.766044443119007,0.));
#513=DIRECTION('',(0.766044443119007,0.642787609686505,0.));
#514=DIRECTION('',(0.,0.,-1.));
#515=DIRECTION('',(0.766044443119006,0.642787609686505,0.));
#516=DIRECTION('',(0.,0.,-1.));
#517=DIRECTION('',(-0.766044443119007,-0.642787609686505,0.));
#518=DIRECTION('',(0.,0.,-1.));
#519=DIRECTION('',(0.766044443119006,0.642787609686505,0.));
#520=DIRECTION('',(-1.536548666081E-13,-1.287858708565E-13,-1.));
#521=DIRECTION('',(-2.984279490192E-13,6.679101716144E-13,-1.));
#522=DIRECTION('',(0.,0.,-1.));
#523=DIRECTION('',(0.766044443119006,0.642787609686505,0.));
#524=DIRECTION('',(0.,0.,-1.));
#525=DIRECTION('',(0.766044443119006,0.642787609686505,0.));
#526=CARTESIAN_POINT('',(0.,0.,0.));
#527=CARTESIAN_POINT('',(0.,0.,0.));
#528=CARTESIAN_POINT('',(-3.783817656486,-3.175,0.));
#529=CARTESIAN_POINT('',(3.777609281299,3.139790554672,0.));
#530=CARTESIAN_POINT('',(2.638968340053,-3.175,0.));
#531=CARTESIAN_POINT('',(-3.777609281299,-3.139790554672,0.));
#532=CARTESIAN_POINT('',(-2.638968340053,3.175,0.));
#533=CARTESIAN_POINT('',(3.748065048709,3.145,0.));
#534=CARTESIAN_POINT('',(2.638968340053,-3.145,0.));
#535=CARTESIAN_POINT('',(-3.748065048709,-3.145,0.));
#536=CARTESIAN_POINT('',(-2.638968340053,3.145,0.));
#537=CARTESIAN_POINT('',(0.,0.,0.));
#538=CARTESIAN_POINT('',(-3.783817656486,-3.175,0.));
#539=CARTESIAN_POINT('',(0.,0.,0.));
#540=CARTESIAN_POINT('',(-2.638968340053,3.175,0.));
#541=CARTESIAN_POINT('',(-2.638968340053,3.175,0.));
#542=CARTESIAN_POINT('',(3.748065048709,3.175,0.));
#543=CARTESIAN_POINT('',(-2.638968340053,3.145,0.));
#544=CARTESIAN_POINT('',(-2.668512572643,3.150209445331,1.487174040946E-14));
#545=CARTESIAN_POINT('',(-3.777609281299,-3.139790554671,1.761641236751E-14));
#546=CARTESIAN_POINT('',(-3.7776092813,-3.139790554672,0.));
#547=CARTESIAN_POINT('',(-3.748065048709,-3.145,0.));
#548=CARTESIAN_POINT('',(-3.748065048709,-3.175,0.));
#549=CARTESIAN_POINT('',(2.638968340053,-3.175,0.));
#550=CARTESIAN_POINT('',(2.638968340053,-3.175,0.));
#551=CARTESIAN_POINT('',(2.638968340053,-3.145,0.));
#552=CARTESIAN_POINT('',(2.668512572643,-3.150209445331,1.487174040946E-14));
#553=CARTESIAN_POINT('',(3.777609281299,3.139790554671,1.761641236751E-14));
#554=CARTESIAN_POINT('',(3.7776092813,3.139790554672,0.));
#555=CARTESIAN_POINT('',(3.748065048709,3.145,0.));
#556=CARTESIAN_POINT('',(0.,0.,0.));
#557=CARTESIAN_POINT('',(-1.436333330848,-1.205226768162,0.));
#558=CARTESIAN_POINT('',(1.436333330848,1.205226768162,0.));
#559=CARTESIAN_POINT('',(0.,0.,0.));
#560=CARTESIAN_POINT('',(0.,0.,0.));
#561=CARTESIAN_POINT('',(3.748065048709,3.145,-0.2443303928376));
#562=CARTESIAN_POINT('',(3.748065048709,3.145,-0.2443303928376));
#563=CARTESIAN_POINT('',(3.748065048709,3.175,0.));
#564=CARTESIAN_POINT('',(3.748065048709,3.145,-0.1162096812892));
#565=CARTESIAN_POINT('',(-2.638968340053,3.145,-0.2443303928367));
#566=CARTESIAN_POINT('',(-2.638968340053,3.145,-0.2443303928367));
#567=CARTESIAN_POINT('',(-2.41893354714,2.882772745051,-2.38));
#568=CARTESIAN_POINT('',(-2.638968340053,3.145,-0.2443303928367));
#569=CARTESIAN_POINT('',(3.748065048709,3.145,-0.2443303928376));
#570=CARTESIAN_POINT('',(3.435554775547,2.882772745051,-2.38));
#571=CARTESIAN_POINT('',(3.435554775547,2.882772745051,-2.38));
#572=CARTESIAN_POINT('',(4.903822456679,3.175,0.));
#573=CARTESIAN_POINT('',(-3.435554775547,-2.882772745051,-2.38));
#574=CARTESIAN_POINT('',(-3.435554775547,-2.882772745051,-2.38));
#575=CARTESIAN_POINT('',(2.41893354714,-2.882772745051,-2.38));
#576=CARTESIAN_POINT('',(-2.41893354714,2.882772745051,-2.38));
#577=CARTESIAN_POINT('',(2.41893354714,-2.882772745051,-2.38));
#578=CARTESIAN_POINT('',(0.,0.,-2.38));
#579=CARTESIAN_POINT('',(1.072462220367,0.899902653561,-2.38));
#580=CARTESIAN_POINT('',(-1.072462220367,-0.899902653561,-2.38));
#581=CARTESIAN_POINT('',(0.,0.,-2.38));
#582=CARTESIAN_POINT('',(0.,0.,-2.38));
#583=CARTESIAN_POINT('',(2.668512572643,-3.150209445331,1.487174040946E-14));
#584=CARTESIAN_POINT('',(2.638968340053,-3.145,-0.2443303928367));
#585=CARTESIAN_POINT('',(2.638968340053,-3.145,-0.2443303928367));
#586=CARTESIAN_POINT('',(2.469654536456,-4.27798941064,0.));
#587=CARTESIAN_POINT('',(-3.748065048709,-3.145,-0.2443303928376));
#588=CARTESIAN_POINT('',(-3.748065048709,-3.145,-0.2443303928376));
#589=CARTESIAN_POINT('',(2.638968340053,-3.145,-0.2443303928367));
#590=CARTESIAN_POINT('',(-3.748065048709,-3.175,0.));
#591=CARTESIAN_POINT('',(-4.903822456679,-3.175,0.));
#592=CARTESIAN_POINT('',(-3.748065048709,-3.145,-0.2443303928376));
#593=CARTESIAN_POINT('',(-3.748065048709,-3.145,-0.1162096812892));
#594=CARTESIAN_POINT('',(-2.668512572643,3.150209445331,1.487174040946E-14));
#595=CARTESIAN_POINT('',(-2.469654536456,4.27798941064,0.));
#596=CARTESIAN_POINT('',(-2.638968340053,3.145,-0.1162096812892));
#597=CARTESIAN_POINT('',(2.638968340053,-3.145,-0.1162096812892));
#598=CARTESIAN_POINT('',(1.072462220367,0.899902653561,-2.38));
#599=CARTESIAN_POINT('',(1.072462220367,0.899902653561,-1.96607469114));
#600=CARTESIAN_POINT('',(0.,0.,-1.96607469114));
#601=CARTESIAN_POINT('',(-1.072462220367,-0.8999026535611,-1.96607469114));
#602=CARTESIAN_POINT('',(-1.072462220367,-0.8999026535611,-2.38));
#603=CARTESIAN_POINT('',(0.,0.,0.119));
#604=CARTESIAN_POINT('',(0.,0.,-1.96607469114));
#605=CARTESIAN_POINT('',(0.,0.,0.119));
#606=CARTESIAN_POINT('',(0.,0.,-0.5000000000001));
#607=CARTESIAN_POINT('',(1.436333330848,1.205226768162,-0.5000000000001));
#608=CARTESIAN_POINT('',(-1.436333330848,-1.205226768162,-0.5000000000001));
#609=CARTESIAN_POINT('',(2.987573328163,2.506871677778,-1.96607469114));
#610=CARTESIAN_POINT('',(-2.987573328164,-2.506871677777,-1.96607469114));
#611=CARTESIAN_POINT('',(0.,0.,-1.96607469114));
#612=CARTESIAN_POINT('',(0.,0.,-0.5000000000001));
#613=CARTESIAN_POINT('',(0.,0.,-1.96607469114));
#614=CARTESIAN_POINT('',(-1.436333330848,-1.205226768162,-0.5000000000001));
#615=CARTESIAN_POINT('',(1.436333330848,1.205226768162,-0.5000000000001));
#616=CARTESIAN_POINT('',(0.,0.,0.119));
#617=CARTESIAN_POINT('',(0.,0.,0.119));
#618=MECHANICAL_DESIGN_GEOMETRIC_PRESENTATION_REPRESENTATION('',(#350,#351,
#352,#353,#354,#355,#356,#357,#358,#359,#360,#361,#362,#363),#619);
#619=(
GEOMETRIC_REPRESENTATION_CONTEXT(3)
GLOBAL_UNCERTAINTY_ASSIGNED_CONTEXT((#620))
GLOBAL_UNIT_ASSIGNED_CONTEXT((#626,#622,#621))
REPRESENTATION_CONTEXT('CC0602V3R','TOP_LEVEL_ASSEMBLY_PART')
);
#620=UNCERTAINTY_MEASURE_WITH_UNIT(LENGTH_MEASURE(2.E-5),#626,
'DISTANCE_ACCURACY_VALUE','Maximum Tolerance applied to model');
#621=(
NAMED_UNIT(*)
SI_UNIT($,.STERADIAN.)
SOLID_ANGLE_UNIT()
);
#622=(
CONVERSION_BASED_UNIT('DEGREE',#624)
NAMED_UNIT(#623)
PLANE_ANGLE_UNIT()
);
#623=DIMENSIONAL_EXPONENTS(0.,0.,0.,0.,0.,0.,0.);
#624=PLANE_ANGLE_MEASURE_WITH_UNIT(PLANE_ANGLE_MEASURE(0.0174532925),#625);
#625=(
NAMED_UNIT(*)
PLANE_ANGLE_UNIT()
SI_UNIT($,.RADIAN.)
);
#626=(
LENGTH_UNIT()
NAMED_UNIT(*)
SI_UNIT(.MILLI.,.METRE.)
);
ENDSEC;
END-ISO-10303-21;
