ISO-10303-21;
HEADER;
FILE_DESCRIPTION((''),'2;1');
FILE_NAME('SP120408N','2022-05-20T12:15:45',('zhangnw'),(''),
'CREO PARAMETRIC BY PTC INC, 2021424','CREO PARAMETRIC BY PTC INC, 2021424','');
FILE_SCHEMA(('AUTOMOTIVE_DESIGN { 1 0 10303 214 1 1 1 1 }'));
ENDSEC;
DATA;
#26=DIRECTION('',(0.E0,1.E0,0.E0));
#27=VECTOR('',#26,1.11E1);
#28=CARTESIAN_POINT('',(-6.349999999999E0,-5.550000000001E0,0.E0));
#29=LINE('',#28,#27);
#30=DRAUGHTING_PRE_DEFINED_CURVE_FONT('continuous');
#31=CURVE_STYLE('',#30,POSITIVE_LENGTH_MEASURE(2.E-2),#14);
#32=PRESENTATION_STYLE_ASSIGNMENT((#31));
#33=STYLED_ITEM('',(#32),#29);
#34=CARTESIAN_POINT('',(-5.549999999999E0,5.549999999999E0,0.E0));
#35=DIRECTION('',(0.E0,0.E0,1.E0));
#36=DIRECTION('',(0.E0,1.E0,0.E0));
#37=AXIS2_PLACEMENT_3D('',#34,#35,#36);
#39=CURVE_STYLE('',#30,POSITIVE_LENGTH_MEASURE(2.E-2),#14);
#40=PRESENTATION_STYLE_ASSIGNMENT((#39));
#41=STYLED_ITEM('',(#40),#38);
#42=DIRECTION('',(1.E0,0.E0,0.E0));
#43=VECTOR('',#42,1.11E1);
#44=CARTESIAN_POINT('',(-5.549999999999E0,6.349999999999E0,0.E0));
#45=LINE('',#44,#43);
#46=CURVE_STYLE('',#30,POSITIVE_LENGTH_MEASURE(2.E-2),#14);
#47=PRESENTATION_STYLE_ASSIGNMENT((#46));
#48=STYLED_ITEM('',(#47),#45);
#49=CARTESIAN_POINT('',(5.550000000001E0,5.549999999999E0,0.E0));
#50=DIRECTION('',(0.E0,0.E0,1.E0));
#51=DIRECTION('',(1.E0,0.E0,0.E0));
#52=AXIS2_PLACEMENT_3D('',#49,#50,#51);
#54=CURVE_STYLE('',#30,POSITIVE_LENGTH_MEASURE(2.E-2),#14);
#55=PRESENTATION_STYLE_ASSIGNMENT((#54));
#56=STYLED_ITEM('',(#55),#53);
#57=DIRECTION('',(0.E0,-1.E0,0.E0));
#58=VECTOR('',#57,1.11E1);
#59=CARTESIAN_POINT('',(6.350000000001E0,5.549999999999E0,0.E0));
#60=LINE('',#59,#58);
#61=CURVE_STYLE('',#30,POSITIVE_LENGTH_MEASURE(2.E-2),#14);
#62=PRESENTATION_STYLE_ASSIGNMENT((#61));
#63=STYLED_ITEM('',(#62),#60);
#64=CARTESIAN_POINT('',(5.550000000001E0,-5.550000000001E0,0.E0));
#65=DIRECTION('',(0.E0,0.E0,1.E0));
#66=DIRECTION('',(0.E0,-1.E0,0.E0));
#67=AXIS2_PLACEMENT_3D('',#64,#65,#66);
#69=CURVE_STYLE('',#30,POSITIVE_LENGTH_MEASURE(2.E-2),#14);
#70=PRESENTATION_STYLE_ASSIGNMENT((#69));
#71=STYLED_ITEM('',(#70),#68);
#72=DIRECTION('',(-1.E0,0.E0,0.E0));
#73=VECTOR('',#72,1.11E1);
#74=CARTESIAN_POINT('',(5.550000000001E0,-6.350000000001E0,0.E0));
#75=LINE('',#74,#73);
#76=CURVE_STYLE('',#30,POSITIVE_LENGTH_MEASURE(2.E-2),#14);
#77=PRESENTATION_STYLE_ASSIGNMENT((#76));
#78=STYLED_ITEM('',(#77),#75);
#79=CARTESIAN_POINT('',(-5.549999999999E0,-5.550000000001E0,0.E0));
#80=DIRECTION('',(0.E0,0.E0,1.E0));
#81=DIRECTION('',(-1.E0,0.E0,0.E0));
#82=AXIS2_PLACEMENT_3D('',#79,#80,#81);
#84=CURVE_STYLE('',#30,POSITIVE_LENGTH_MEASURE(2.E-2),#14);
#85=PRESENTATION_STYLE_ASSIGNMENT((#84));
#86=STYLED_ITEM('',(#85),#83);
#87=DIRECTION('',(1.908089953765E-1,0.E0,-9.816271834477E-1));
#88=VECTOR('',#87,4.192674451334E0);
#89=CARTESIAN_POINT('',(-6.349999999999E0,5.549999999999E0,0.E0));
#90=LINE('',#89,#88);
#91=CURVE_STYLE('',#30,POSITIVE_LENGTH_MEASURE(2.E-2),#14);
#92=PRESENTATION_STYLE_ASSIGNMENT((#91));
#93=STYLED_ITEM('',(#92),#90);
#94=DIRECTION('',(-1.E0,0.E0,0.E0));
#95=VECTOR('',#94,1.084949945701E1);
#96=CARTESIAN_POINT('',(5.424749728505E0,5.424749728503E0,-4.76E0));
#97=LINE('',#96,#95);
#98=CURVE_STYLE('',#30,POSITIVE_LENGTH_MEASURE(2.E-2),#14);
#99=PRESENTATION_STYLE_ASSIGNMENT((#98));
#100=STYLED_ITEM('',(#99),#97);
#101=DIRECTION('',(0.E0,-1.E0,0.E0));
#102=VECTOR('',#101,1.084949945701E1);
#103=CARTESIAN_POINT('',(-5.424749728503E0,5.424749728503E0,-4.76E0));
#104=LINE('',#103,#102);
#105=CURVE_STYLE('',#30,POSITIVE_LENGTH_MEASURE(2.E-2),#14);
#106=PRESENTATION_STYLE_ASSIGNMENT((#105));
#107=STYLED_ITEM('',(#106),#104);
#108=DIRECTION('',(1.E0,0.E0,0.E0));
#109=VECTOR('',#108,1.084949945701E1);
#110=CARTESIAN_POINT('',(-5.424749728503E0,-5.424749728505E0,-4.76E0));
#111=LINE('',#110,#109);
#112=CURVE_STYLE('',#30,POSITIVE_LENGTH_MEASURE(2.E-2),#14);
#113=PRESENTATION_STYLE_ASSIGNMENT((#112));
#114=STYLED_ITEM('',(#113),#111);
#115=DIRECTION('',(0.E0,1.E0,0.E0));
#116=VECTOR('',#115,1.084949945701E1);
#117=CARTESIAN_POINT('',(5.424749728505E0,-5.424749728505E0,-4.76E0));
#118=LINE('',#117,#116);
#119=CURVE_STYLE('',#30,POSITIVE_LENGTH_MEASURE(2.E-2),#14);
#120=PRESENTATION_STYLE_ASSIGNMENT((#119));
#121=STYLED_ITEM('',(#120),#118);
#122=DIRECTION('',(-1.874275599919E-1,-1.874275599919E-1,-9.642312064598E-1));
#123=VECTOR('',#122,6.682596278848E-1);
#124=CARTESIAN_POINT('',(5.550000000001E0,5.549999999999E0,-4.115643212776E0));
#125=LINE('',#124,#123);
#126=CURVE_STYLE('',#30,POSITIVE_LENGTH_MEASURE(2.E-2),#14);
#127=PRESENTATION_STYLE_ASSIGNMENT((#126));
#128=STYLED_ITEM('',(#127),#125);
#129=DIRECTION('',(0.E0,-1.908089953765E-1,-9.816271834477E-1));
#130=VECTOR('',#129,4.192674451334E0);
#131=CARTESIAN_POINT('',(5.550000000001E0,6.349999999999E0,0.E0));
#132=LINE('',#131,#130);
#133=CURVE_STYLE('',#30,POSITIVE_LENGTH_MEASURE(2.E-2),#14);
#134=PRESENTATION_STYLE_ASSIGNMENT((#133));
#135=STYLED_ITEM('',(#134),#132);
#136=DIRECTION('',(1.874275599919E-1,-1.874275599919E-1,-9.642312064598E-1));
#137=VECTOR('',#136,6.682596278848E-1);
#138=CARTESIAN_POINT('',(-5.549999999999E0,5.549999999999E0,-4.115643212776E0));
#139=LINE('',#138,#137);
#140=CURVE_STYLE('',#30,POSITIVE_LENGTH_MEASURE(2.E-2),#14);
#141=PRESENTATION_STYLE_ASSIGNMENT((#140));
#142=STYLED_ITEM('',(#141),#139);
#143=DIRECTION('',(-1.908089953765E-1,0.E0,-9.816271834477E-1));
#144=VECTOR('',#143,4.192674451334E0);
#145=CARTESIAN_POINT('',(6.350000000001E0,-5.550000000001E0,0.E0));
#146=LINE('',#145,#144);
#147=CURVE_STYLE('',#30,POSITIVE_LENGTH_MEASURE(2.E-2),#14);
#148=PRESENTATION_STYLE_ASSIGNMENT((#147));
#149=STYLED_ITEM('',(#148),#146);
#150=DIRECTION('',(-1.874275599919E-1,1.874275599919E-1,-9.642312064598E-1));
#151=VECTOR('',#150,6.682596278848E-1);
#152=CARTESIAN_POINT('',(5.550000000001E0,-5.550000000001E0,-4.115643212776E0));
#153=LINE('',#152,#151);
#154=CURVE_STYLE('',#30,POSITIVE_LENGTH_MEASURE(2.E-2),#14);
#155=PRESENTATION_STYLE_ASSIGNMENT((#154));
#156=STYLED_ITEM('',(#155),#153);
#157=DIRECTION('',(0.E0,1.908089953765E-1,-9.816271834477E-1));
#158=VECTOR('',#157,4.192674451334E0);
#159=CARTESIAN_POINT('',(5.550000000001E0,-6.350000000001E0,0.E0));
#160=LINE('',#159,#158);
#161=CURVE_STYLE('',#30,POSITIVE_LENGTH_MEASURE(2.E-2),#14);
#162=PRESENTATION_STYLE_ASSIGNMENT((#161));
#163=STYLED_ITEM('',(#162),#160);
#164=DIRECTION('',(0.E0,1.908089953765E-1,-9.816271834477E-1));
#165=VECTOR('',#164,4.192674451334E0);
#166=CARTESIAN_POINT('',(-5.549999999999E0,-6.350000000001E0,0.E0));
#167=LINE('',#166,#165);
#168=CURVE_STYLE('',#30,POSITIVE_LENGTH_MEASURE(2.E-2),#14);
#169=PRESENTATION_STYLE_ASSIGNMENT((#168));
#170=STYLED_ITEM('',(#169),#167);
#171=DIRECTION('',(1.874275599919E-1,1.874275599919E-1,-9.642312064598E-1));
#172=VECTOR('',#171,6.682596278848E-1);
#173=CARTESIAN_POINT('',(-5.549999999999E0,-5.550000000001E0,
-4.115643212776E0));
#174=LINE('',#173,#172);
#175=CURVE_STYLE('',#30,POSITIVE_LENGTH_MEASURE(2.E-2),#14);
#176=PRESENTATION_STYLE_ASSIGNMENT((#175));
#177=STYLED_ITEM('',(#176),#174);
#178=DIRECTION('',(1.908089953765E-1,0.E0,-9.816271834477E-1));
#179=VECTOR('',#178,4.192674451334E0);
#180=CARTESIAN_POINT('',(-6.349999999999E0,-5.550000000001E0,0.E0));
#181=LINE('',#180,#179);
#182=CURVE_STYLE('',#30,POSITIVE_LENGTH_MEASURE(2.E-2),#14);
#183=PRESENTATION_STYLE_ASSIGNMENT((#182));
#184=STYLED_ITEM('',(#183),#181);
#185=DIRECTION('',(-1.908089953765E-1,0.E0,-9.816271834477E-1));
#186=VECTOR('',#185,4.192674451334E0);
#187=CARTESIAN_POINT('',(6.350000000001E0,5.549999999999E0,0.E0));
#188=LINE('',#187,#186);
#189=CURVE_STYLE('',#30,POSITIVE_LENGTH_MEASURE(2.E-2),#14);
#190=PRESENTATION_STYLE_ASSIGNMENT((#189));
#191=STYLED_ITEM('',(#190),#188);
#192=DIRECTION('',(0.E0,-1.908089953765E-1,-9.816271834477E-1));
#193=VECTOR('',#192,4.192674451334E0);
#194=CARTESIAN_POINT('',(-5.549999999999E0,6.349999999999E0,0.E0));
#195=LINE('',#194,#193);
#196=CURVE_STYLE('',#30,POSITIVE_LENGTH_MEASURE(2.E-2),#14);
#197=PRESENTATION_STYLE_ASSIGNMENT((#196));
#198=STYLED_ITEM('',(#197),#195);
#199=CARTESIAN_POINT('',(-6.349999999999E0,-5.550000000001E0,0.E0));
#200=CARTESIAN_POINT('',(-5.549999999999E0,-6.350000000001E0,0.E0));
#201=VERTEX_POINT('',#199);
#202=VERTEX_POINT('',#200);
#203=CARTESIAN_POINT('',(5.550000000001E0,-6.350000000001E0,0.E0));
#204=CARTESIAN_POINT('',(6.350000000001E0,-5.550000000001E0,0.E0));
#205=VERTEX_POINT('',#203);
#206=VERTEX_POINT('',#204);
#207=CARTESIAN_POINT('',(6.350000000001E0,5.549999999999E0,0.E0));
#208=CARTESIAN_POINT('',(5.550000000001E0,6.349999999999E0,0.E0));
#209=VERTEX_POINT('',#207);
#210=VERTEX_POINT('',#208);
#211=CARTESIAN_POINT('',(-5.549999999999E0,6.349999999999E0,0.E0));
#212=CARTESIAN_POINT('',(-6.349999999999E0,5.549999999999E0,0.E0));
#213=VERTEX_POINT('',#211);
#214=VERTEX_POINT('',#212);
#215=CARTESIAN_POINT('',(-5.549999999999E0,5.549999999999E0,-4.115643212776E0));
#216=VERTEX_POINT('',#215);
#217=CARTESIAN_POINT('',(-5.549999999999E0,-5.550000000001E0,
-4.115643212776E0));
#218=VERTEX_POINT('',#217);
#219=CARTESIAN_POINT('',(5.550000000001E0,-5.550000000001E0,-4.115643212776E0));
#220=VERTEX_POINT('',#219);
#221=CARTESIAN_POINT('',(5.550000000001E0,5.549999999999E0,-4.115643212776E0));
#222=VERTEX_POINT('',#221);
#223=CARTESIAN_POINT('',(5.424749728505E0,5.424749728503E0,-4.76E0));
#224=CARTESIAN_POINT('',(-5.424749728503E0,5.424749728503E0,-4.76E0));
#225=VERTEX_POINT('',#223);
#226=VERTEX_POINT('',#224);
#227=CARTESIAN_POINT('',(5.424749728505E0,-5.424749728505E0,-4.76E0));
#228=VERTEX_POINT('',#227);
#229=CARTESIAN_POINT('',(-5.424749728503E0,-5.424749728505E0,-4.76E0));
#230=VERTEX_POINT('',#229);
#231=CARTESIAN_POINT('',(-5.555999999999E0,-5.556000000001E0,0.E0));
#232=DIRECTION('',(0.E0,0.E0,-1.E0));
#233=DIRECTION('',(7.071067811865E-1,7.071067811866E-1,0.E0));
#234=AXIS2_PLACEMENT_3D('',#231,#232,#233);
#235=PLANE('',#234);
#237=ORIENTED_EDGE('',*,*,#236,.T.);
#239=ORIENTED_EDGE('',*,*,#238,.F.);
#241=ORIENTED_EDGE('',*,*,#240,.T.);
#243=ORIENTED_EDGE('',*,*,#242,.F.);
#245=ORIENTED_EDGE('',*,*,#244,.T.);
#247=ORIENTED_EDGE('',*,*,#246,.F.);
#249=ORIENTED_EDGE('',*,*,#248,.T.);
#251=ORIENTED_EDGE('',*,*,#250,.F.);
#252=EDGE_LOOP('',(#237,#239,#241,#243,#245,#247,#249,#251));
#253=FACE_OUTER_BOUND('',#252,.F.);
#255=CARTESIAN_POINT('',(-6.349999999999E0,5.961357599835E0,0.E0));
#256=DIRECTION('',(-9.816271834477E-1,0.E0,-1.908089953765E-1));
#257=DIRECTION('',(0.E0,-1.E0,0.E0));
#258=AXIS2_PLACEMENT_3D('',#255,#256,#257);
#259=PLANE('',#258);
#261=ORIENTED_EDGE('',*,*,#260,.F.);
#263=ORIENTED_EDGE('',*,*,#262,.F.);
#265=ORIENTED_EDGE('',*,*,#264,.F.);
#266=ORIENTED_EDGE('',*,*,#236,.F.);
#268=ORIENTED_EDGE('',*,*,#267,.T.);
#270=ORIENTED_EDGE('',*,*,#269,.T.);
#271=EDGE_LOOP('',(#261,#263,#265,#266,#268,#270));
#272=FACE_OUTER_BOUND('',#271,.F.);
#274=CARTESIAN_POINT('',(0.E0,0.E0,-4.76E0));
#275=DIRECTION('',(0.E0,0.E0,1.E0));
#276=DIRECTION('',(-7.071067811865E-1,-7.071067811865E-1,0.E0));
#277=AXIS2_PLACEMENT_3D('',#274,#275,#276);
#278=PLANE('',#277);
#280=ORIENTED_EDGE('',*,*,#279,.T.);
#281=ORIENTED_EDGE('',*,*,#260,.T.);
#283=ORIENTED_EDGE('',*,*,#282,.T.);
#285=ORIENTED_EDGE('',*,*,#284,.T.);
#286=EDGE_LOOP('',(#280,#281,#283,#285));
#287=FACE_OUTER_BOUND('',#286,.F.);
#289=CARTESIAN_POINT('',(5.961357599837E0,6.349999999999E0,0.E0));
#290=DIRECTION('',(0.E0,9.816271834477E-1,-1.908089953765E-1));
#291=DIRECTION('',(-1.E0,0.E0,0.E0));
#292=AXIS2_PLACEMENT_3D('',#289,#290,#291);
#293=PLANE('',#292);
#294=ORIENTED_EDGE('',*,*,#279,.F.);
#296=ORIENTED_EDGE('',*,*,#295,.F.);
#298=ORIENTED_EDGE('',*,*,#297,.F.);
#299=ORIENTED_EDGE('',*,*,#240,.F.);
#301=ORIENTED_EDGE('',*,*,#300,.T.);
#302=ORIENTED_EDGE('',*,*,#262,.T.);
#303=EDGE_LOOP('',(#294,#296,#298,#299,#301,#302));
#304=FACE_OUTER_BOUND('',#303,.F.);
#306=CARTESIAN_POINT('',(6.350000000001E0,-5.961357599837E0,0.E0));
#307=DIRECTION('',(9.816271834477E-1,0.E0,-1.908089953765E-1));
#308=DIRECTION('',(0.E0,1.E0,0.E0));
#309=AXIS2_PLACEMENT_3D('',#306,#307,#308);
#310=PLANE('',#309);
#312=ORIENTED_EDGE('',*,*,#311,.F.);
#313=ORIENTED_EDGE('',*,*,#244,.F.);
#315=ORIENTED_EDGE('',*,*,#314,.T.);
#316=ORIENTED_EDGE('',*,*,#295,.T.);
#317=ORIENTED_EDGE('',*,*,#284,.F.);
#319=ORIENTED_EDGE('',*,*,#318,.F.);
#320=EDGE_LOOP('',(#312,#313,#315,#316,#317,#319));
#321=FACE_OUTER_BOUND('',#320,.F.);
#323=CARTESIAN_POINT('',(5.550000000001E0,-5.550000000001E0,-2.016665174260E0));
#324=DIRECTION('',(0.E0,0.E0,1.E0));
#325=DIRECTION('',(1.E0,0.E0,0.E0));
#326=AXIS2_PLACEMENT_3D('',#323,#324,#325);
#327=CONICAL_SURFACE('',#326,4.08E-1,1.1E1);
#328=ORIENTED_EDGE('',*,*,#246,.T.);
#329=ORIENTED_EDGE('',*,*,#311,.T.);
#331=ORIENTED_EDGE('',*,*,#330,.F.);
#332=EDGE_LOOP('',(#328,#329,#331));
#333=FACE_OUTER_BOUND('',#332,.F.);
#335=CARTESIAN_POINT('',(-5.961357599835E0,-6.350000000001E0,0.E0));
#336=DIRECTION('',(0.E0,-9.816271834477E-1,-1.908089953765E-1));
#337=DIRECTION('',(1.E0,0.E0,0.E0));
#338=AXIS2_PLACEMENT_3D('',#335,#336,#337);
#339=PLANE('',#338);
#341=ORIENTED_EDGE('',*,*,#340,.F.);
#342=ORIENTED_EDGE('',*,*,#248,.F.);
#343=ORIENTED_EDGE('',*,*,#330,.T.);
#344=ORIENTED_EDGE('',*,*,#318,.T.);
#345=ORIENTED_EDGE('',*,*,#282,.F.);
#346=ORIENTED_EDGE('',*,*,#269,.F.);
#347=EDGE_LOOP('',(#341,#342,#343,#344,#345,#346));
#348=FACE_OUTER_BOUND('',#347,.F.);
#350=CARTESIAN_POINT('',(-5.549999999999E0,-5.550000000001E0,
-2.016665174260E0));
#351=DIRECTION('',(0.E0,0.E0,1.E0));
#352=DIRECTION('',(1.E0,0.E0,0.E0));
#353=AXIS2_PLACEMENT_3D('',#350,#351,#352);
#354=CONICAL_SURFACE('',#353,4.08E-1,1.1E1);
#355=ORIENTED_EDGE('',*,*,#250,.T.);
#356=ORIENTED_EDGE('',*,*,#340,.T.);
#357=ORIENTED_EDGE('',*,*,#267,.F.);
#358=EDGE_LOOP('',(#355,#356,#357));
#359=FACE_OUTER_BOUND('',#358,.F.);
#361=CARTESIAN_POINT('',(5.550000000001E0,5.549999999999E0,-2.016665174260E0));
#362=DIRECTION('',(0.E0,0.E0,1.E0));
#363=DIRECTION('',(1.E0,0.E0,0.E0));
#364=AXIS2_PLACEMENT_3D('',#361,#362,#363);
#365=CONICAL_SURFACE('',#364,4.08E-1,1.1E1);
#366=ORIENTED_EDGE('',*,*,#242,.T.);
#367=ORIENTED_EDGE('',*,*,#297,.T.);
#368=ORIENTED_EDGE('',*,*,#314,.F.);
#369=EDGE_LOOP('',(#366,#367,#368));
#370=FACE_OUTER_BOUND('',#369,.F.);
#372=CARTESIAN_POINT('',(-5.549999999999E0,5.549999999999E0,-2.016665174260E0));
#373=DIRECTION('',(0.E0,0.E0,1.E0));
#374=DIRECTION('',(1.E0,0.E0,0.E0));
#375=AXIS2_PLACEMENT_3D('',#372,#373,#374);
#376=CONICAL_SURFACE('',#375,4.08E-1,1.1E1);
#377=ORIENTED_EDGE('',*,*,#238,.T.);
#378=ORIENTED_EDGE('',*,*,#264,.T.);
#379=ORIENTED_EDGE('',*,*,#300,.F.);
#380=EDGE_LOOP('',(#377,#378,#379));
#381=FACE_OUTER_BOUND('',#380,.F.);
#385=FILL_AREA_STYLE_COLOUR('',#14);
#386=FILL_AREA_STYLE('',(#385));
#387=SURFACE_STYLE_FILL_AREA(#386);
#388=SURFACE_SIDE_STYLE('',(#387));
#389=SURFACE_STYLE_USAGE(.BOTH.,#388);
#390=PRESENTATION_STYLE_ASSIGNMENT((#389));
#25=STYLED_ITEM('',(#390),#384);
#391=CARTESIAN_POINT('',(0.E0,0.E0,0.E0));
#392=DIRECTION('',(0.E0,0.E0,1.E0));
#393=DIRECTION('',(1.E0,0.E0,0.E0));
#394=AXIS2_PLACEMENT_3D('MCS',#391,#392,#393);
#395=CURVE_STYLE('',#30,POSITIVE_LENGTH_MEASURE(2.E-2),#21);
#396=PRESENTATION_STYLE_ASSIGNMENT((#395));
#397=STYLED_ITEM('',(#396),#394);
#398=CARTESIAN_POINT('',(-6.349999999999E0,-6.350000000001E0,0.E0));
#399=DIRECTION('',(0.E0,0.E0,1.E0));
#400=DIRECTION('',(1.E0,0.E0,0.E0));
#401=AXIS2_PLACEMENT_3D('PCS',#398,#399,#400);
#402=CURVE_STYLE('',#30,POSITIVE_LENGTH_MEASURE(2.E-2),#21);
#403=PRESENTATION_STYLE_ASSIGNMENT((#402));
#404=STYLED_ITEM('',(#403),#401);
#405=DIRECTION('',(0.E0,-1.E0,0.E0));
#406=VECTOR('',#405,1.11E1);
#407=CARTESIAN_POINT('',(-6.349999999999E0,5.549999999999E0,0.E0));
#408=LINE('',#407,#406);
#410=CURVE_STYLE('',#30,POSITIVE_LENGTH_MEASURE(2.E-2),#1);
#411=PRESENTATION_STYLE_ASSIGNMENT((#410));
#412=STYLED_ITEM('',(#411),#409);
#414=CARTESIAN_POINT('',(-5.549999999999E0,-5.550000000001E0,0.E0));
#415=DIRECTION('',(0.E0,0.E0,1.E0));
#416=DIRECTION('',(-1.E0,0.E0,0.E0));
#417=AXIS2_PLACEMENT_3D('',#414,#415,#416);
#420=CURVE_STYLE('',#30,POSITIVE_LENGTH_MEASURE(2.E-2),#1);
#421=PRESENTATION_STYLE_ASSIGNMENT((#420));
#422=STYLED_ITEM('',(#421),#419);
#424=DIRECTION('',(1.E0,0.E0,0.E0));
#425=VECTOR('',#424,1.11E1);
#426=CARTESIAN_POINT('',(-5.549999999999E0,-6.350000000001E0,0.E0));
#427=LINE('',#426,#425);
#429=CURVE_STYLE('',#30,POSITIVE_LENGTH_MEASURE(2.E-2),#1);
#430=PRESENTATION_STYLE_ASSIGNMENT((#429));
#431=STYLED_ITEM('',(#430),#428);
#433=CARTESIAN_POINT('',(5.550000000001E0,-5.550000000001E0,0.E0));
#434=DIRECTION('',(0.E0,0.E0,1.E0));
#435=DIRECTION('',(0.E0,-1.E0,0.E0));
#436=AXIS2_PLACEMENT_3D('',#433,#434,#435);
#439=CURVE_STYLE('',#30,POSITIVE_LENGTH_MEASURE(2.E-2),#1);
#440=PRESENTATION_STYLE_ASSIGNMENT((#439));
#441=STYLED_ITEM('',(#440),#438);
#443=DIRECTION('',(0.E0,1.E0,0.E0));
#444=VECTOR('',#443,1.11E1);
#445=CARTESIAN_POINT('',(6.350000000001E0,-5.550000000001E0,0.E0));
#446=LINE('',#445,#444);
#448=CURVE_STYLE('',#30,POSITIVE_LENGTH_MEASURE(2.E-2),#1);
#449=PRESENTATION_STYLE_ASSIGNMENT((#448));
#450=STYLED_ITEM('',(#449),#447);
#452=CARTESIAN_POINT('',(5.550000000001E0,5.549999999999E0,0.E0));
#453=DIRECTION('',(0.E0,0.E0,1.E0));
#454=DIRECTION('',(1.E0,0.E0,0.E0));
#455=AXIS2_PLACEMENT_3D('',#452,#453,#454);
#458=CURVE_STYLE('',#30,POSITIVE_LENGTH_MEASURE(2.E-2),#1);
#459=PRESENTATION_STYLE_ASSIGNMENT((#458));
#460=STYLED_ITEM('',(#459),#457);
#462=DIRECTION('',(-1.E0,0.E0,0.E0));
#463=VECTOR('',#462,1.11E1);
#464=CARTESIAN_POINT('',(5.550000000001E0,6.349999999999E0,0.E0));
#465=LINE('',#464,#463);
#467=CURVE_STYLE('',#30,POSITIVE_LENGTH_MEASURE(2.E-2),#1);
#468=PRESENTATION_STYLE_ASSIGNMENT((#467));
#469=STYLED_ITEM('',(#468),#466);
#471=CARTESIAN_POINT('',(-5.549999999999E0,5.549999999999E0,0.E0));
#472=DIRECTION('',(0.E0,0.E0,1.E0));
#473=DIRECTION('',(0.E0,1.E0,0.E0));
#474=AXIS2_PLACEMENT_3D('',#471,#472,#473);
#477=CURVE_STYLE('',#30,POSITIVE_LENGTH_MEASURE(2.E-2),#1);
#478=PRESENTATION_STYLE_ASSIGNMENT((#477));
#479=STYLED_ITEM('',(#478),#476);
#483=PRESENTATION_LAYER_ASSIGNMENT('1','',(#394,#401));
#484=PRESENTATION_LAYER_ASSIGNMENT('9','',(#25));
#487=PLANE_ANGLE_MEASURE_WITH_UNIT(PLANE_ANGLE_MEASURE(1.745329251994E-2),#486);
#488=(CONVERSION_BASED_UNIT('DEGREE',#487)NAMED_UNIT(*)PLANE_ANGLE_UNIT());
#490=UNCERTAINTY_MEASURE_WITH_UNIT(LENGTH_MEASURE(3.427842879436E-3),#485,
'distance_accuracy_value',
'Maximum model space distance between geometric entities at asserted connectivities');
#482=GEOMETRIC_SET('',(#481));
#495=SHAPE_REPRESENTATION_RELATIONSHIP('','',#494,#492);
#496=SHAPE_REPRESENTATION_RELATIONSHIP('','',#494,#493);
#497=MECHANICAL_DESIGN_GEOMETRIC_PRESENTATION_REPRESENTATION('',(#33,#41,#48,
#56,#63,#71,#78,#86,#93,#100,#107,#114,#121,#128,#135,#142,#149,#156,#163,#170,
#177,#184,#191,#198,#25,#397,#404,#412,#422,#431,#441,#450,#460,#469,#479),
#491);
#498=APPLICATION_CONTEXT('automotive_design');
#499=APPLICATION_PROTOCOL_DEFINITION('international standard',
'automotive_design',2001,#498);
#500=PRODUCT_DEFINITION_CONTEXT('part definition',#498,'design');
#501=PRODUCT_CONTEXT('',#498,'mechanical');
#502=PRODUCT('SP120408N','SP120408N','NOT SPECIFIED',(#501));
#503=PRODUCT_DEFINITION_FORMATION('1','LAST_VERSION',#502);
#511=DERIVED_UNIT_ELEMENT(#510,2.E0);
#512=DERIVED_UNIT((#511));
#513=MEASURE_REPRESENTATION_ITEM('surface area measure',AREA_MEASURE(
5.039603935075E2),#512);
#518=DERIVED_UNIT_ELEMENT(#517,3.E0);
#519=DERIVED_UNIT((#518));
#520=MEASURE_REPRESENTATION_ITEM('volume measure',VOLUME_MEASURE(
6.605535567820E2),#519);
#524=CARTESIAN_POINT('centre point',(9.991207906454E-13,-9.988718961509E-13,
-2.256976730113E0));
#529=DERIVED_UNIT_ELEMENT(#528,2.E0);
#530=DERIVED_UNIT((#529));
#531=MEASURE_REPRESENTATION_ITEM('surface area measure',AREA_MEASURE(
5.039603935075E2),#530);
#536=DERIVED_UNIT_ELEMENT(#535,3.E0);
#537=DERIVED_UNIT((#536));
#538=MEASURE_REPRESENTATION_ITEM('volume measure',VOLUME_MEASURE(
6.605535567820E2),#537);
#542=CARTESIAN_POINT('centre point',(9.991207906454E-13,-9.988718961509E-13,
-2.256976730113E0));
#547=PRODUCT_RELATED_PRODUCT_CATEGORY('part','',(#502));
#1=DRAUGHTING_PRE_DEFINED_COLOUR('blue');
#2=DRAUGHTING_PRE_DEFINED_COLOUR('green');
#3=COLOUR_RGB('',1.1E-2,1.2E-2,1.E0);
#4=COLOUR_RGB('',3.019607843137E-1,3.019607843137E-1,3.019607843137E-1);
#5=COLOUR_RGB('',3.921568627451E-1,3.921568627451E-1,3.921568627451E-1);
#6=COLOUR_RGB('',4.1E-1,2.61589E-1,1.12848E-1);
#7=COLOUR_RGB('',5.019607843137E-1,5.019607843137E-1,5.019607843137E-1);
#8=COLOUR_RGB('',5.04854E-1,1.5455E-2,1.5455E-2);
#9=COLOUR_RGB('',5.764705882353E-1,5.450980392157E-1,3.921568627451E-1);
#10=COLOUR_RGB('',6.35294E-1,6.86275E-1,7.4902E-1);
#11=COLOUR_RGB('',6.40777E-1,6.40777E-1,6.40777E-1);
#12=COLOUR_RGB('',6.69062E-1,6.69903E-1,6.55217E-1);
#13=COLOUR_RGB('',7.843137254902E-1,5.294117647059E-1,7.843137254902E-1);
#14=COLOUR_RGB('',8.E-1,8.E-1,8.E-1);
#15=COLOUR_RGB('',8.784313725490E-1,9.490196078431E-1,1.E0);
#16=COLOUR_RGB('',9.21569E-1,7.05882E-1,4.70588E-1);
#17=DRAUGHTING_PRE_DEFINED_COLOUR('red');
#18=COLOUR_RGB('',1.E0,6.666666666667E-1,0.E0);
#19=COLOUR_RGB('',1.E0,7.647058823529E-1,1.921568627451E-1);
#20=COLOUR_RGB('',1.E0,8.392156862745E-1,8.901960784314E-1);
#21=DRAUGHTING_PRE_DEFINED_COLOUR('yellow');
#22=COLOUR_RGB('',1.E0,1.E0,5.3E-1);
#23=COLOUR_RGB('',1.E0,1.E0,9.49E-1);
#24=DRAUGHTING_PRE_DEFINED_COLOUR('white');
#38=CIRCLE('',#37,8.E-1);
#53=CIRCLE('',#52,8.E-1);
#68=CIRCLE('',#67,8.E-1);
#83=CIRCLE('',#82,8.E-1);
#236=EDGE_CURVE('',#201,#214,#29,.T.);
#238=EDGE_CURVE('',#213,#214,#38,.T.);
#240=EDGE_CURVE('',#213,#210,#45,.T.);
#242=EDGE_CURVE('',#209,#210,#53,.T.);
#244=EDGE_CURVE('',#209,#206,#60,.T.);
#246=EDGE_CURVE('',#205,#206,#68,.T.);
#248=EDGE_CURVE('',#205,#202,#75,.T.);
#250=EDGE_CURVE('',#201,#202,#83,.T.);
#254=ADVANCED_FACE('',(#253),#235,.F.);
#260=EDGE_CURVE('',#226,#230,#104,.T.);
#262=EDGE_CURVE('',#216,#226,#139,.T.);
#264=EDGE_CURVE('',#214,#216,#90,.T.);
#267=EDGE_CURVE('',#201,#218,#181,.T.);
#269=EDGE_CURVE('',#218,#230,#174,.T.);
#273=ADVANCED_FACE('',(#272),#259,.T.);
#279=EDGE_CURVE('',#225,#226,#97,.T.);
#282=EDGE_CURVE('',#230,#228,#111,.T.);
#284=EDGE_CURVE('',#228,#225,#118,.T.);
#288=ADVANCED_FACE('',(#287),#278,.F.);
#295=EDGE_CURVE('',#222,#225,#125,.T.);
#297=EDGE_CURVE('',#210,#222,#132,.T.);
#300=EDGE_CURVE('',#213,#216,#195,.T.);
#305=ADVANCED_FACE('',(#304),#293,.T.);
#311=EDGE_CURVE('',#206,#220,#146,.T.);
#314=EDGE_CURVE('',#209,#222,#188,.T.);
#318=EDGE_CURVE('',#220,#228,#153,.T.);
#322=ADVANCED_FACE('',(#321),#310,.T.);
#330=EDGE_CURVE('',#205,#220,#160,.T.);
#334=ADVANCED_FACE('',(#333),#327,.T.);
#340=EDGE_CURVE('',#202,#218,#167,.T.);
#349=ADVANCED_FACE('',(#348),#339,.T.);
#360=ADVANCED_FACE('',(#359),#354,.T.);
#371=ADVANCED_FACE('',(#370),#365,.T.);
#382=ADVANCED_FACE('',(#381),#376,.T.);
#383=CLOSED_SHELL('',(#254,#273,#288,#305,#322,#334,#349,#360,#371,#382));
#384=MANIFOLD_SOLID_BREP('',#383);
#409=TRIMMED_CURVE('',#408,(PARAMETER_VALUE(0.E0)),(PARAMETER_VALUE(1.E0)),.T.,
.UNSPECIFIED.);
#413=COMPOSITE_CURVE_SEGMENT(.CONTINUOUS.,.T.,#409);
#418=CIRCLE('',#417,8.E-1);
#419=TRIMMED_CURVE('',#418,(PARAMETER_VALUE(0.E0)),(PARAMETER_VALUE(9.E1)),.T.,
.UNSPECIFIED.);
#423=COMPOSITE_CURVE_SEGMENT(.CONTINUOUS.,.T.,#419);
#428=TRIMMED_CURVE('',#427,(PARAMETER_VALUE(0.E0)),(PARAMETER_VALUE(1.E0)),.T.,
.UNSPECIFIED.);
#432=COMPOSITE_CURVE_SEGMENT(.CONTINUOUS.,.T.,#428);
#437=CIRCLE('',#436,8.E-1);
#438=TRIMMED_CURVE('',#437,(PARAMETER_VALUE(0.E0)),(PARAMETER_VALUE(9.E1)),.T.,
.UNSPECIFIED.);
#442=COMPOSITE_CURVE_SEGMENT(.CONTINUOUS.,.T.,#438);
#447=TRIMMED_CURVE('',#446,(PARAMETER_VALUE(0.E0)),(PARAMETER_VALUE(1.E0)),.T.,
.UNSPECIFIED.);
#451=COMPOSITE_CURVE_SEGMENT(.CONTINUOUS.,.T.,#447);
#456=CIRCLE('',#455,8.E-1);
#457=TRIMMED_CURVE('',#456,(PARAMETER_VALUE(0.E0)),(PARAMETER_VALUE(9.E1)),.T.,
.UNSPECIFIED.);
#461=COMPOSITE_CURVE_SEGMENT(.CONTINUOUS.,.T.,#457);
#466=TRIMMED_CURVE('',#465,(PARAMETER_VALUE(0.E0)),(PARAMETER_VALUE(1.E0)),.T.,
.UNSPECIFIED.);
#470=COMPOSITE_CURVE_SEGMENT(.CONTINUOUS.,.T.,#466);
#475=CIRCLE('',#474,8.E-1);
#476=TRIMMED_CURVE('',#475,(PARAMETER_VALUE(0.E0)),(PARAMETER_VALUE(9.E1)),.T.,
.UNSPECIFIED.);
#480=COMPOSITE_CURVE_SEGMENT(.CONTINUOUS.,.T.,#476);
#481=COMPOSITE_CURVE('',(#413,#423,#432,#442,#451,#461,#470,#480),.F.);
#485=(LENGTH_UNIT()NAMED_UNIT(*)SI_UNIT(.MILLI.,.METRE.));
#486=(NAMED_UNIT(*)PLANE_ANGLE_UNIT()SI_UNIT($,.RADIAN.));
#489=(NAMED_UNIT(*)SI_UNIT($,.STERADIAN.)SOLID_ANGLE_UNIT());
#491=(GEOMETRIC_REPRESENTATION_CONTEXT(3)GLOBAL_UNCERTAINTY_ASSIGNED_CONTEXT((
#490))GLOBAL_UNIT_ASSIGNED_CONTEXT((#485,#488,#489))REPRESENTATION_CONTEXT
('ID1','3'));
#492=ADVANCED_BREP_SHAPE_REPRESENTATION('',(#384),#491);
#493=GEOMETRICALLY_BOUNDED_SURFACE_SHAPE_REPRESENTATION('',(#482),#491);
#494=SHAPE_REPRESENTATION('',(#394,#401),#491);
#504=PRODUCT_DEFINITION('part definition','',#503,#500);
#505=PRODUCT_DEFINITION_SHAPE('','SHAPE FOR SP120408N.',#504);
#506=SHAPE_ASPECT('','solid data associated with SP120408N',#505,.F.);
#507=PROPERTY_DEFINITION('',
'shape for solid data with which properties are associated',#506);
#508=SHAPE_REPRESENTATION('',(#384),#491);
#509=SHAPE_DEFINITION_REPRESENTATION(#507,#508);
#510=(LENGTH_UNIT()NAMED_UNIT(*)SI_UNIT(.MILLI.,.METRE.));
#514=PROPERTY_DEFINITION('geometric validation property','area of SP120408N',
#506);
#515=REPRESENTATION('surface area',(#513),#491);
#516=PROPERTY_DEFINITION_REPRESENTATION(#514,#515);
#517=(LENGTH_UNIT()NAMED_UNIT(*)SI_UNIT(.MILLI.,.METRE.));
#521=PROPERTY_DEFINITION('geometric validation property','volume of SP120408N',
#506);
#522=REPRESENTATION('volume',(#520),#491);
#523=PROPERTY_DEFINITION_REPRESENTATION(#521,#522);
#525=PROPERTY_DEFINITION('geometric validation property',
'centroid of SP120408N',#506);
#526=REPRESENTATION('centroid',(#524),#491);
#527=PROPERTY_DEFINITION_REPRESENTATION(#525,#526);
#528=(LENGTH_UNIT()NAMED_UNIT(*)SI_UNIT(.MILLI.,.METRE.));
#532=PROPERTY_DEFINITION('geometric validation property','area of SP120408N',
#505);
#533=REPRESENTATION('surface area',(#531),#491);
#534=PROPERTY_DEFINITION_REPRESENTATION(#532,#533);
#535=(LENGTH_UNIT()NAMED_UNIT(*)SI_UNIT(.MILLI.,.METRE.));
#539=PROPERTY_DEFINITION('geometric validation property','volume of SP120408N',
#505);
#540=REPRESENTATION('volume',(#538),#491);
#541=PROPERTY_DEFINITION_REPRESENTATION(#539,#540);
#543=PROPERTY_DEFINITION('geometric validation property',
'centroid of SP120408N',#505);
#544=REPRESENTATION('centroid',(#542),#491);
#545=PROPERTY_DEFINITION_REPRESENTATION(#543,#544);
#546=SHAPE_DEFINITION_REPRESENTATION(#505,#494);
ENDSEC;
END-ISO-10303-21;
