ISO-10303-21;
HEADER;
FILE_DESCRIPTION((''),'2;1');
FILE_NAME('TP220408N','2024-08-11T09:03:49',('tlyaf015'),('PTC Japan'),
'CREO PARAMETRIC BY PTC INC, 2021424','CREO PARAMETRIC BY PTC INC, 2021424','');
FILE_SCHEMA(('AUTOMOTIVE_DESIGN { 1 0 10303 214 1 1 1 1 }'));
ENDSEC;
DATA;
#19=CARTESIAN_POINT('',(0.E0,1.11E1,0.E0));
#20=DIRECTION('',(0.E0,0.E0,1.E0));
#21=DIRECTION('',(8.660254037603E-1,5.000000000418E-1,0.E0));
#22=AXIS2_PLACEMENT_3D('',#19,#20,#21);
#24=DRAUGHTING_PRE_DEFINED_CURVE_FONT('continuous');
#25=CURVE_STYLE('',#24,POSITIVE_LENGTH_MEASURE(2.E-2),#10);
#26=PRESENTATION_STYLE_ASSIGNMENT((#25));
#27=STYLED_ITEM('',(#26),#23);
#28=DIRECTION('',(-5.E-1,8.660254037844E-1,0.E0));
#29=VECTOR('',#28,1.922576396407E1);
#30=CARTESIAN_POINT('',(1.030570230505E1,-5.150000000024E0,
-9.391284455172E-14));
#31=LINE('',#30,#29);
#32=CURVE_STYLE('',#24,POSITIVE_LENGTH_MEASURE(2.E-2),#10);
#33=PRESENTATION_STYLE_ASSIGNMENT((#32));
#34=STYLED_ITEM('',(#33),#31);
#35=CARTESIAN_POINT('',(9.612881982007E0,-5.55E0,0.E0));
#36=DIRECTION('',(0.E0,0.E0,1.E0));
#37=DIRECTION('',(-1.063593657591E-12,-1.E0,0.E0));
#38=AXIS2_PLACEMENT_3D('',#35,#36,#37);
#40=CURVE_STYLE('',#24,POSITIVE_LENGTH_MEASURE(2.E-2),#10);
#41=PRESENTATION_STYLE_ASSIGNMENT((#40));
#42=STYLED_ITEM('',(#41),#39);
#43=DIRECTION('',(1.E0,0.E0,0.E0));
#44=VECTOR('',#43,1.922576396401E1);
#45=CARTESIAN_POINT('',(-9.612881982007E0,-6.35E0,0.E0));
#46=LINE('',#45,#44);
#47=CURVE_STYLE('',#24,POSITIVE_LENGTH_MEASURE(2.E-2),#10);
#48=PRESENTATION_STYLE_ASSIGNMENT((#47));
#49=STYLED_ITEM('',(#48),#46);
#50=CARTESIAN_POINT('',(-9.612881982007E0,-5.55E0,0.E0));
#51=DIRECTION('',(0.E0,0.E0,1.E0));
#52=DIRECTION('',(-5.000000000014E-1,-8.660254037837E-1,0.E0));
#53=AXIS2_PLACEMENT_3D('',#50,#51,#52);
#55=CURVE_STYLE('',#24,POSITIVE_LENGTH_MEASURE(2.E-2),#10);
#56=PRESENTATION_STYLE_ASSIGNMENT((#55));
#57=STYLED_ITEM('',(#56),#54);
#58=CARTESIAN_POINT('',(-9.612881982007E0,-5.55E0,0.E0));
#59=DIRECTION('',(0.E0,0.E0,1.E0));
#60=DIRECTION('',(-8.660254037866E-1,4.999999999962E-1,0.E0));
#61=AXIS2_PLACEMENT_3D('',#58,#59,#60);
#63=CURVE_STYLE('',#24,POSITIVE_LENGTH_MEASURE(2.E-2),#10);
#64=PRESENTATION_STYLE_ASSIGNMENT((#63));
#65=STYLED_ITEM('',(#64),#62);
#66=DIRECTION('',(-5.E-1,-8.660254037844E-1,0.E0));
#67=VECTOR('',#66,1.922576396402E1);
#68=CARTESIAN_POINT('',(-6.928203230245E-1,1.15E1,-2.412266662162E-13));
#69=LINE('',#68,#67);
#70=CURVE_STYLE('',#24,POSITIVE_LENGTH_MEASURE(2.E-2),#10);
#71=PRESENTATION_STYLE_ASSIGNMENT((#70));
#72=STYLED_ITEM('',(#71),#69);
#73=CARTESIAN_POINT('',(0.E0,1.11E1,0.E0));
#74=DIRECTION('',(0.E0,0.E0,1.E0));
#75=DIRECTION('',(4.999999999993E-1,8.660254037849E-1,0.E0));
#76=AXIS2_PLACEMENT_3D('',#73,#74,#75);
#78=CURVE_STYLE('',#24,POSITIVE_LENGTH_MEASURE(2.E-2),#10);
#79=PRESENTATION_STYLE_ASSIGNMENT((#78));
#80=STYLED_ITEM('',(#79),#77);
#81=DIRECTION('',(-1.652454372633E-1,-9.540449769400E-2,-9.816271834477E-1));
#82=VECTOR('',#81,4.192674451336E0);
#83=CARTESIAN_POINT('',(6.928203230130E-1,1.150000000002E1,
-1.798017666490E-13));
#84=LINE('',#83,#82);
#85=CURVE_STYLE('',#24,POSITIVE_LENGTH_MEASURE(2.E-2),#10);
#86=PRESENTATION_STYLE_ASSIGNMENT((#85));
#87=STYLED_ITEM('',(#86),#84);
#88=DIRECTION('',(-1.652454372658E-1,9.540449768935E-2,9.816271834477E-1));
#89=VECTOR('',#88,4.192674451336E0);
#90=CARTESIAN_POINT('',(-4.442464914452E-13,1.11E1,-4.115643212778E0));
#91=LINE('',#90,#89);
#92=CURVE_STYLE('',#24,POSITIVE_LENGTH_MEASURE(2.E-2),#10);
#93=PRESENTATION_STYLE_ASSIGNMENT((#92));
#94=STYLED_ITEM('',(#93),#91);
#95=DIRECTION('',(-3.137977322734E-1,1.811712051993E-1,-9.320450512860E-1));
#96=VECTOR('',#95,6.913365253462E-1);
#97=CARTESIAN_POINT('',(9.612881982006E0,-5.55E0,-4.115643212778E0));
#98=LINE('',#97,#96);
#99=CURVE_STYLE('',#24,POSITIVE_LENGTH_MEASURE(2.E-2),#10);
#100=PRESENTATION_STYLE_ASSIGNMENT((#99));
#101=STYLED_ITEM('',(#100),#98);
#102=DIRECTION('',(-2.766444599654E-13,-3.623424103982E-1,-9.320450512860E-1));
#103=VECTOR('',#102,6.913365253461E-1);
#104=CARTESIAN_POINT('',(-4.442464914452E-13,1.11E1,-4.115643212778E0));
#105=LINE('',#104,#103);
#106=CURVE_STYLE('',#24,POSITIVE_LENGTH_MEASURE(2.E-2),#10);
#107=PRESENTATION_STYLE_ASSIGNMENT((#106));
#108=STYLED_ITEM('',(#107),#105);
#109=DIRECTION('',(-5.E-1,-8.660254037844E-1,0.E0));
#110=VECTOR('',#109,1.879188429623E1);
#111=CARTESIAN_POINT('',(-6.355009111540E-13,1.084949945701E1,-4.76E0));
#112=LINE('',#111,#110);
#113=CURVE_STYLE('',#24,POSITIVE_LENGTH_MEASURE(2.E-2),#10);
#114=PRESENTATION_STYLE_ASSIGNMENT((#113));
#115=STYLED_ITEM('',(#114),#112);
#116=DIRECTION('',(1.652454372663E-1,-9.540449768865E-2,-9.816271834477E-1));
#117=VECTOR('',#116,4.192674451336E0);
#118=CARTESIAN_POINT('',(-1.030570230503E1,-5.149999999998E0,
-1.495836224534E-13));
#119=LINE('',#118,#117);
#120=CURVE_STYLE('',#24,POSITIVE_LENGTH_MEASURE(2.E-2),#10);
#121=PRESENTATION_STYLE_ASSIGNMENT((#120));
#122=STYLED_ITEM('',(#121),#119);
#123=DIRECTION('',(8.473621598902E-14,-1.908089953766E-1,9.816271834477E-1));
#124=VECTOR('',#123,4.192674451336E0);
#125=CARTESIAN_POINT('',(-9.612881982007E0,-5.55E0,-4.115643212778E0));
#126=LINE('',#125,#124);
#127=CURVE_STYLE('',#24,POSITIVE_LENGTH_MEASURE(2.E-2),#10);
#128=PRESENTATION_STYLE_ASSIGNMENT((#127));
#129=STYLED_ITEM('',(#128),#126);
#130=DIRECTION('',(3.137977322728E-1,1.811712051994E-1,-9.320450512862E-1));
#131=VECTOR('',#130,6.913365253459E-1);
#132=CARTESIAN_POINT('',(-9.612881982007E0,-5.55E0,-4.115643212778E0));
#133=LINE('',#132,#131);
#134=CURVE_STYLE('',#24,POSITIVE_LENGTH_MEASURE(2.E-2),#10);
#135=PRESENTATION_STYLE_ASSIGNMENT((#134));
#136=STYLED_ITEM('',(#135),#133);
#137=DIRECTION('',(-1.E0,0.E0,0.E0));
#138=VECTOR('',#137,1.879188429623E1);
#139=CARTESIAN_POINT('',(9.395942148115E0,-5.424749728504E0,-4.76E0));
#140=LINE('',#139,#138);
#141=CURVE_STYLE('',#24,POSITIVE_LENGTH_MEASURE(2.E-2),#10);
#142=PRESENTATION_STYLE_ASSIGNMENT((#141));
#143=STYLED_ITEM('',(#142),#140);
#144=DIRECTION('',(5.E-1,-8.660254037844E-1,0.E0));
#145=VECTOR('',#144,1.879188429623E1);
#146=CARTESIAN_POINT('',(-6.355009111540E-13,1.084949945701E1,-4.76E0));
#147=LINE('',#146,#145);
#148=CURVE_STYLE('',#24,POSITIVE_LENGTH_MEASURE(2.E-2),#10);
#149=PRESENTATION_STYLE_ASSIGNMENT((#148));
#150=STYLED_ITEM('',(#149),#147);
#151=DIRECTION('',(1.821828643764E-14,1.908089953765E-1,-9.816271834477E-1));
#152=VECTOR('',#151,4.192674451336E0);
#153=CARTESIAN_POINT('',(9.612881982006E0,-6.35E0,0.E0));
#154=LINE('',#153,#152);
#155=CURVE_STYLE('',#24,POSITIVE_LENGTH_MEASURE(2.E-2),#10);
#156=PRESENTATION_STYLE_ASSIGNMENT((#155));
#157=STYLED_ITEM('',(#156),#154);
#158=DIRECTION('',(1.652454372700E-1,9.540449768241E-2,9.816271834477E-1));
#159=VECTOR('',#158,4.192674451336E0);
#160=CARTESIAN_POINT('',(9.612881982006E0,-5.55E0,-4.115643212778E0));
#161=LINE('',#160,#159);
#162=CURVE_STYLE('',#24,POSITIVE_LENGTH_MEASURE(2.E-2),#10);
#163=PRESENTATION_STYLE_ASSIGNMENT((#162));
#164=STYLED_ITEM('',(#163),#161);
#165=CARTESIAN_POINT('',(6.928203230082E-1,1.150000000003E1,0.E0));
#166=CARTESIAN_POINT('',(3.999999999994E-1,1.179282032303E1,0.E0));
#167=VERTEX_POINT('',#165);
#168=VERTEX_POINT('',#166);
#169=CARTESIAN_POINT('',(-6.928203230185E-1,1.150000000002E1,0.E0));
#170=VERTEX_POINT('',#169);
#171=CARTESIAN_POINT('',(-1.030570230503E1,-5.149999999998E0,
-1.495836224534E-13));
#172=VERTEX_POINT('',#171);
#173=CARTESIAN_POINT('',(-1.001288198201E1,-6.242820323027E0,0.E0));
#174=VERTEX_POINT('',#173);
#175=CARTESIAN_POINT('',(-9.612881982006E0,-6.35E0,0.E0));
#176=VERTEX_POINT('',#175);
#177=CARTESIAN_POINT('',(9.612881982006E0,-6.35E0,0.E0));
#178=VERTEX_POINT('',#177);
#179=CARTESIAN_POINT('',(1.030570230506E1,-5.150000000049E0,0.E0));
#180=VERTEX_POINT('',#179);
#181=CARTESIAN_POINT('',(-4.442464914452E-13,1.11E1,-4.115643212778E0));
#182=CARTESIAN_POINT('',(-6.355009111540E-13,1.084949945701E1,-4.76E0));
#183=VERTEX_POINT('',#181);
#184=VERTEX_POINT('',#182);
#185=CARTESIAN_POINT('',(9.612881982006E0,-5.55E0,-4.115643212778E0));
#186=VERTEX_POINT('',#185);
#187=CARTESIAN_POINT('',(9.395942148115E0,-5.424749728504E0,-4.76E0));
#188=VERTEX_POINT('',#187);
#189=CARTESIAN_POINT('',(-9.395942148116E0,-5.424749728504E0,-4.76E0));
#190=VERTEX_POINT('',#189);
#191=CARTESIAN_POINT('',(-9.612881982007E0,-5.55E0,-4.115643212778E0));
#192=VERTEX_POINT('',#191);
#193=CARTESIAN_POINT('',(0.E0,0.E0,0.E0));
#194=DIRECTION('',(0.E0,0.E0,1.E0));
#195=DIRECTION('',(5.E-1,8.660254037844E-1,0.E0));
#196=AXIS2_PLACEMENT_3D('',#193,#194,#195);
#197=PLANE('',#196);
#199=ORIENTED_EDGE('',*,*,#198,.F.);
#201=ORIENTED_EDGE('',*,*,#200,.F.);
#203=ORIENTED_EDGE('',*,*,#202,.F.);
#205=ORIENTED_EDGE('',*,*,#204,.F.);
#207=ORIENTED_EDGE('',*,*,#206,.F.);
#209=ORIENTED_EDGE('',*,*,#208,.F.);
#211=ORIENTED_EDGE('',*,*,#210,.F.);
#213=ORIENTED_EDGE('',*,*,#212,.F.);
#214=EDGE_LOOP('',(#199,#201,#203,#205,#207,#209,#211,#213));
#215=FACE_OUTER_BOUND('',#214,.F.);
#217=CARTESIAN_POINT('',(0.E0,1.11E1,-2.016665174260E0));
#218=DIRECTION('',(0.E0,0.E0,1.E0));
#219=DIRECTION('',(5.E-1,8.660254037844E-1,0.E0));
#220=AXIS2_PLACEMENT_3D('',#217,#218,#219);
#221=CONICAL_SURFACE('',#220,4.08E-1,1.1E1);
#223=ORIENTED_EDGE('',*,*,#222,.F.);
#224=ORIENTED_EDGE('',*,*,#198,.T.);
#225=ORIENTED_EDGE('',*,*,#212,.T.);
#227=ORIENTED_EDGE('',*,*,#226,.F.);
#228=EDGE_LOOP('',(#223,#224,#225,#227));
#229=FACE_OUTER_BOUND('',#228,.F.);
#231=CARTESIAN_POINT('',(1.086570470513E1,-6.119952609327E0,0.E0));
#232=DIRECTION('',(8.501140779111E-1,4.908135917238E-1,-1.908089953765E-1));
#233=DIRECTION('',(5.E-1,-8.660254037845E-1,1.408888267303E-14));
#234=AXIS2_PLACEMENT_3D('',#231,#232,#233);
#235=PLANE('',#234);
#237=ORIENTED_EDGE('',*,*,#236,.T.);
#239=ORIENTED_EDGE('',*,*,#238,.T.);
#241=ORIENTED_EDGE('',*,*,#240,.F.);
#243=ORIENTED_EDGE('',*,*,#242,.T.);
#244=ORIENTED_EDGE('',*,*,#200,.T.);
#245=ORIENTED_EDGE('',*,*,#222,.T.);
#246=EDGE_LOOP('',(#237,#239,#241,#243,#244,#245));
#247=FACE_OUTER_BOUND('',#246,.F.);
#249=CARTESIAN_POINT('',(-1.328179229315E-1,1.246995260933E1,0.E0));
#250=DIRECTION('',(-8.501140779111E-1,4.908135917238E-1,-1.908089953765E-1));
#251=DIRECTION('',(5.E-1,8.660254037845E-1,-1.408888267303E-14));
#252=AXIS2_PLACEMENT_3D('',#249,#250,#251);
#253=PLANE('',#252);
#254=ORIENTED_EDGE('',*,*,#236,.F.);
#255=ORIENTED_EDGE('',*,*,#226,.T.);
#256=ORIENTED_EDGE('',*,*,#210,.T.);
#258=ORIENTED_EDGE('',*,*,#257,.T.);
#260=ORIENTED_EDGE('',*,*,#259,.T.);
#262=ORIENTED_EDGE('',*,*,#261,.F.);
#263=EDGE_LOOP('',(#254,#255,#256,#258,#260,#262));
#264=FACE_OUTER_BOUND('',#263,.F.);
#266=CARTESIAN_POINT('',(-9.612881982007E0,-5.55E0,-2.016665174260E0));
#267=DIRECTION('',(0.E0,0.E0,1.E0));
#268=DIRECTION('',(5.E-1,8.660254037844E-1,0.E0));
#269=AXIS2_PLACEMENT_3D('',#266,#267,#268);
#270=CONICAL_SURFACE('',#269,4.08E-1,1.1E1);
#271=ORIENTED_EDGE('',*,*,#257,.F.);
#272=ORIENTED_EDGE('',*,*,#208,.T.);
#273=ORIENTED_EDGE('',*,*,#206,.T.);
#275=ORIENTED_EDGE('',*,*,#274,.F.);
#276=EDGE_LOOP('',(#271,#272,#273,#275));
#277=FACE_OUTER_BOUND('',#276,.F.);
#279=CARTESIAN_POINT('',(-1.073288678220E1,-6.35E0,0.E0));
#280=DIRECTION('',(0.E0,-9.816271834477E-1,-1.908089953765E-1));
#281=DIRECTION('',(-1.E0,0.E0,0.E0));
#282=AXIS2_PLACEMENT_3D('',#279,#280,#281);
#283=PLANE('',#282);
#284=ORIENTED_EDGE('',*,*,#240,.T.);
#286=ORIENTED_EDGE('',*,*,#285,.T.);
#287=ORIENTED_EDGE('',*,*,#259,.F.);
#288=ORIENTED_EDGE('',*,*,#274,.T.);
#289=ORIENTED_EDGE('',*,*,#204,.T.);
#291=ORIENTED_EDGE('',*,*,#290,.T.);
#292=EDGE_LOOP('',(#284,#286,#287,#288,#289,#291));
#293=FACE_OUTER_BOUND('',#292,.F.);
#295=CARTESIAN_POINT('',(0.E0,0.E0,-4.76E0));
#296=DIRECTION('',(0.E0,0.E0,1.E0));
#297=DIRECTION('',(5.E-1,8.660254037844E-1,0.E0));
#298=AXIS2_PLACEMENT_3D('',#295,#296,#297);
#299=PLANE('',#298);
#300=ORIENTED_EDGE('',*,*,#261,.T.);
#301=ORIENTED_EDGE('',*,*,#285,.F.);
#302=ORIENTED_EDGE('',*,*,#238,.F.);
#303=EDGE_LOOP('',(#300,#301,#302));
#304=FACE_OUTER_BOUND('',#303,.F.);
#306=CARTESIAN_POINT('',(9.612881982007E0,-5.55E0,-2.016665174260E0));
#307=DIRECTION('',(0.E0,0.E0,1.E0));
#308=DIRECTION('',(5.E-1,8.660254037844E-1,0.E0));
#309=AXIS2_PLACEMENT_3D('',#306,#307,#308);
#310=CONICAL_SURFACE('',#309,4.08E-1,1.1E1);
#311=ORIENTED_EDGE('',*,*,#290,.F.);
#312=ORIENTED_EDGE('',*,*,#202,.T.);
#313=ORIENTED_EDGE('',*,*,#242,.F.);
#314=EDGE_LOOP('',(#311,#312,#313));
#315=FACE_OUTER_BOUND('',#314,.F.);
#319=FILL_AREA_STYLE_COLOUR('',#10);
#320=FILL_AREA_STYLE('',(#319));
#321=SURFACE_STYLE_FILL_AREA(#320);
#322=SURFACE_SIDE_STYLE('',(#321));
#323=SURFACE_STYLE_USAGE(.BOTH.,#322);
#324=PRESENTATION_STYLE_ASSIGNMENT((#323));
#18=STYLED_ITEM('',(#324),#318);
#325=DIRECTION('',(5.E-1,8.660254037844E-1,0.E0));
#326=VECTOR('',#325,1.922576396401E1);
#327=CARTESIAN_POINT('',(-1.030570230503E1,-5.149999999993E0,0.E0));
#328=LINE('',#327,#326);
#330=CURVE_STYLE('',#24,POSITIVE_LENGTH_MEASURE(2.E-2),#1);
#331=PRESENTATION_STYLE_ASSIGNMENT((#330));
#332=STYLED_ITEM('',(#331),#329);
#334=DIRECTION('',(5.E-1,-8.660254037844E-1,0.E0));
#335=VECTOR('',#334,1.922576396413E1);
#336=CARTESIAN_POINT('',(6.928203229889E-1,1.150000000006E1,0.E0));
#337=LINE('',#336,#335);
#339=CURVE_STYLE('',#24,POSITIVE_LENGTH_MEASURE(2.E-2),#1);
#340=PRESENTATION_STYLE_ASSIGNMENT((#339));
#341=STYLED_ITEM('',(#340),#338);
#342=DIRECTION('',(-1.E0,0.E0,0.E0));
#343=VECTOR('',#342,1.922576396401E1);
#344=CARTESIAN_POINT('',(9.612881982007E0,-6.35E0,0.E0));
#345=LINE('',#344,#343);
#347=CURVE_STYLE('',#24,POSITIVE_LENGTH_MEASURE(2.E-2),#1);
#348=PRESENTATION_STYLE_ASSIGNMENT((#347));
#349=STYLED_ITEM('',(#348),#346);
#350=CARTESIAN_POINT('',(0.E0,0.E0,0.E0));
#351=DIRECTION('',(0.E0,0.E0,1.E0));
#352=DIRECTION('',(1.E0,0.E0,0.E0));
#353=AXIS2_PLACEMENT_3D('MCS',#350,#351,#352);
#354=CURVE_STYLE('',#24,POSITIVE_LENGTH_MEASURE(2.E-2),#16);
#355=PRESENTATION_STYLE_ASSIGNMENT((#354));
#356=STYLED_ITEM('',(#355),#353);
#357=CARTESIAN_POINT('',(-1.099852262806E1,-6.35E0,0.E0));
#358=DIRECTION('',(0.E0,0.E0,1.E0));
#359=DIRECTION('',(1.E0,0.E0,0.E0));
#360=AXIS2_PLACEMENT_3D('PCS',#357,#358,#359);
#361=CURVE_STYLE('',#24,POSITIVE_LENGTH_MEASURE(2.E-2),#16);
#362=PRESENTATION_STYLE_ASSIGNMENT((#361));
#363=STYLED_ITEM('',(#362),#360);
#364=CARTESIAN_POINT('',(0.E0,1.11E1,1.332267629550E-14));
#365=DIRECTION('',(0.E0,0.E0,-1.E0));
#366=DIRECTION('',(-8.660254037841E-1,5.000000000006E-1,0.E0));
#367=AXIS2_PLACEMENT_3D('',#364,#365,#366);
#370=CURVE_STYLE('',#24,POSITIVE_LENGTH_MEASURE(2.E-2),#1);
#371=PRESENTATION_STYLE_ASSIGNMENT((#370));
#372=STYLED_ITEM('',(#371),#369);
#373=CARTESIAN_POINT('',(0.E0,1.11E1,1.332267629550E-14));
#374=DIRECTION('',(0.E0,0.E0,-1.E0));
#375=DIRECTION('',(5.E-1,8.660254037844E-1,0.E0));
#376=AXIS2_PLACEMENT_3D('',#373,#374,#375);
#379=CURVE_STYLE('',#24,POSITIVE_LENGTH_MEASURE(2.E-2),#1);
#380=PRESENTATION_STYLE_ASSIGNMENT((#379));
#381=STYLED_ITEM('',(#380),#378);
#382=CARTESIAN_POINT('',(9.612881982007E0,-5.55E0,0.E0));
#383=DIRECTION('',(0.E0,0.E0,-1.E0));
#384=DIRECTION('',(8.660254038159E-1,4.999999999456E-1,0.E0));
#385=AXIS2_PLACEMENT_3D('',#382,#383,#384);
#388=CURVE_STYLE('',#24,POSITIVE_LENGTH_MEASURE(2.E-2),#1);
#389=PRESENTATION_STYLE_ASSIGNMENT((#388));
#390=STYLED_ITEM('',(#389),#387);
#391=CARTESIAN_POINT('',(-9.612881982007E0,-5.55E0,1.332267629550E-14));
#392=DIRECTION('',(0.E0,0.E0,-1.E0));
#393=DIRECTION('',(0.E0,-1.E0,0.E0));
#394=AXIS2_PLACEMENT_3D('',#391,#392,#393);
#397=CURVE_STYLE('',#24,POSITIVE_LENGTH_MEASURE(2.E-2),#1);
#398=PRESENTATION_STYLE_ASSIGNMENT((#397));
#399=STYLED_ITEM('',(#398),#396);
#400=CARTESIAN_POINT('',(-9.612881982007E0,-5.55E0,1.332267629550E-14));
#401=DIRECTION('',(0.E0,0.E0,-1.E0));
#402=DIRECTION('',(-5.E-1,-8.660254037844E-1,0.E0));
#403=AXIS2_PLACEMENT_3D('',#400,#401,#402);
#406=CURVE_STYLE('',#24,POSITIVE_LENGTH_MEASURE(2.E-2),#1);
#407=PRESENTATION_STYLE_ASSIGNMENT((#406));
#408=STYLED_ITEM('',(#407),#405);
#409=PRESENTATION_LAYER_ASSIGNMENT('1','',(#18,#353,#360));
#410=PRESENTATION_LAYER_ASSIGNMENT('2','',(#329,#338,#346,#369,#378,#387,#396,
#405));
#411=PRESENTATION_LAYER_ASSIGNMENT('ALL_FEATURES','',(#329,#338,#346,#353,#360,
#369,#378,#387,#396,#405));
#412=PRESENTATION_LAYER_ASSIGNMENT('INTF_BLUE','',(#329,#338,#346,#369,#378,
#387,#396,#405));
#415=PLANE_ANGLE_MEASURE_WITH_UNIT(PLANE_ANGLE_MEASURE(1.745329251994E-2),#414);
#416=(CONVERSION_BASED_UNIT('DEGREE',#415)NAMED_UNIT(*)PLANE_ANGLE_UNIT());
#418=UNCERTAINTY_MEASURE_WITH_UNIT(LENGTH_MEASURE(3.804904418629E-3),#413,
'distance_accuracy_value',
'Maximum model space distance between geometric entities at asserted connectivities');
#333=GEOMETRIC_CURVE_SET('',(#329,#338,#346,#369,#378,#387,#396,#405));
#423=CARTESIAN_POINT('',(0.E0,0.E0,0.E0));
#424=DIRECTION('',(0.E0,0.E0,1.E0));
#425=DIRECTION('',(1.E0,0.E0,0.E0));
#428=SHAPE_REPRESENTATION_RELATIONSHIP('','',#427,#420);
#429=SHAPE_REPRESENTATION_RELATIONSHIP('','',#427,#421);
#430=CONSTRUCTIVE_GEOMETRY_REPRESENTATION_RELATIONSHIP('','',#427,#422);
#431=MECHANICAL_DESIGN_GEOMETRIC_PRESENTATION_REPRESENTATION('',(#27,#34,#42,
#49,#57,#65,#72,#80,#87,#94,#101,#108,#115,#122,#129,#136,#143,#150,#157,#164,
#18,#332,#341,#349,#356,#363,#372,#381,#390,#399,#408),#419);
#432=APPLICATION_CONTEXT('automotive_design');
#433=APPLICATION_PROTOCOL_DEFINITION('international standard',
'automotive_design',2001,#432);
#434=PRODUCT_DEFINITION_CONTEXT('part definition',#432,'design');
#435=PRODUCT_CONTEXT('',#432,'mechanical');
#436=PRODUCT('TP220408N','TP220408N','NOT SPECIFIED',(#435));
#437=PRODUCT_DEFINITION_FORMATION('2','LAST_VERSION',#436);
#445=DERIVED_UNIT_ELEMENT(#444,2.E0);
#446=DERIVED_UNIT((#445));
#447=MEASURE_REPRESENTATION_ITEM('surface area measure',AREA_MEASURE(
6.509114368843E2),#446);
#452=DERIVED_UNIT_ELEMENT(#451,3.E0);
#453=DERIVED_UNIT((#452));
#454=MEASURE_REPRESENTATION_ITEM('volume measure',VOLUME_MEASURE(
8.572593905804E2),#453);
#458=CARTESIAN_POINT('centre point',(-1.076513411746E-7,1.687107391568E-7,
-2.258158364950E0));
#463=DERIVED_UNIT_ELEMENT(#462,2.E0);
#464=DERIVED_UNIT((#463));
#465=MEASURE_REPRESENTATION_ITEM('surface area measure',AREA_MEASURE(
6.509114368843E2),#464);
#470=DERIVED_UNIT_ELEMENT(#469,3.E0);
#471=DERIVED_UNIT((#470));
#472=MEASURE_REPRESENTATION_ITEM('volume measure',VOLUME_MEASURE(
8.572593905804E2),#471);
#476=CARTESIAN_POINT('centre point',(-1.076513411746E-7,1.687107391568E-7,
-2.258158364950E0));
#481=PRODUCT_RELATED_PRODUCT_CATEGORY('part','',(#436));
#1=DRAUGHTING_PRE_DEFINED_COLOUR('blue');
#2=DRAUGHTING_PRE_DEFINED_COLOUR('green');
#3=COLOUR_RGB('',3.01961E-1,3.01961E-1,3.01961E-1);
#4=COLOUR_RGB('',3.92157E-1,3.92157E-1,3.92157E-1);
#5=COLOUR_RGB('',5.01961E-1,5.01961E-1,5.01961E-1);
#6=COLOUR_RGB('',5.764705882353E-1,5.450827801938E-1,3.921568627451E-1);
#7=COLOUR_RGB('',6.35294E-1,6.86275E-1,7.4902E-1);
#8=COLOUR_RGB('',7.05882E-1,7.05882E-1,7.05882E-1);
#9=COLOUR_RGB('',7.84314E-1,5.29412E-1,7.84314E-1);
#10=COLOUR_RGB('',8.E-1,8.E-1,8.E-1);
#11=COLOUR_RGB('',8.23529E-1,8.23529E-1,8.23529E-1);
#12=COLOUR_RGB('',9.80392E-1,9.80392E-1,9.80392E-1);
#13=COLOUR_RGB('',1.E0,6.66667E-1,0.E0);
#14=COLOUR_RGB('',1.E0,7.63913E-1,1.92109E-1);
#15=COLOUR_RGB('',1.E0,8.39216E-1,8.90196E-1);
#16=DRAUGHTING_PRE_DEFINED_COLOUR('yellow');
#17=COLOUR_RGB('',1.E0,1.E0,9.41176E-1);
#23=CIRCLE('',#22,7.999999999999E-1);
#39=CIRCLE('',#38,7.999999999999E-1);
#54=CIRCLE('',#53,7.999999999999E-1);
#62=CIRCLE('',#61,7.999999999999E-1);
#77=CIRCLE('',#76,7.999999999999E-1);
#198=EDGE_CURVE('',#167,#168,#23,.T.);
#200=EDGE_CURVE('',#180,#167,#31,.T.);
#202=EDGE_CURVE('',#178,#180,#39,.T.);
#204=EDGE_CURVE('',#176,#178,#46,.T.);
#206=EDGE_CURVE('',#174,#176,#54,.T.);
#208=EDGE_CURVE('',#172,#174,#62,.T.);
#210=EDGE_CURVE('',#170,#172,#69,.T.);
#212=EDGE_CURVE('',#168,#170,#77,.T.);
#216=ADVANCED_FACE('',(#215),#197,.T.);
#222=EDGE_CURVE('',#167,#183,#84,.T.);
#226=EDGE_CURVE('',#183,#170,#91,.T.);
#230=ADVANCED_FACE('',(#229),#221,.T.);
#236=EDGE_CURVE('',#183,#184,#105,.T.);
#238=EDGE_CURVE('',#184,#188,#147,.T.);
#240=EDGE_CURVE('',#186,#188,#98,.T.);
#242=EDGE_CURVE('',#186,#180,#161,.T.);
#248=ADVANCED_FACE('',(#247),#235,.T.);
#257=EDGE_CURVE('',#172,#192,#119,.T.);
#259=EDGE_CURVE('',#192,#190,#133,.T.);
#261=EDGE_CURVE('',#184,#190,#112,.T.);
#265=ADVANCED_FACE('',(#264),#253,.T.);
#274=EDGE_CURVE('',#192,#176,#126,.T.);
#278=ADVANCED_FACE('',(#277),#270,.T.);
#285=EDGE_CURVE('',#188,#190,#140,.T.);
#290=EDGE_CURVE('',#178,#186,#154,.T.);
#294=ADVANCED_FACE('',(#293),#283,.T.);
#305=ADVANCED_FACE('',(#304),#299,.F.);
#316=ADVANCED_FACE('',(#315),#310,.T.);
#317=CLOSED_SHELL('',(#216,#230,#248,#265,#278,#294,#305,#316));
#318=MANIFOLD_SOLID_BREP('',#317);
#329=TRIMMED_CURVE('',#328,(PARAMETER_VALUE(0.E0)),(PARAMETER_VALUE(1.E0)),.T.,
.UNSPECIFIED.);
#338=TRIMMED_CURVE('',#337,(PARAMETER_VALUE(0.E0)),(PARAMETER_VALUE(1.E0)),.T.,
.UNSPECIFIED.);
#346=TRIMMED_CURVE('',#345,(PARAMETER_VALUE(0.E0)),(PARAMETER_VALUE(1.E0)),.T.,
.UNSPECIFIED.);
#368=CIRCLE('',#367,7.999999999999E-1);
#369=TRIMMED_CURVE('',#368,(PARAMETER_VALUE(0.E0)),(PARAMETER_VALUE(
8.999999999996E1)),.T.,.UNSPECIFIED.);
#377=CIRCLE('',#376,7.999999999999E-1);
#378=TRIMMED_CURVE('',#377,(PARAMETER_VALUE(0.E0)),(PARAMETER_VALUE(
2.999999999503E1)),.T.,.UNSPECIFIED.);
#386=CIRCLE('',#385,7.999999999999E-1);
#387=TRIMMED_CURVE('',#386,(PARAMETER_VALUE(0.E0)),(PARAMETER_VALUE(
1.199999999964E2)),.T.,.UNSPECIFIED.);
#395=CIRCLE('',#394,7.999999999999E-1);
#396=TRIMMED_CURVE('',#395,(PARAMETER_VALUE(0.E0)),(PARAMETER_VALUE(3.E1)),.T.,
.UNSPECIFIED.);
#404=CIRCLE('',#403,7.999999999999E-1);
#405=TRIMMED_CURVE('',#404,(PARAMETER_VALUE(0.E0)),(PARAMETER_VALUE(
9.000000000056E1)),.T.,.UNSPECIFIED.);
#413=(LENGTH_UNIT()NAMED_UNIT(*)SI_UNIT(.MILLI.,.METRE.));
#414=(NAMED_UNIT(*)PLANE_ANGLE_UNIT()SI_UNIT($,.RADIAN.));
#417=(NAMED_UNIT(*)SI_UNIT($,.STERADIAN.)SOLID_ANGLE_UNIT());
#419=(GEOMETRIC_REPRESENTATION_CONTEXT(3)GLOBAL_UNCERTAINTY_ASSIGNED_CONTEXT((
#418))GLOBAL_UNIT_ASSIGNED_CONTEXT((#413,#416,#417))REPRESENTATION_CONTEXT
('ID1','3'));
#420=ADVANCED_BREP_SHAPE_REPRESENTATION('',(#318),#419);
#421=GEOMETRICALLY_BOUNDED_WIREFRAME_SHAPE_REPRESENTATION('',(#333),#419);
#422=CONSTRUCTIVE_GEOMETRY_REPRESENTATION('supplemental geometry',(#353,#360),
#419);
#426=AXIS2_PLACEMENT_3D('',#423,#424,#425);
#427=SHAPE_REPRESENTATION('',(#426),#419);
#438=PRODUCT_DEFINITION('part definition','',#437,#434);
#439=PRODUCT_DEFINITION_SHAPE('','SHAPE FOR TP220408N.',#438);
#440=SHAPE_ASPECT('','solid data associated with TP220408N',#439,.F.);
#441=PROPERTY_DEFINITION('',
'shape for solid data with which properties are associated',#440);
#442=SHAPE_REPRESENTATION('',(#318),#419);
#443=SHAPE_DEFINITION_REPRESENTATION(#441,#442);
#444=(LENGTH_UNIT()NAMED_UNIT(*)SI_UNIT(.MILLI.,.METRE.));
#448=PROPERTY_DEFINITION('geometric validation property','area of TP220408N',
#440);
#449=REPRESENTATION('surface area',(#447),#419);
#450=PROPERTY_DEFINITION_REPRESENTATION(#448,#449);
#451=(LENGTH_UNIT()NAMED_UNIT(*)SI_UNIT(.MILLI.,.METRE.));
#455=PROPERTY_DEFINITION('geometric validation property','volume of TP220408N',
#440);
#456=REPRESENTATION('volume',(#454),#419);
#457=PROPERTY_DEFINITION_REPRESENTATION(#455,#456);
#459=PROPERTY_DEFINITION('geometric validation property',
'centroid of TP220408N',#440);
#460=REPRESENTATION('centroid',(#458),#419);
#461=PROPERTY_DEFINITION_REPRESENTATION(#459,#460);
#462=(LENGTH_UNIT()NAMED_UNIT(*)SI_UNIT(.MILLI.,.METRE.));
#466=PROPERTY_DEFINITION('geometric validation property','area of TP220408N',
#439);
#467=REPRESENTATION('surface area',(#465),#419);
#468=PROPERTY_DEFINITION_REPRESENTATION(#466,#467);
#469=(LENGTH_UNIT()NAMED_UNIT(*)SI_UNIT(.MILLI.,.METRE.));
#473=PROPERTY_DEFINITION('geometric validation property','volume of TP220408N',
#439);
#474=REPRESENTATION('volume',(#472),#419);
#475=PROPERTY_DEFINITION_REPRESENTATION(#473,#474);
#477=PROPERTY_DEFINITION('geometric validation property',
'centroid of TP220408N',#439);
#478=REPRESENTATION('centroid',(#476),#419);
#479=PROPERTY_DEFINITION_REPRESENTATION(#477,#478);
#480=SHAPE_DEFINITION_REPRESENTATION(#439,#427);
ENDSEC;
END-ISO-10303-21;
