ISO-10303-21;
HEADER;
/* Generated by software containing ST-Developer
 * from STEP Tools, Inc. (www.steptools.com) 
 */
/* OPTION: using custom schema-name function */

FILE_DESCRIPTION(
/* description */ (''),
/* implementation_level */ '2;1');

FILE_NAME(
/* name */ 'RCMX1003M0.stp',
/* time_stamp */ '2021-11-11T11:52:01+09:00',
/* author */ (''),
/* organization */ (''),
/* preprocessor_version */ 'ST-DEVELOPER v16',
/* originating_system */ 'SIEMENS PLM Software NX 10.0',
/* authorisation */ '');

FILE_SCHEMA (('AUTOMOTIVE_DESIGN { 1 0 10303 214 3 1 1 1 }'));
ENDSEC;

DATA;
#10=CONSTRUCTIVE_GEOMETRY_REPRESENTATION_RELATIONSHIP(
'supplemental geometry','',#26,#11);
#11=CONSTRUCTIVE_GEOMETRY_REPRESENTATION('supplemental geometry',(#194,
#195,#196),#312);
#12=GEOMETRICALLY_BOUNDED_WIREFRAME_SHAPE_REPRESENTATION(
'RCMX1003M0-None',(#27),#312);
#13=SHAPE_REPRESENTATION_RELATIONSHIP('None',
'relationship between RCMX1003M0-None and RCMX1003M0-None',#26,#15);
#14=SHAPE_REPRESENTATION_RELATIONSHIP('None',
'relationship between RCMX1003M0-None and RCMX1003M0-None',#26,#12);
#15=ADVANCED_BREP_SHAPE_REPRESENTATION('RCMX1003M0-None',(#33),#312);
#16=SHAPE_DEFINITION_REPRESENTATION(#17,#26);
#17=PRODUCT_DEFINITION_SHAPE('','',#18);
#18=PRODUCT_DEFINITION('part definition','',#20,#19);
#19=PRODUCT_DEFINITION_CONTEXT('part definition',#25,'design');
#20=PRODUCT_DEFINITION_FORMATION_WITH_SPECIFIED_SOURCE(' ',' ',#22,
 .NOT_KNOWN.);
#21=PRODUCT_RELATED_PRODUCT_CATEGORY('part','',(#22));
#22=PRODUCT('RCMX1003M0','RCMX1003M0','NOT SPECIFIED',(#23));
#23=PRODUCT_CONTEXT('',#25,'mechanical');
#24=APPLICATION_PROTOCOL_DEFINITION('international standard',
'automotive_design',2010,#25);
#25=APPLICATION_CONTEXT(
'core data for automotive mechanical design processes');
#26=SHAPE_REPRESENTATION('RCMX1003M0-None',(#191),#312);
#27=GEOMETRIC_CURVE_SET('None',(#270,#271,#153,#154));
#28=SURFACE_STYLE_USAGE(.BOTH.,#29);
#29=SURFACE_SIDE_STYLE('',(#30));
#30=SURFACE_STYLE_FILL_AREA(#31);
#31=FILL_AREA_STYLE('',(#32));
#32=FILL_AREA_STYLE_COLOUR('',#142);
#33=MANIFOLD_SOLID_BREP('',#34);
#34=CLOSED_SHELL('',(#59,#60,#61,#62,#63,#64,#65,#66));
#35=CYLINDRICAL_SURFACE('',#210,1.8);
#36=CYLINDRICAL_SURFACE('',#212,1.8);
#37=CONICAL_SURFACE('',#203,4.804772548164,7.);
#38=CONICAL_SURFACE('',#205,4.804772548164,7.);
#39=CONICAL_SURFACE('',#213,2.029225074921,10.);
#40=CONICAL_SURFACE('',#214,2.029225074921,10.);
#41=FACE_OUTER_BOUND('',#75,.T.);
#42=FACE_OUTER_BOUND('',#76,.T.);
#43=FACE_OUTER_BOUND('',#79,.T.);
#44=FACE_OUTER_BOUND('',#80,.T.);
#45=FACE_OUTER_BOUND('',#81,.T.);
#46=FACE_OUTER_BOUND('',#82,.T.);
#47=LINE('',#286,#53);
#48=LINE('',#290,#54);
#49=LINE('',#299,#55);
#50=LINE('',#303,#56);
#51=LINE('',#307,#57);
#52=LINE('',#308,#58);
#53=VECTOR('',#237,1.);
#54=VECTOR('',#240,1.);
#55=VECTOR('',#253,1.);
#56=VECTOR('',#256,1.);
#57=VECTOR('',#263,1.);
#58=VECTOR('',#264,1.);
#59=ADVANCED_FACE('',(#69,#70),#67,.T.);
#60=ADVANCED_FACE('',(#41),#37,.T.);
#61=ADVANCED_FACE('',(#42),#38,.T.);
#62=ADVANCED_FACE('',(#71,#72),#68,.F.);
#63=ADVANCED_FACE('',(#43),#35,.F.);
#64=ADVANCED_FACE('',(#44),#36,.F.);
#65=ADVANCED_FACE('',(#45),#39,.F.);
#66=ADVANCED_FACE('',(#46),#40,.F.);
#67=PLANE('',#201);
#68=PLANE('',#208);
#69=FACE_BOUND('',#73,.T.);
#70=FACE_BOUND('',#74,.T.);
#71=FACE_BOUND('',#77,.T.);
#72=FACE_BOUND('',#78,.T.);
#73=EDGE_LOOP('',(#83,#84));
#74=EDGE_LOOP('',(#85,#86));
#75=EDGE_LOOP('',(#87,#88,#89,#90));
#76=EDGE_LOOP('',(#91,#92,#93,#94));
#77=EDGE_LOOP('',(#95,#96));
#78=EDGE_LOOP('',(#97,#98));
#79=EDGE_LOOP('',(#99,#100,#101,#102));
#80=EDGE_LOOP('',(#103,#104,#105,#106));
#81=EDGE_LOOP('',(#107,#108,#109,#110));
#82=EDGE_LOOP('',(#111,#112,#113,#114));
#83=ORIENTED_EDGE('',*,*,#125,.F.);
#84=ORIENTED_EDGE('',*,*,#126,.F.);
#85=ORIENTED_EDGE('',*,*,#127,.F.);
#86=ORIENTED_EDGE('',*,*,#128,.F.);
#87=ORIENTED_EDGE('',*,*,#129,.T.);
#88=ORIENTED_EDGE('',*,*,#130,.T.);
#89=ORIENTED_EDGE('',*,*,#131,.F.);
#90=ORIENTED_EDGE('',*,*,#126,.T.);
#91=ORIENTED_EDGE('',*,*,#131,.T.);
#92=ORIENTED_EDGE('',*,*,#132,.T.);
#93=ORIENTED_EDGE('',*,*,#129,.F.);
#94=ORIENTED_EDGE('',*,*,#125,.T.);
#95=ORIENTED_EDGE('',*,*,#132,.F.);
#96=ORIENTED_EDGE('',*,*,#130,.F.);
#97=ORIENTED_EDGE('',*,*,#133,.F.);
#98=ORIENTED_EDGE('',*,*,#134,.F.);
#99=ORIENTED_EDGE('',*,*,#135,.F.);
#100=ORIENTED_EDGE('',*,*,#136,.T.);
#101=ORIENTED_EDGE('',*,*,#137,.T.);
#102=ORIENTED_EDGE('',*,*,#134,.T.);
#103=ORIENTED_EDGE('',*,*,#137,.F.);
#104=ORIENTED_EDGE('',*,*,#138,.T.);
#105=ORIENTED_EDGE('',*,*,#135,.T.);
#106=ORIENTED_EDGE('',*,*,#133,.T.);
#107=ORIENTED_EDGE('',*,*,#139,.F.);
#108=ORIENTED_EDGE('',*,*,#138,.F.);
#109=ORIENTED_EDGE('',*,*,#140,.T.);
#110=ORIENTED_EDGE('',*,*,#127,.T.);
#111=ORIENTED_EDGE('',*,*,#140,.F.);
#112=ORIENTED_EDGE('',*,*,#136,.F.);
#113=ORIENTED_EDGE('',*,*,#139,.T.);
#114=ORIENTED_EDGE('',*,*,#128,.T.);
#115=VERTEX_POINT('',#278);
#116=VERTEX_POINT('',#279);
#117=VERTEX_POINT('',#282);
#118=VERTEX_POINT('',#283);
#119=VERTEX_POINT('',#287);
#120=VERTEX_POINT('',#289);
#121=VERTEX_POINT('',#295);
#122=VERTEX_POINT('',#296);
#123=VERTEX_POINT('',#300);
#124=VERTEX_POINT('',#302);
#125=EDGE_CURVE('',#115,#116,#157,.T.);
#126=EDGE_CURVE('',#116,#115,#158,.T.);
#127=EDGE_CURVE('',#117,#118,#159,.T.);
#128=EDGE_CURVE('',#118,#117,#160,.T.);
#129=EDGE_CURVE('',#115,#119,#47,.T.);
#130=EDGE_CURVE('',#119,#120,#161,.T.);
#131=EDGE_CURVE('',#116,#120,#48,.T.);
#132=EDGE_CURVE('',#120,#119,#162,.T.);
#133=EDGE_CURVE('',#121,#122,#163,.T.);
#134=EDGE_CURVE('',#122,#121,#164,.T.);
#135=EDGE_CURVE('',#123,#121,#49,.T.);
#136=EDGE_CURVE('',#123,#124,#165,.T.);
#137=EDGE_CURVE('',#124,#122,#50,.T.);
#138=EDGE_CURVE('',#124,#123,#166,.T.);
#139=EDGE_CURVE('',#123,#118,#51,.T.);
#140=EDGE_CURVE('',#124,#117,#52,.T.);
#141=COLOUR_RGB('Strong Stone',0.576470588235294,0.54508278019379,0.392156862745098);
#142=COLOUR_RGB('cutting part',0.8,0.8,0.8);
#143=CURVE_STYLE('',#148,POSITIVE_LENGTH_MEASURE(0.18),#190);
#144=CURVE_STYLE('',#149,POSITIVE_LENGTH_MEASURE(0.18),#190);
#145=CURVE_STYLE('',#150,POSITIVE_LENGTH_MEASURE(0.13),#189);
#146=CURVE_STYLE('',#151,POSITIVE_LENGTH_MEASURE(0.13),#189);
#147=CURVE_STYLE('',#152,POSITIVE_LENGTH_MEASURE(0.13),#141);
#148=DRAUGHTING_PRE_DEFINED_CURVE_FONT('continuous');
#149=DRAUGHTING_PRE_DEFINED_CURVE_FONT('continuous');
#150=DRAUGHTING_PRE_DEFINED_CURVE_FONT('continuous');
#151=DRAUGHTING_PRE_DEFINED_CURVE_FONT('continuous');
#152=DRAUGHTING_PRE_DEFINED_CURVE_FONT('continuous');
#153=TRIMMED_CURVE('',#155,(PARAMETER_VALUE(0.)),(PARAMETER_VALUE(180.)),
 .T.,.PARAMETER.);
#154=TRIMMED_CURVE('',#156,(PARAMETER_VALUE(0.)),(PARAMETER_VALUE(180.)),
 .T.,.PARAMETER.);
#155=CIRCLE('',#192,5.);
#156=CIRCLE('',#193,5.);
#157=CIRCLE('',#197,5.);
#158=CIRCLE('',#198,5.);
#159=CIRCLE('',#199,2.258450149842);
#160=CIRCLE('',#200,2.258450149842);
#161=CIRCLE('',#202,4.609545096328);
#162=CIRCLE('',#204,4.609545096328);
#163=CIRCLE('',#206,1.8);
#164=CIRCLE('',#207,1.8);
#165=CIRCLE('',#209,1.8);
#166=CIRCLE('',#211,1.8);
#167=PRESENTATION_LAYER_ASSIGNMENT('1','Layer 1',(#270,#271,#194,#195,#196,
#33));
#168=PRESENTATION_LAYER_ASSIGNMENT('2','Layer 2',(#153,#154));
#169=STYLED_ITEM('',(#177),#270);
#170=STYLED_ITEM('',(#178),#271);
#171=STYLED_ITEM('',(#179),#153);
#172=STYLED_ITEM('',(#180),#154);
#173=STYLED_ITEM('',(#181),#194);
#174=STYLED_ITEM('',(#182),#195);
#175=STYLED_ITEM('',(#183),#196);
#176=STYLED_ITEM('',(#184),#33);
#177=PRESENTATION_STYLE_ASSIGNMENT((#185));
#178=PRESENTATION_STYLE_ASSIGNMENT((#186));
#179=PRESENTATION_STYLE_ASSIGNMENT((#143));
#180=PRESENTATION_STYLE_ASSIGNMENT((#144));
#181=PRESENTATION_STYLE_ASSIGNMENT((#145));
#182=PRESENTATION_STYLE_ASSIGNMENT((#146));
#183=PRESENTATION_STYLE_ASSIGNMENT((#147));
#184=PRESENTATION_STYLE_ASSIGNMENT((#28));
#185=POINT_STYLE('',#187,POSITIVE_LENGTH_MEASURE(3.),#189);
#186=POINT_STYLE('',#188,POSITIVE_LENGTH_MEASURE(3.),#189);
#187=PRE_DEFINED_POINT_MARKER_SYMBOL('plus');
#188=PRE_DEFINED_POINT_MARKER_SYMBOL('plus');
#189=DRAUGHTING_PRE_DEFINED_COLOUR('yellow');
#190=DRAUGHTING_PRE_DEFINED_COLOUR('blue');
#191=AXIS2_PLACEMENT_3D('',#269,#215,#216);
#192=AXIS2_PLACEMENT_3D('',#272,#217,#218);
#193=AXIS2_PLACEMENT_3D('',#273,#219,#220);
#194=AXIS2_PLACEMENT_3D('MCS',#274,#221,#222);
#195=AXIS2_PLACEMENT_3D('PCS',#275,#223,#224);
#196=AXIS2_PLACEMENT_3D('',#276,#225,#226);
#197=AXIS2_PLACEMENT_3D('',#277,#227,#228);
#198=AXIS2_PLACEMENT_3D('',#280,#229,#230);
#199=AXIS2_PLACEMENT_3D('',#281,#231,#232);
#200=AXIS2_PLACEMENT_3D('',#284,#233,#234);
#201=AXIS2_PLACEMENT_3D('',#285,#235,#236);
#202=AXIS2_PLACEMENT_3D('',#288,#238,#239);
#203=AXIS2_PLACEMENT_3D('',#291,#241,#242);
#204=AXIS2_PLACEMENT_3D('',#292,#243,#244);
#205=AXIS2_PLACEMENT_3D('',#293,#245,#246);
#206=AXIS2_PLACEMENT_3D('',#294,#247,#248);
#207=AXIS2_PLACEMENT_3D('',#297,#249,#250);
#208=AXIS2_PLACEMENT_3D('',#298,#251,#252);
#209=AXIS2_PLACEMENT_3D('',#301,#254,#255);
#210=AXIS2_PLACEMENT_3D('',#304,#257,#258);
#211=AXIS2_PLACEMENT_3D('',#305,#259,#260);
#212=AXIS2_PLACEMENT_3D('',#306,#261,#262);
#213=AXIS2_PLACEMENT_3D('',#309,#265,#266);
#214=AXIS2_PLACEMENT_3D('',#310,#267,#268);
#215=DIRECTION('',(0.,0.,1.));
#216=DIRECTION('',(1.,0.,0.));
#217=DIRECTION('',(0.,0.,-1.));
#218=DIRECTION('',(0.,1.,0.));
#219=DIRECTION('',(0.,0.,-1.));
#220=DIRECTION('',(0.,-1.,0.));
#221=DIRECTION('',(0.,0.,1.));
#222=DIRECTION('',(1.,0.,0.));
#223=DIRECTION('',(0.,0.,1.));
#224=DIRECTION('',(1.,0.,0.));
#225=DIRECTION('',(0.,0.,1.));
#226=DIRECTION('',(1.,0.,0.));
#227=DIRECTION('',(0.,0.,-1.));
#228=DIRECTION('',(0.,-1.,0.));
#229=DIRECTION('',(0.,0.,-1.));
#230=DIRECTION('',(0.,1.,0.));
#231=DIRECTION('',(0.,0.,1.));
#232=DIRECTION('',(0.,-1.,0.));
#233=DIRECTION('',(0.,0.,1.));
#234=DIRECTION('',(0.,1.,0.));
#235=DIRECTION('',(0.,0.,1.));
#236=DIRECTION('',(0.,1.,0.));
#237=DIRECTION('',(0.,0.121869343405103,-0.992546151641327));
#238=DIRECTION('',(0.,0.,1.));
#239=DIRECTION('',(0.,-1.,0.));
#240=DIRECTION('',(0.,-0.121869343405103,-0.992546151641327));
#241=DIRECTION('',(0.,0.,1.));
#242=DIRECTION('',(0.,1.,1.54656184851093E-16));
#243=DIRECTION('',(0.,0.,1.));
#244=DIRECTION('',(0.,1.,0.));
#245=DIRECTION('',(0.,0.,1.));
#246=DIRECTION('',(0.,1.,1.54656184851093E-16));
#247=DIRECTION('',(0.,0.,-1.));
#248=DIRECTION('',(0.,1.,0.));
#249=DIRECTION('',(0.,0.,-1.));
#250=DIRECTION('',(0.,-1.,0.));
#251=DIRECTION('',(0.,0.,1.));
#252=DIRECTION('',(0.,1.,0.));
#253=DIRECTION('',(0.,0.,-1.));
#254=DIRECTION('',(0.,0.,1.));
#255=DIRECTION('',(0.,1.,0.));
#256=DIRECTION('',(0.,0.,-1.));
#257=DIRECTION('',(0.,0.,-1.));
#258=DIRECTION('',(0.,-1.,0.));
#259=DIRECTION('',(0.,0.,1.));
#260=DIRECTION('',(0.,-1.,0.));
#261=DIRECTION('',(0.,0.,-1.));
#262=DIRECTION('',(0.,-1.,0.));
#263=DIRECTION('',(0.,0.173648177666902,0.984807753012213));
#264=DIRECTION('',(0.,-0.173648177666902,0.984807753012213));
#265=DIRECTION('',(0.,0.,1.));
#266=DIRECTION('',(0.,1.,1.8114998913639E-16));
#267=DIRECTION('',(0.,0.,1.));
#268=DIRECTION('',(0.,1.,1.8114998913639E-16));
#269=CARTESIAN_POINT('',(0.,0.,0.));
#270=CARTESIAN_POINT('',(0.,0.,0.));
#271=CARTESIAN_POINT('',(-5.,-5.,0.));
#272=CARTESIAN_POINT('',(0.,0.,-5.684341886081E-14));
#273=CARTESIAN_POINT('',(0.,0.,-5.684341886081E-14));
#274=CARTESIAN_POINT('',(0.,0.,0.));
#275=CARTESIAN_POINT('',(-5.,-5.,0.));
#276=CARTESIAN_POINT('',(0.,0.,0.));
#277=CARTESIAN_POINT('',(0.,0.,-5.684341886081E-14));
#278=CARTESIAN_POINT('',(0.,-5.,-5.684341886081E-14));
#279=CARTESIAN_POINT('',(0.,5.,-5.684341886081E-14));
#280=CARTESIAN_POINT('',(0.,0.,-5.684341886081E-14));
#281=CARTESIAN_POINT('',(0.,0.,0.));
#282=CARTESIAN_POINT('',(0.,-2.258450149842,0.));
#283=CARTESIAN_POINT('',(0.,2.258450149842,0.));
#284=CARTESIAN_POINT('',(0.,0.,0.));
#285=CARTESIAN_POINT('',(0.,0.,0.));
#286=CARTESIAN_POINT('',(0.,-4.609545096329,-3.18));
#287=CARTESIAN_POINT('',(0.,-4.609545096328,-3.18));
#288=CARTESIAN_POINT('',(0.,0.,-3.18));
#289=CARTESIAN_POINT('',(0.,4.609545096329,-3.18));
#290=CARTESIAN_POINT('',(0.,4.609545096329,-3.18));
#291=CARTESIAN_POINT('',(0.,0.,-1.59));
#292=CARTESIAN_POINT('',(0.,0.,-3.18));
#293=CARTESIAN_POINT('',(0.,0.,-1.59));
#294=CARTESIAN_POINT('',(0.,0.,-3.18));
#295=CARTESIAN_POINT('',(0.,1.8,-3.18));
#296=CARTESIAN_POINT('',(0.,-1.8,-3.18));
#297=CARTESIAN_POINT('',(0.,0.,-3.18));
#298=CARTESIAN_POINT('',(0.,0.,-3.18));
#299=CARTESIAN_POINT('',(0.,1.8,-2.6));
#300=CARTESIAN_POINT('',(0.,1.8,-2.6));
#301=CARTESIAN_POINT('',(0.,0.,-2.6));
#302=CARTESIAN_POINT('',(0.,-1.8,-2.6));
#303=CARTESIAN_POINT('',(0.,-1.8,-2.6));
#304=CARTESIAN_POINT('',(0.,0.,0.159));
#305=CARTESIAN_POINT('',(0.,0.,-2.6));
#306=CARTESIAN_POINT('',(0.,0.,0.159));
#307=CARTESIAN_POINT('',(0.,2.258450149842,0.));
#308=CARTESIAN_POINT('',(0.,-2.258450149842,0.));
#309=CARTESIAN_POINT('',(0.,0.,-1.3));
#310=CARTESIAN_POINT('',(0.,0.,-1.3));
#311=MECHANICAL_DESIGN_GEOMETRIC_PRESENTATION_REPRESENTATION('',(#169,#170,
#171,#172,#173,#174,#175,#176),#312);
#312=(
GEOMETRIC_REPRESENTATION_CONTEXT(3)
GLOBAL_UNCERTAINTY_ASSIGNED_CONTEXT((#313))
GLOBAL_UNIT_ASSIGNED_CONTEXT((#319,#315,#314))
REPRESENTATION_CONTEXT('RCMX1003M0','TOP_LEVEL_ASSEMBLY_PART')
);
#313=UNCERTAINTY_MEASURE_WITH_UNIT(LENGTH_MEASURE(2.E-5),#319,
'DISTANCE_ACCURACY_VALUE','Maximum Tolerance applied to model');
#314=(
NAMED_UNIT(*)
SI_UNIT($,.STERADIAN.)
SOLID_ANGLE_UNIT()
);
#315=(
CONVERSION_BASED_UNIT('DEGREE',#317)
NAMED_UNIT(#316)
PLANE_ANGLE_UNIT()
);
#316=DIMENSIONAL_EXPONENTS(0.,0.,0.,0.,0.,0.,0.);
#317=PLANE_ANGLE_MEASURE_WITH_UNIT(PLANE_ANGLE_MEASURE(0.0174532925),#318);
#318=(
NAMED_UNIT(*)
PLANE_ANGLE_UNIT()
SI_UNIT($,.RADIAN.)
);
#319=(
LENGTH_UNIT()
NAMED_UNIT(*)
SI_UNIT(.MILLI.,.METRE.)
);
ENDSEC;
END-ISO-10303-21;
