ISO-10303-21;
HEADER;
/* Generated by software containing ST-Developer
 * from STEP Tools, Inc. (www.steptools.com) 
 */
/* OPTION: using custom schema-name function */

FILE_DESCRIPTION(
/* description */ (''),
/* implementation_level */ '2;1');

FILE_NAME(
/* name */ 'DC070200R.stp',
/* time_stamp */ '2021-12-22T08:51:17+09:00',
/* author */ (''),
/* organization */ (''),
/* preprocessor_version */ 'ST-DEVELOPER v16',
/* originating_system */ 'SIEMENS PLM Software NX 10.0',
/* authorisation */ '');

FILE_SCHEMA (('AUTOMOTIVE_DESIGN { 1 0 10303 214 3 1 1 1 }'));
ENDSEC;

DATA;
#10=CONSTRUCTIVE_GEOMETRY_REPRESENTATION_RELATIONSHIP(
'supplemental geometry','',#26,#11);
#11=CONSTRUCTIVE_GEOMETRY_REPRESENTATION('supplemental geometry',(#281,
#282,#283),#443);
#12=GEOMETRICALLY_BOUNDED_WIREFRAME_SHAPE_REPRESENTATION(
'DC070200R-None',(#27),#443);
#13=SHAPE_REPRESENTATION_RELATIONSHIP('None',
'relationship between DC070200R-None and DC070200R-None',#26,#15);
#14=SHAPE_REPRESENTATION_RELATIONSHIP('None',
'relationship between DC070200R-None and DC070200R-None',#26,#12);
#15=ADVANCED_BREP_SHAPE_REPRESENTATION('DC070200R-None',(#33),#443);
#16=SHAPE_DEFINITION_REPRESENTATION(#17,#26);
#17=PRODUCT_DEFINITION_SHAPE('','',#18);
#18=PRODUCT_DEFINITION('part definition','',#20,#19);
#19=PRODUCT_DEFINITION_CONTEXT('part definition',#25,'design');
#20=PRODUCT_DEFINITION_FORMATION_WITH_SPECIFIED_SOURCE(' ',' ',#22,
 .NOT_KNOWN.);
#21=PRODUCT_RELATED_PRODUCT_CATEGORY('part','',(#22));
#22=PRODUCT('DC070200R','DC070200R','NOT SPECIFIED',(#23));
#23=PRODUCT_CONTEXT('',#25,'mechanical');
#24=APPLICATION_PROTOCOL_DEFINITION('international standard',
'automotive_design',2010,#25);
#25=APPLICATION_CONTEXT(
'core data for automotive mechanical design processes');
#26=SHAPE_REPRESENTATION('DC070200R-None',(#280),#443);
#27=GEOMETRIC_CURVE_SET('None',(#379,#380,#207,#208,#209,#210));
#28=SURFACE_STYLE_USAGE(.BOTH.,#29);
#29=SURFACE_SIDE_STYLE('',(#30));
#30=SURFACE_STYLE_FILL_AREA(#31);
#31=FILL_AREA_STYLE('',(#32));
#32=FILL_AREA_STYLE_COLOUR('',#192);
#33=MANIFOLD_SOLID_BREP('',#34);
#34=CLOSED_SHELL('',(#51,#52,#53,#54,#55,#56,#57,#58,#59,#60,#61,#62));
#35=TOROIDAL_SURFACE('',#301,3.9,2.5);
#36=TOROIDAL_SURFACE('',#303,3.9,2.5);
#37=CYLINDRICAL_SURFACE('',#295,1.4);
#38=CYLINDRICAL_SURFACE('',#297,1.4);
#39=CYLINDRICAL_SURFACE('',#304,1.875);
#40=CYLINDRICAL_SURFACE('',#305,1.875);
#41=FACE_OUTER_BOUND('',#85,.T.);
#42=FACE_OUTER_BOUND('',#86,.T.);
#43=FACE_OUTER_BOUND('',#87,.T.);
#44=FACE_OUTER_BOUND('',#88,.T.);
#45=FACE_OUTER_BOUND('',#91,.T.);
#46=FACE_OUTER_BOUND('',#92,.T.);
#47=FACE_OUTER_BOUND('',#93,.T.);
#48=FACE_OUTER_BOUND('',#94,.T.);
#49=FACE_OUTER_BOUND('',#95,.T.);
#50=FACE_OUTER_BOUND('',#96,.T.);
#51=ADVANCED_FACE('',(#79,#80),#63,.T.);
#52=ADVANCED_FACE('',(#41),#64,.T.);
#53=ADVANCED_FACE('',(#42),#65,.T.);
#54=ADVANCED_FACE('',(#43),#66,.T.);
#55=ADVANCED_FACE('',(#44),#67,.T.);
#56=ADVANCED_FACE('',(#81,#82),#68,.F.);
#57=ADVANCED_FACE('',(#45),#37,.F.);
#58=ADVANCED_FACE('',(#46),#38,.F.);
#59=ADVANCED_FACE('',(#47),#35,.T.);
#60=ADVANCED_FACE('',(#48),#36,.T.);
#61=ADVANCED_FACE('',(#49),#39,.F.);
#62=ADVANCED_FACE('',(#50),#40,.F.);
#63=PLANE('',#286);
#64=PLANE('',#287);
#65=PLANE('',#288);
#66=PLANE('',#289);
#67=PLANE('',#290);
#68=PLANE('',#293);
#69=CIRCLE('',#284,1.875);
#70=CIRCLE('',#285,1.875);
#71=CIRCLE('',#291,1.4);
#72=CIRCLE('',#292,1.4);
#73=CIRCLE('',#294,1.4);
#74=CIRCLE('',#296,1.4);
#75=CIRCLE('',#298,1.875);
#76=CIRCLE('',#299,2.5);
#77=CIRCLE('',#300,2.5);
#78=CIRCLE('',#302,1.875);
#79=FACE_BOUND('',#83,.T.);
#80=FACE_BOUND('',#84,.T.);
#81=FACE_BOUND('',#89,.T.);
#82=FACE_BOUND('',#90,.T.);
#83=EDGE_LOOP('',(#97,#98,#99,#100));
#84=EDGE_LOOP('',(#101,#102));
#85=EDGE_LOOP('',(#103,#104,#105,#106));
#86=EDGE_LOOP('',(#107,#108,#109,#110));
#87=EDGE_LOOP('',(#111,#112,#113,#114));
#88=EDGE_LOOP('',(#115,#116,#117,#118));
#89=EDGE_LOOP('',(#119,#120,#121,#122));
#90=EDGE_LOOP('',(#123,#124));
#91=EDGE_LOOP('',(#125,#126,#127,#128));
#92=EDGE_LOOP('',(#129,#130,#131,#132));
#93=EDGE_LOOP('',(#133,#134,#135,#136));
#94=EDGE_LOOP('',(#137,#138,#139,#140));
#95=EDGE_LOOP('',(#141,#142,#143,#144));
#96=EDGE_LOOP('',(#145,#146,#147,#148));
#97=ORIENTED_EDGE('',*,*,#165,.F.);
#98=ORIENTED_EDGE('',*,*,#166,.F.);
#99=ORIENTED_EDGE('',*,*,#167,.F.);
#100=ORIENTED_EDGE('',*,*,#168,.F.);
#101=ORIENTED_EDGE('',*,*,#169,.F.);
#102=ORIENTED_EDGE('',*,*,#170,.F.);
#103=ORIENTED_EDGE('',*,*,#171,.F.);
#104=ORIENTED_EDGE('',*,*,#172,.T.);
#105=ORIENTED_EDGE('',*,*,#173,.T.);
#106=ORIENTED_EDGE('',*,*,#168,.T.);
#107=ORIENTED_EDGE('',*,*,#173,.F.);
#108=ORIENTED_EDGE('',*,*,#174,.T.);
#109=ORIENTED_EDGE('',*,*,#175,.T.);
#110=ORIENTED_EDGE('',*,*,#165,.T.);
#111=ORIENTED_EDGE('',*,*,#175,.F.);
#112=ORIENTED_EDGE('',*,*,#176,.T.);
#113=ORIENTED_EDGE('',*,*,#177,.T.);
#114=ORIENTED_EDGE('',*,*,#166,.T.);
#115=ORIENTED_EDGE('',*,*,#177,.F.);
#116=ORIENTED_EDGE('',*,*,#178,.T.);
#117=ORIENTED_EDGE('',*,*,#171,.T.);
#118=ORIENTED_EDGE('',*,*,#167,.T.);
#119=ORIENTED_EDGE('',*,*,#178,.F.);
#120=ORIENTED_EDGE('',*,*,#176,.F.);
#121=ORIENTED_EDGE('',*,*,#174,.F.);
#122=ORIENTED_EDGE('',*,*,#172,.F.);
#123=ORIENTED_EDGE('',*,*,#179,.F.);
#124=ORIENTED_EDGE('',*,*,#180,.F.);
#125=ORIENTED_EDGE('',*,*,#181,.F.);
#126=ORIENTED_EDGE('',*,*,#182,.T.);
#127=ORIENTED_EDGE('',*,*,#183,.T.);
#128=ORIENTED_EDGE('',*,*,#180,.T.);
#129=ORIENTED_EDGE('',*,*,#183,.F.);
#130=ORIENTED_EDGE('',*,*,#184,.T.);
#131=ORIENTED_EDGE('',*,*,#181,.T.);
#132=ORIENTED_EDGE('',*,*,#179,.T.);
#133=ORIENTED_EDGE('',*,*,#185,.F.);
#134=ORIENTED_EDGE('',*,*,#186,.F.);
#135=ORIENTED_EDGE('',*,*,#184,.F.);
#136=ORIENTED_EDGE('',*,*,#187,.T.);
#137=ORIENTED_EDGE('',*,*,#182,.F.);
#138=ORIENTED_EDGE('',*,*,#186,.T.);
#139=ORIENTED_EDGE('',*,*,#188,.F.);
#140=ORIENTED_EDGE('',*,*,#187,.F.);
#141=ORIENTED_EDGE('',*,*,#189,.T.);
#142=ORIENTED_EDGE('',*,*,#188,.T.);
#143=ORIENTED_EDGE('',*,*,#190,.F.);
#144=ORIENTED_EDGE('',*,*,#170,.T.);
#145=ORIENTED_EDGE('',*,*,#190,.T.);
#146=ORIENTED_EDGE('',*,*,#185,.T.);
#147=ORIENTED_EDGE('',*,*,#189,.F.);
#148=ORIENTED_EDGE('',*,*,#169,.T.);
#149=VERTEX_POINT('',#389);
#150=VERTEX_POINT('',#390);
#151=VERTEX_POINT('',#392);
#152=VERTEX_POINT('',#394);
#153=VERTEX_POINT('',#397);
#154=VERTEX_POINT('',#398);
#155=VERTEX_POINT('',#402);
#156=VERTEX_POINT('',#404);
#157=VERTEX_POINT('',#408);
#158=VERTEX_POINT('',#412);
#159=VERTEX_POINT('',#418);
#160=VERTEX_POINT('',#419);
#161=VERTEX_POINT('',#423);
#162=VERTEX_POINT('',#425);
#163=VERTEX_POINT('',#431);
#164=VERTEX_POINT('',#432);
#165=EDGE_CURVE('',#149,#150,#215,.T.);
#166=EDGE_CURVE('',#151,#149,#216,.T.);
#167=EDGE_CURVE('',#152,#151,#217,.T.);
#168=EDGE_CURVE('',#150,#152,#218,.T.);
#169=EDGE_CURVE('',#153,#154,#69,.T.);
#170=EDGE_CURVE('',#154,#153,#70,.T.);
#171=EDGE_CURVE('',#155,#152,#219,.T.);
#172=EDGE_CURVE('',#155,#156,#220,.T.);
#173=EDGE_CURVE('',#156,#150,#221,.T.);
#174=EDGE_CURVE('',#156,#157,#222,.T.);
#175=EDGE_CURVE('',#157,#149,#223,.T.);
#176=EDGE_CURVE('',#157,#158,#224,.T.);
#177=EDGE_CURVE('',#158,#151,#225,.T.);
#178=EDGE_CURVE('',#158,#155,#226,.T.);
#179=EDGE_CURVE('',#159,#160,#71,.T.);
#180=EDGE_CURVE('',#160,#159,#72,.T.);
#181=EDGE_CURVE('',#161,#159,#227,.T.);
#182=EDGE_CURVE('',#161,#162,#73,.T.);
#183=EDGE_CURVE('',#162,#160,#228,.T.);
#184=EDGE_CURVE('',#162,#161,#74,.T.);
#185=EDGE_CURVE('',#163,#164,#75,.T.);
#186=EDGE_CURVE('',#161,#163,#76,.T.);
#187=EDGE_CURVE('',#162,#164,#77,.T.);
#188=EDGE_CURVE('',#164,#163,#78,.T.);
#189=EDGE_CURVE('',#153,#164,#229,.T.);
#190=EDGE_CURVE('',#154,#163,#230,.T.);
#191=COLOUR_RGB('Strong Stone',0.576470588235294,0.54508278019379,0.392156862745098);
#192=COLOUR_RGB('cutting part',0.8,0.8,0.8);
#193=CURVE_STYLE('',#200,POSITIVE_LENGTH_MEASURE(0.18),#279);
#194=CURVE_STYLE('',#201,POSITIVE_LENGTH_MEASURE(0.18),#279);
#195=CURVE_STYLE('',#202,POSITIVE_LENGTH_MEASURE(0.18),#279);
#196=CURVE_STYLE('',#203,POSITIVE_LENGTH_MEASURE(0.18),#279);
#197=CURVE_STYLE('',#204,POSITIVE_LENGTH_MEASURE(0.13),#278);
#198=CURVE_STYLE('',#205,POSITIVE_LENGTH_MEASURE(0.13),#278);
#199=CURVE_STYLE('',#206,POSITIVE_LENGTH_MEASURE(0.13),#191);
#200=DRAUGHTING_PRE_DEFINED_CURVE_FONT('continuous');
#201=DRAUGHTING_PRE_DEFINED_CURVE_FONT('continuous');
#202=DRAUGHTING_PRE_DEFINED_CURVE_FONT('continuous');
#203=DRAUGHTING_PRE_DEFINED_CURVE_FONT('continuous');
#204=DRAUGHTING_PRE_DEFINED_CURVE_FONT('continuous');
#205=DRAUGHTING_PRE_DEFINED_CURVE_FONT('continuous');
#206=DRAUGHTING_PRE_DEFINED_CURVE_FONT('continuous');
#207=TRIMMED_CURVE('',#211,(PARAMETER_VALUE(0.)),(PARAMETER_VALUE(1.)),
 .T.,.PARAMETER.);
#208=TRIMMED_CURVE('',#212,(PARAMETER_VALUE(0.)),(PARAMETER_VALUE(1.)),
 .T.,.PARAMETER.);
#209=TRIMMED_CURVE('',#213,(PARAMETER_VALUE(0.)),(PARAMETER_VALUE(1.)),
 .T.,.PARAMETER.);
#210=TRIMMED_CURVE('',#214,(PARAMETER_VALUE(0.)),(PARAMETER_VALUE(1.)),
 .T.,.PARAMETER.);
#211=LINE('',#381,#231);
#212=LINE('',#382,#232);
#213=LINE('',#383,#233);
#214=LINE('',#384,#234);
#215=LINE('',#388,#235);
#216=LINE('',#391,#236);
#217=LINE('',#393,#237);
#218=LINE('',#395,#238);
#219=LINE('',#401,#239);
#220=LINE('',#403,#240);
#221=LINE('',#405,#241);
#222=LINE('',#407,#242);
#223=LINE('',#409,#243);
#224=LINE('',#411,#244);
#225=LINE('',#413,#245);
#226=LINE('',#415,#246);
#227=LINE('',#422,#247);
#228=LINE('',#426,#248);
#229=LINE('',#438,#249);
#230=LINE('',#439,#250);
#231=VECTOR('',#308,7.751918638635);
#232=VECTOR('',#309,7.75191863863485);
#233=VECTOR('',#310,7.751918638635);
#234=VECTOR('',#311,7.75191863863485);
#235=VECTOR('',#318,1.);
#236=VECTOR('',#319,1.);
#237=VECTOR('',#320,1.);
#238=VECTOR('',#321,1.);
#239=VECTOR('',#328,1.);
#240=VECTOR('',#329,1.);
#241=VECTOR('',#330,1.);
#242=VECTOR('',#333,1.);
#243=VECTOR('',#334,1.);
#244=VECTOR('',#337,1.);
#245=VECTOR('',#338,1.);
#246=VECTOR('',#341,1.);
#247=VECTOR('',#350,1.);
#248=VECTOR('',#353,1.);
#249=VECTOR('',#372,1.);
#250=VECTOR('',#373,1.);
#251=PRESENTATION_LAYER_ASSIGNMENT('5','Layer 5',(#379,#281));
#252=PRESENTATION_LAYER_ASSIGNMENT('1','Layer 1',(#380,#282,#283,#33));
#253=PRESENTATION_LAYER_ASSIGNMENT('2','Layer 2',(#207,#208,#209,#210));
#254=STYLED_ITEM('',(#264),#379);
#255=STYLED_ITEM('',(#265),#380);
#256=STYLED_ITEM('',(#266),#207);
#257=STYLED_ITEM('',(#267),#208);
#258=STYLED_ITEM('',(#268),#209);
#259=STYLED_ITEM('',(#269),#210);
#260=STYLED_ITEM('',(#270),#281);
#261=STYLED_ITEM('',(#271),#282);
#262=STYLED_ITEM('',(#272),#283);
#263=STYLED_ITEM('',(#273),#33);
#264=PRESENTATION_STYLE_ASSIGNMENT((#274));
#265=PRESENTATION_STYLE_ASSIGNMENT((#275));
#266=PRESENTATION_STYLE_ASSIGNMENT((#193));
#267=PRESENTATION_STYLE_ASSIGNMENT((#194));
#268=PRESENTATION_STYLE_ASSIGNMENT((#195));
#269=PRESENTATION_STYLE_ASSIGNMENT((#196));
#270=PRESENTATION_STYLE_ASSIGNMENT((#197));
#271=PRESENTATION_STYLE_ASSIGNMENT((#198));
#272=PRESENTATION_STYLE_ASSIGNMENT((#199));
#273=PRESENTATION_STYLE_ASSIGNMENT((#28));
#274=POINT_STYLE('',#276,POSITIVE_LENGTH_MEASURE(3.),#278);
#275=POINT_STYLE('',#277,POSITIVE_LENGTH_MEASURE(3.),#278);
#276=PRE_DEFINED_POINT_MARKER_SYMBOL('plus');
#277=PRE_DEFINED_POINT_MARKER_SYMBOL('plus');
#278=DRAUGHTING_PRE_DEFINED_COLOUR('yellow');
#279=DRAUGHTING_PRE_DEFINED_COLOUR('blue');
#280=AXIS2_PLACEMENT_3D('',#378,#306,#307);
#281=AXIS2_PLACEMENT_3D('MCS',#385,#312,#313);
#282=AXIS2_PLACEMENT_3D('PCS',#386,#314,#315);
#283=AXIS2_PLACEMENT_3D('',#387,#316,#317);
#284=AXIS2_PLACEMENT_3D('',#396,#322,#323);
#285=AXIS2_PLACEMENT_3D('',#399,#324,#325);
#286=AXIS2_PLACEMENT_3D('',#400,#326,#327);
#287=AXIS2_PLACEMENT_3D('',#406,#331,#332);
#288=AXIS2_PLACEMENT_3D('',#410,#335,#336);
#289=AXIS2_PLACEMENT_3D('',#414,#339,#340);
#290=AXIS2_PLACEMENT_3D('',#416,#342,#343);
#291=AXIS2_PLACEMENT_3D('',#417,#344,#345);
#292=AXIS2_PLACEMENT_3D('',#420,#346,#347);
#293=AXIS2_PLACEMENT_3D('',#421,#348,#349);
#294=AXIS2_PLACEMENT_3D('',#424,#351,#352);
#295=AXIS2_PLACEMENT_3D('',#427,#354,#355);
#296=AXIS2_PLACEMENT_3D('',#428,#356,#357);
#297=AXIS2_PLACEMENT_3D('',#429,#358,#359);
#298=AXIS2_PLACEMENT_3D('',#430,#360,#361);
#299=AXIS2_PLACEMENT_3D('',#433,#362,#363);
#300=AXIS2_PLACEMENT_3D('',#434,#364,#365);
#301=AXIS2_PLACEMENT_3D('',#435,#366,#367);
#302=AXIS2_PLACEMENT_3D('',#436,#368,#369);
#303=AXIS2_PLACEMENT_3D('',#437,#370,#371);
#304=AXIS2_PLACEMENT_3D('',#440,#374,#375);
#305=AXIS2_PLACEMENT_3D('',#441,#376,#377);
#306=DIRECTION('',(0.,0.,1.));
#307=DIRECTION('',(1.,0.,0.));
#308=DIRECTION('',(1.,0.,0.));
#309=DIRECTION('',(0.573576436351011,0.819152044289016,0.));
#310=DIRECTION('',(-1.,0.,0.));
#311=DIRECTION('',(-0.573576436351011,-0.819152044289016,0.));
#312=DIRECTION('',(0.,0.,1.));
#313=DIRECTION('',(1.,0.,0.));
#314=DIRECTION('',(0.,0.,1.));
#315=DIRECTION('',(1.,0.,0.));
#316=DIRECTION('',(0.,0.,1.));
#317=DIRECTION('',(1.,0.,0.));
#318=DIRECTION('',(-1.,0.,0.));
#319=DIRECTION('',(-0.573576436351011,-0.819152044289016,0.));
#320=DIRECTION('',(1.,0.,0.));
#321=DIRECTION('',(0.573576436351011,0.819152044289016,0.));
#322=DIRECTION('',(0.,0.,1.));
#323=DIRECTION('',(-0.887010833178231,-0.461748613235016,0.));
#324=DIRECTION('',(0.,0.,1.));
#325=DIRECTION('',(0.887010833178231,0.461748613235016,0.));
#326=DIRECTION('',(0.,0.,1.));
#327=DIRECTION('',(0.461748613235016,-0.887010833178231,0.));
#328=DIRECTION('',(-0.0633138803303079,0.121624832503696,0.990554770154567));
#329=DIRECTION('',(-0.573576436351011,-0.819152044289016,0.));
#330=DIRECTION('',(-0.227945648159508,-0.118660993748504,0.966416240575333));
#331=DIRECTION('',(-0.813046209168167,0.569301084572377,-0.121869343405095));
#332=DIRECTION('',(0.573576436351044,0.819152044288993,4.92499829801212E-15));
#333=DIRECTION('',(1.,-1.085232482717E-14,0.));
#334=DIRECTION('',(0.0633138803303079,-0.121624832503696,0.990554770154567));
#335=DIRECTION('',(0.,-0.992546151641327,-0.121869343405103));
#336=DIRECTION('',(-1.,0.,0.));
#337=DIRECTION('',(0.573576436351011,0.819152044289016,0.));
#338=DIRECTION('',(0.227945648159508,0.118660993748504,0.966416240575333));
#339=DIRECTION('',(0.813046209168167,-0.569301084572377,-0.121869343405095));
#340=DIRECTION('',(-0.573576436351044,-0.819152044288993,4.92499829801212E-15));
#341=DIRECTION('',(-1.,1.097851465074E-14,0.));
#342=DIRECTION('',(0.,0.992546151641327,-0.121869343405103));
#343=DIRECTION('',(1.,0.,0.));
#344=DIRECTION('',(0.,0.,-1.));
#345=DIRECTION('',(0.887010833178231,0.461748613235016,0.));
#346=DIRECTION('',(0.,0.,-1.));
#347=DIRECTION('',(-0.887010833178231,-0.461748613235016,0.));
#348=DIRECTION('',(0.,0.,1.));
#349=DIRECTION('',(0.461748613235016,-0.887010833178231,0.));
#350=DIRECTION('',(0.,0.,-1.));
#351=DIRECTION('',(0.,0.,1.));
#352=DIRECTION('',(0.887010833178231,0.461748613235016,0.));
#353=DIRECTION('',(-2.6499958443E-13,5.077370580223E-13,-1.));
#354=DIRECTION('',(0.,0.,-1.));
#355=DIRECTION('',(-0.887010833178231,-0.461748613235016,0.));
#356=DIRECTION('',(0.,0.,1.));
#357=DIRECTION('',(-0.887010833178293,-0.461748613234897,0.));
#358=DIRECTION('',(0.,0.,-1.));
#359=DIRECTION('',(-0.887010833178231,-0.461748613235016,0.));
#360=DIRECTION('',(0.,0.,-1.));
#361=DIRECTION('',(0.887010833178231,0.461748613235016,0.));
#362=DIRECTION('',(-0.461748613235016,0.887010833178231,0.));
#363=DIRECTION('',(-0.718478774874311,-0.374016376720334,0.586429876455918));
#364=DIRECTION('',(0.461748613235293,-0.887010833178087,0.));
#365=DIRECTION('',(0.718478774874195,0.374016376720559,0.586429876455916));
#366=DIRECTION('',(0.,0.,-1.));
#367=DIRECTION('',(-0.887010833178231,-0.461748613235016,0.));
#368=DIRECTION('',(0.,0.,-1.));
#369=DIRECTION('',(-0.88701083317819,-0.461748613235095,0.));
#370=DIRECTION('',(0.,0.,-1.));
#371=DIRECTION('',(-0.887010833178231,-0.461748613235016,0.));
#372=DIRECTION('',(2.975397705995E-14,-4.85389506366E-13,-1.));
#373=DIRECTION('',(1.940669847044E-13,5.440092820662E-14,-1.));
#374=DIRECTION('',(0.,0.,-1.));
#375=DIRECTION('',(-0.887010833178231,-0.461748613235016,0.));
#376=DIRECTION('',(0.,0.,-1.));
#377=DIRECTION('',(-0.887010833178231,-0.461748613235016,0.));
#378=CARTESIAN_POINT('',(0.,0.,0.));
#379=CARTESIAN_POINT('',(0.,0.,0.));
#380=CARTESIAN_POINT('',(-6.099118253134,-3.175,0.));
#381=CARTESIAN_POINT('',(-6.099118253133,-3.175,0.));
#382=CARTESIAN_POINT('',(1.652800385502,-3.175,0.));
#383=CARTESIAN_POINT('',(6.099118253133,3.175,0.));
#384=CARTESIAN_POINT('',(-1.652800385502,3.175,0.));
#385=CARTESIAN_POINT('',(0.,0.,0.));
#386=CARTESIAN_POINT('',(-6.099118253134,-3.175,0.));
#387=CARTESIAN_POINT('',(0.,0.,0.));
#388=CARTESIAN_POINT('',(1.652800385502,-3.175,1.907744480548E-14));
#389=CARTESIAN_POINT('',(1.652800385502,-3.175,1.907744480548E-14));
#390=CARTESIAN_POINT('',(-6.099118253133,-3.175,-2.669327060016E-14));
#391=CARTESIAN_POINT('',(6.099118253133,3.175,0.));
#392=CARTESIAN_POINT('',(6.099118253133,3.175,0.));
#393=CARTESIAN_POINT('',(-1.652800385502,3.175,-1.394654704897E-14));
#394=CARTESIAN_POINT('',(-1.652800385502,3.175,-1.394654704897E-14));
#395=CARTESIAN_POINT('',(-6.099118253133,-3.175,-2.669327060016E-14));
#396=CARTESIAN_POINT('',(0.,0.,0.));
#397=CARTESIAN_POINT('',(-1.663145312209,-0.8657786498157,0.));
#398=CARTESIAN_POINT('',(1.663145312209,0.8657786498157,0.));
#399=CARTESIAN_POINT('',(0.,0.,0.));
#400=CARTESIAN_POINT('',(0.,0.,0.));
#401=CARTESIAN_POINT('',(-1.500676505302,2.882772745051,-2.38));
#402=CARTESIAN_POINT('',(-1.500676505302,2.882772745051,-2.38));
#403=CARTESIAN_POINT('',(-1.500676505302,2.882772745051,-2.38));
#404=CARTESIAN_POINT('',(-5.537754919362,-2.882772745051,-2.38));
#405=CARTESIAN_POINT('',(-5.537754919362,-2.882772745051,-2.38));
#406=CARTESIAN_POINT('',(-1.129826021007,3.921884796231,0.));
#407=CARTESIAN_POINT('',(-5.537754919362,-2.882772745051,-2.38));
#408=CARTESIAN_POINT('',(1.500676505302,-2.882772745051,-2.38));
#409=CARTESIAN_POINT('',(1.500676505302,-2.882772745051,-2.38));
#410=CARTESIAN_POINT('',(-6.450730202537,-3.175,0.));
#411=CARTESIAN_POINT('',(1.500676505302,-2.882772745051,-2.38));
#412=CARTESIAN_POINT('',(5.537754919362,2.882772745051,-2.38));
#413=CARTESIAN_POINT('',(5.537754919362,2.882772745051,-2.38));
#414=CARTESIAN_POINT('',(1.129826021006,-3.921884796231,0.));
#415=CARTESIAN_POINT('',(5.537754919362,2.882772745051,-2.38));
#416=CARTESIAN_POINT('',(6.450730202537,3.175,0.));
#417=CARTESIAN_POINT('',(0.,0.,-2.38));
#418=CARTESIAN_POINT('',(1.24181516645,0.646448058529,-2.38));
#419=CARTESIAN_POINT('',(-1.24181516645,-0.646448058529,-2.38));
#420=CARTESIAN_POINT('',(0.,0.,-2.38));
#421=CARTESIAN_POINT('',(0.,0.,-2.38));
#422=CARTESIAN_POINT('',(1.24181516645,0.646448058529,-1.96607469114));
#423=CARTESIAN_POINT('',(1.24181516645,0.646448058529,-1.96607469114));
#424=CARTESIAN_POINT('',(0.,0.,-1.96607469114));
#425=CARTESIAN_POINT('',(-1.241815166449,-0.6464480585294,-1.96607469114));
#426=CARTESIAN_POINT('',(-1.241815166449,-0.6464480585291,-1.96607469114));
#427=CARTESIAN_POINT('',(0.,0.,0.119));
#428=CARTESIAN_POINT('',(0.,0.,-1.96607469114));
#429=CARTESIAN_POINT('',(0.,0.,0.119));
#430=CARTESIAN_POINT('',(0.,0.,-0.5000000000001));
#431=CARTESIAN_POINT('',(1.663145312209,0.8657786498157,-0.5000000000001));
#432=CARTESIAN_POINT('',(-1.663145312209,-0.8657786498159,-0.5000000000001));
#433=CARTESIAN_POINT('',(3.459342249395,1.800819591617,-1.96607469114));
#434=CARTESIAN_POINT('',(-3.459342249395,-1.800819591618,-1.96607469114));
#435=CARTESIAN_POINT('',(0.,0.,-1.96607469114));
#436=CARTESIAN_POINT('',(0.,0.,-0.5000000000001));
#437=CARTESIAN_POINT('',(0.,0.,-1.96607469114));
#438=CARTESIAN_POINT('',(-1.663145312209,-0.8657786498157,0.));
#439=CARTESIAN_POINT('',(1.663145312209,0.8657786498157,0.));
#440=CARTESIAN_POINT('',(0.,0.,0.119));
#441=CARTESIAN_POINT('',(0.,0.,0.119));
#442=MECHANICAL_DESIGN_GEOMETRIC_PRESENTATION_REPRESENTATION('',(#254,#255,
#256,#257,#258,#259,#260,#261,#262,#263),#443);
#443=(
GEOMETRIC_REPRESENTATION_CONTEXT(3)
GLOBAL_UNCERTAINTY_ASSIGNED_CONTEXT((#444))
GLOBAL_UNIT_ASSIGNED_CONTEXT((#450,#446,#445))
REPRESENTATION_CONTEXT('DC070200R','TOP_LEVEL_ASSEMBLY_PART')
);
#444=UNCERTAINTY_MEASURE_WITH_UNIT(LENGTH_MEASURE(2.E-5),#450,
'DISTANCE_ACCURACY_VALUE','Maximum Tolerance applied to model');
#445=(
NAMED_UNIT(*)
SI_UNIT($,.STERADIAN.)
SOLID_ANGLE_UNIT()
);
#446=(
CONVERSION_BASED_UNIT('DEGREE',#448)
NAMED_UNIT(#447)
PLANE_ANGLE_UNIT()
);
#447=DIMENSIONAL_EXPONENTS(0.,0.,0.,0.,0.,0.,0.);
#448=PLANE_ANGLE_MEASURE_WITH_UNIT(PLANE_ANGLE_MEASURE(0.0174532925),#449);
#449=(
NAMED_UNIT(*)
PLANE_ANGLE_UNIT()
SI_UNIT($,.RADIAN.)
);
#450=(
LENGTH_UNIT()
NAMED_UNIT(*)
SI_UNIT(.MILLI.,.METRE.)
);
ENDSEC;
END-ISO-10303-21;
