ISO-10303-21;
HEADER;
/* Generated by software containing ST-Developer
 * from STEP Tools, Inc. (www.steptools.com) 
 */
/* OPTION: using custom schema-name function */

FILE_DESCRIPTION(
/* description */ (''),
/* implementation_level */ '2;1');

FILE_NAME(
/* name */ 'VN160404R.stp',
/* time_stamp */ '2021-12-22T08:51:05+09:00',
/* author */ (''),
/* organization */ (''),
/* preprocessor_version */ 'ST-DEVELOPER v16',
/* originating_system */ 'SIEMENS PLM Software NX 10.0',
/* authorisation */ '');

FILE_SCHEMA (('AUTOMOTIVE_DESIGN { 1 0 10303 214 3 1 1 1 }'));
ENDSEC;

DATA;
#10=CONSTRUCTIVE_GEOMETRY_REPRESENTATION_RELATIONSHIP(
'supplemental geometry','',#26,#11);
#11=CONSTRUCTIVE_GEOMETRY_REPRESENTATION('supplemental geometry',(#365,
#366,#367),#581);
#12=GEOMETRICALLY_BOUNDED_WIREFRAME_SHAPE_REPRESENTATION(
'VN160404R-None',(#27),#581);
#13=SHAPE_REPRESENTATION_RELATIONSHIP('None',
'relationship between VN160404R-None and VN160404R-None',#26,#15);
#14=SHAPE_REPRESENTATION_RELATIONSHIP('None',
'relationship between VN160404R-None and VN160404R-None',#26,#12);
#15=ADVANCED_BREP_SHAPE_REPRESENTATION('VN160404R-None',(#33),#581);
#16=SHAPE_DEFINITION_REPRESENTATION(#17,#26);
#17=PRODUCT_DEFINITION_SHAPE('','',#18);
#18=PRODUCT_DEFINITION('part definition','',#20,#19);
#19=PRODUCT_DEFINITION_CONTEXT('part definition',#25,'design');
#20=PRODUCT_DEFINITION_FORMATION_WITH_SPECIFIED_SOURCE(' ',' ',#22,
 .NOT_KNOWN.);
#21=PRODUCT_RELATED_PRODUCT_CATEGORY('part','',(#22));
#22=PRODUCT('VN160404R','VN160404R','NOT SPECIFIED',(#23));
#23=PRODUCT_CONTEXT('',#25,'mechanical');
#24=APPLICATION_PROTOCOL_DEFINITION('international standard',
'automotive_design',2010,#25);
#25=APPLICATION_CONTEXT(
'core data for automotive mechanical design processes');
#26=SHAPE_REPRESENTATION('VN160404R-None',(#358),#581);
#27=GEOMETRIC_CURVE_SET('None',(#495,#496,#263,#264,#265,#266,#267,#268,
#269,#270,#271,#272));
#28=SURFACE_STYLE_USAGE(.BOTH.,#29);
#29=SURFACE_SIDE_STYLE('',(#30));
#30=SURFACE_STYLE_FILL_AREA(#31);
#31=FILL_AREA_STYLE('',(#32));
#32=FILL_AREA_STYLE_COLOUR('',#214);
#33=MANIFOLD_SOLID_BREP('',#34);
#34=CLOSED_SHELL('',(#51,#52,#53,#54,#55,#56,#57,#58,#59,#60,#61,#62));
#35=CYLINDRICAL_SURFACE('',#379,0.4);
#36=CYLINDRICAL_SURFACE('',#382,0.4);
#37=CYLINDRICAL_SURFACE('',#386,0.4);
#38=CYLINDRICAL_SURFACE('',#389,0.4);
#39=CYLINDRICAL_SURFACE('',#394,1.905);
#40=CYLINDRICAL_SURFACE('',#395,1.905);
#41=FACE_OUTER_BOUND('',#75,.T.);
#42=FACE_OUTER_BOUND('',#76,.T.);
#43=FACE_OUTER_BOUND('',#77,.T.);
#44=FACE_OUTER_BOUND('',#78,.T.);
#45=FACE_OUTER_BOUND('',#79,.T.);
#46=FACE_OUTER_BOUND('',#80,.T.);
#47=FACE_OUTER_BOUND('',#81,.T.);
#48=FACE_OUTER_BOUND('',#82,.T.);
#49=FACE_OUTER_BOUND('',#85,.T.);
#50=FACE_OUTER_BOUND('',#86,.T.);
#51=ADVANCED_FACE('',(#69,#70),#63,.T.);
#52=ADVANCED_FACE('',(#41),#35,.T.);
#53=ADVANCED_FACE('',(#42),#64,.T.);
#54=ADVANCED_FACE('',(#43),#36,.T.);
#55=ADVANCED_FACE('',(#44),#65,.T.);
#56=ADVANCED_FACE('',(#45),#37,.T.);
#57=ADVANCED_FACE('',(#46),#66,.T.);
#58=ADVANCED_FACE('',(#47),#38,.T.);
#59=ADVANCED_FACE('',(#48),#67,.T.);
#60=ADVANCED_FACE('',(#71,#72),#68,.F.);
#61=ADVANCED_FACE('',(#49),#39,.F.);
#62=ADVANCED_FACE('',(#50),#40,.F.);
#63=PLANE('',#376);
#64=PLANE('',#380);
#65=PLANE('',#383);
#66=PLANE('',#387);
#67=PLANE('',#390);
#68=PLANE('',#393);
#69=FACE_BOUND('',#73,.T.);
#70=FACE_BOUND('',#74,.T.);
#71=FACE_BOUND('',#83,.T.);
#72=FACE_BOUND('',#84,.T.);
#73=EDGE_LOOP('',(#87,#88,#89,#90,#91,#92,#93,#94,#95,#96));
#74=EDGE_LOOP('',(#97,#98));
#75=EDGE_LOOP('',(#99,#100,#101,#102,#103,#104));
#76=EDGE_LOOP('',(#105,#106,#107,#108));
#77=EDGE_LOOP('',(#109,#110,#111,#112));
#78=EDGE_LOOP('',(#113,#114,#115,#116));
#79=EDGE_LOOP('',(#117,#118,#119,#120,#121,#122));
#80=EDGE_LOOP('',(#123,#124,#125,#126));
#81=EDGE_LOOP('',(#127,#128,#129,#130));
#82=EDGE_LOOP('',(#131,#132,#133,#134));
#83=EDGE_LOOP('',(#135,#136,#137,#138,#139,#140,#141,#142,#143,#144));
#84=EDGE_LOOP('',(#145,#146));
#85=EDGE_LOOP('',(#147,#148,#149,#150));
#86=EDGE_LOOP('',(#151,#152,#153,#154));
#87=ORIENTED_EDGE('',*,*,#179,.F.);
#88=ORIENTED_EDGE('',*,*,#180,.F.);
#89=ORIENTED_EDGE('',*,*,#181,.F.);
#90=ORIENTED_EDGE('',*,*,#182,.F.);
#91=ORIENTED_EDGE('',*,*,#183,.F.);
#92=ORIENTED_EDGE('',*,*,#184,.F.);
#93=ORIENTED_EDGE('',*,*,#185,.F.);
#94=ORIENTED_EDGE('',*,*,#186,.F.);
#95=ORIENTED_EDGE('',*,*,#187,.F.);
#96=ORIENTED_EDGE('',*,*,#188,.F.);
#97=ORIENTED_EDGE('',*,*,#189,.F.);
#98=ORIENTED_EDGE('',*,*,#190,.F.);
#99=ORIENTED_EDGE('',*,*,#191,.F.);
#100=ORIENTED_EDGE('',*,*,#192,.T.);
#101=ORIENTED_EDGE('',*,*,#193,.T.);
#102=ORIENTED_EDGE('',*,*,#194,.F.);
#103=ORIENTED_EDGE('',*,*,#188,.T.);
#104=ORIENTED_EDGE('',*,*,#187,.T.);
#105=ORIENTED_EDGE('',*,*,#194,.T.);
#106=ORIENTED_EDGE('',*,*,#195,.T.);
#107=ORIENTED_EDGE('',*,*,#196,.T.);
#108=ORIENTED_EDGE('',*,*,#179,.T.);
#109=ORIENTED_EDGE('',*,*,#196,.F.);
#110=ORIENTED_EDGE('',*,*,#197,.T.);
#111=ORIENTED_EDGE('',*,*,#198,.F.);
#112=ORIENTED_EDGE('',*,*,#180,.T.);
#113=ORIENTED_EDGE('',*,*,#198,.T.);
#114=ORIENTED_EDGE('',*,*,#199,.T.);
#115=ORIENTED_EDGE('',*,*,#200,.T.);
#116=ORIENTED_EDGE('',*,*,#181,.T.);
#117=ORIENTED_EDGE('',*,*,#200,.F.);
#118=ORIENTED_EDGE('',*,*,#201,.T.);
#119=ORIENTED_EDGE('',*,*,#202,.T.);
#120=ORIENTED_EDGE('',*,*,#203,.F.);
#121=ORIENTED_EDGE('',*,*,#183,.T.);
#122=ORIENTED_EDGE('',*,*,#182,.T.);
#123=ORIENTED_EDGE('',*,*,#203,.T.);
#124=ORIENTED_EDGE('',*,*,#204,.T.);
#125=ORIENTED_EDGE('',*,*,#205,.T.);
#126=ORIENTED_EDGE('',*,*,#184,.T.);
#127=ORIENTED_EDGE('',*,*,#205,.F.);
#128=ORIENTED_EDGE('',*,*,#206,.T.);
#129=ORIENTED_EDGE('',*,*,#207,.F.);
#130=ORIENTED_EDGE('',*,*,#185,.T.);
#131=ORIENTED_EDGE('',*,*,#207,.T.);
#132=ORIENTED_EDGE('',*,*,#208,.T.);
#133=ORIENTED_EDGE('',*,*,#191,.T.);
#134=ORIENTED_EDGE('',*,*,#186,.T.);
#135=ORIENTED_EDGE('',*,*,#208,.F.);
#136=ORIENTED_EDGE('',*,*,#206,.F.);
#137=ORIENTED_EDGE('',*,*,#204,.F.);
#138=ORIENTED_EDGE('',*,*,#202,.F.);
#139=ORIENTED_EDGE('',*,*,#201,.F.);
#140=ORIENTED_EDGE('',*,*,#199,.F.);
#141=ORIENTED_EDGE('',*,*,#197,.F.);
#142=ORIENTED_EDGE('',*,*,#195,.F.);
#143=ORIENTED_EDGE('',*,*,#193,.F.);
#144=ORIENTED_EDGE('',*,*,#192,.F.);
#145=ORIENTED_EDGE('',*,*,#209,.F.);
#146=ORIENTED_EDGE('',*,*,#210,.F.);
#147=ORIENTED_EDGE('',*,*,#211,.F.);
#148=ORIENTED_EDGE('',*,*,#210,.T.);
#149=ORIENTED_EDGE('',*,*,#212,.T.);
#150=ORIENTED_EDGE('',*,*,#190,.T.);
#151=ORIENTED_EDGE('',*,*,#212,.F.);
#152=ORIENTED_EDGE('',*,*,#209,.T.);
#153=ORIENTED_EDGE('',*,*,#211,.T.);
#154=ORIENTED_EDGE('',*,*,#189,.T.);
#155=VERTEX_POINT('',#511);
#156=VERTEX_POINT('',#512);
#157=VERTEX_POINT('',#514);
#158=VERTEX_POINT('',#516);
#159=VERTEX_POINT('',#518);
#160=VERTEX_POINT('',#520);
#161=VERTEX_POINT('',#522);
#162=VERTEX_POINT('',#524);
#163=VERTEX_POINT('',#526);
#164=VERTEX_POINT('',#528);
#165=VERTEX_POINT('',#531);
#166=VERTEX_POINT('',#532);
#167=VERTEX_POINT('',#536);
#168=VERTEX_POINT('',#538);
#169=VERTEX_POINT('',#540);
#170=VERTEX_POINT('',#544);
#171=VERTEX_POINT('',#548);
#172=VERTEX_POINT('',#552);
#173=VERTEX_POINT('',#556);
#174=VERTEX_POINT('',#558);
#175=VERTEX_POINT('',#562);
#176=VERTEX_POINT('',#566);
#177=VERTEX_POINT('',#572);
#178=VERTEX_POINT('',#573);
#179=EDGE_CURVE('',#155,#156,#277,.T.);
#180=EDGE_CURVE('',#157,#155,#221,.T.);
#181=EDGE_CURVE('',#158,#157,#278,.T.);
#182=EDGE_CURVE('',#159,#158,#222,.T.);
#183=EDGE_CURVE('',#160,#159,#223,.T.);
#184=EDGE_CURVE('',#161,#160,#279,.T.);
#185=EDGE_CURVE('',#162,#161,#224,.T.);
#186=EDGE_CURVE('',#163,#162,#280,.T.);
#187=EDGE_CURVE('',#164,#163,#225,.T.);
#188=EDGE_CURVE('',#156,#164,#226,.T.);
#189=EDGE_CURVE('',#165,#166,#227,.T.);
#190=EDGE_CURVE('',#166,#165,#228,.T.);
#191=EDGE_CURVE('',#167,#163,#281,.T.);
#192=EDGE_CURVE('',#167,#168,#229,.T.);
#193=EDGE_CURVE('',#168,#169,#230,.T.);
#194=EDGE_CURVE('',#156,#169,#282,.T.);
#195=EDGE_CURVE('',#169,#170,#283,.T.);
#196=EDGE_CURVE('',#170,#155,#284,.T.);
#197=EDGE_CURVE('',#170,#171,#231,.T.);
#198=EDGE_CURVE('',#157,#171,#285,.T.);
#199=EDGE_CURVE('',#171,#172,#286,.T.);
#200=EDGE_CURVE('',#172,#158,#287,.T.);
#201=EDGE_CURVE('',#172,#173,#232,.T.);
#202=EDGE_CURVE('',#173,#174,#233,.T.);
#203=EDGE_CURVE('',#160,#174,#288,.T.);
#204=EDGE_CURVE('',#174,#175,#289,.T.);
#205=EDGE_CURVE('',#175,#161,#290,.T.);
#206=EDGE_CURVE('',#175,#176,#234,.T.);
#207=EDGE_CURVE('',#162,#176,#291,.T.);
#208=EDGE_CURVE('',#176,#167,#292,.T.);
#209=EDGE_CURVE('',#177,#178,#235,.T.);
#210=EDGE_CURVE('',#178,#177,#236,.T.);
#211=EDGE_CURVE('',#178,#165,#293,.T.);
#212=EDGE_CURVE('',#177,#166,#294,.T.);
#213=COLOUR_RGB('Strong Stone',0.576470588235294,0.54508278019379,0.392156862745098);
#214=COLOUR_RGB('cutting part',0.8,0.8,0.8);
#215=CIRCLE('',#359,0.4);
#216=CIRCLE('',#360,0.4);
#217=CIRCLE('',#361,0.4);
#218=CIRCLE('',#362,0.4);
#219=CIRCLE('',#363,0.4);
#220=CIRCLE('',#364,0.4);
#221=CIRCLE('',#368,0.4);
#222=CIRCLE('',#369,0.4);
#223=CIRCLE('',#370,0.4);
#224=CIRCLE('',#371,0.4);
#225=CIRCLE('',#372,0.4);
#226=CIRCLE('',#373,0.4);
#227=CIRCLE('',#374,1.905);
#228=CIRCLE('',#375,1.905);
#229=CIRCLE('',#377,0.4);
#230=CIRCLE('',#378,0.4);
#231=CIRCLE('',#381,0.4);
#232=CIRCLE('',#384,0.4);
#233=CIRCLE('',#385,0.4);
#234=CIRCLE('',#388,0.4);
#235=CIRCLE('',#391,1.905);
#236=CIRCLE('',#392,1.905);
#237=CURVE_STYLE('',#250,POSITIVE_LENGTH_MEASURE(0.18),#357);
#238=CURVE_STYLE('',#251,POSITIVE_LENGTH_MEASURE(0.18),#357);
#239=CURVE_STYLE('',#252,POSITIVE_LENGTH_MEASURE(0.18),#357);
#240=CURVE_STYLE('',#253,POSITIVE_LENGTH_MEASURE(0.18),#357);
#241=CURVE_STYLE('',#254,POSITIVE_LENGTH_MEASURE(0.18),#357);
#242=CURVE_STYLE('',#255,POSITIVE_LENGTH_MEASURE(0.18),#357);
#243=CURVE_STYLE('',#256,POSITIVE_LENGTH_MEASURE(0.18),#357);
#244=CURVE_STYLE('',#257,POSITIVE_LENGTH_MEASURE(0.18),#357);
#245=CURVE_STYLE('',#258,POSITIVE_LENGTH_MEASURE(0.18),#357);
#246=CURVE_STYLE('',#259,POSITIVE_LENGTH_MEASURE(0.18),#357);
#247=CURVE_STYLE('',#260,POSITIVE_LENGTH_MEASURE(0.13),#356);
#248=CURVE_STYLE('',#261,POSITIVE_LENGTH_MEASURE(0.13),#356);
#249=CURVE_STYLE('',#262,POSITIVE_LENGTH_MEASURE(0.13),#213);
#250=DRAUGHTING_PRE_DEFINED_CURVE_FONT('continuous');
#251=DRAUGHTING_PRE_DEFINED_CURVE_FONT('continuous');
#252=DRAUGHTING_PRE_DEFINED_CURVE_FONT('continuous');
#253=DRAUGHTING_PRE_DEFINED_CURVE_FONT('continuous');
#254=DRAUGHTING_PRE_DEFINED_CURVE_FONT('continuous');
#255=DRAUGHTING_PRE_DEFINED_CURVE_FONT('continuous');
#256=DRAUGHTING_PRE_DEFINED_CURVE_FONT('continuous');
#257=DRAUGHTING_PRE_DEFINED_CURVE_FONT('continuous');
#258=DRAUGHTING_PRE_DEFINED_CURVE_FONT('continuous');
#259=DRAUGHTING_PRE_DEFINED_CURVE_FONT('continuous');
#260=DRAUGHTING_PRE_DEFINED_CURVE_FONT('continuous');
#261=DRAUGHTING_PRE_DEFINED_CURVE_FONT('continuous');
#262=DRAUGHTING_PRE_DEFINED_CURVE_FONT('continuous');
#263=TRIMMED_CURVE('',#273,(PARAMETER_VALUE(0.)),(PARAMETER_VALUE(1.)),
 .T.,.PARAMETER.);
#264=TRIMMED_CURVE('',#274,(PARAMETER_VALUE(0.)),(PARAMETER_VALUE(1.)),
 .T.,.PARAMETER.);
#265=TRIMMED_CURVE('',#275,(PARAMETER_VALUE(0.)),(PARAMETER_VALUE(1.)),
 .T.,.PARAMETER.);
#266=TRIMMED_CURVE('',#276,(PARAMETER_VALUE(0.)),(PARAMETER_VALUE(1.)),
 .T.,.PARAMETER.);
#267=TRIMMED_CURVE('',#215,(PARAMETER_VALUE(0.)),(PARAMETER_VALUE(17.50000000017)),
 .T.,.PARAMETER.);
#268=TRIMMED_CURVE('',#216,(PARAMETER_VALUE(0.)),(PARAMETER_VALUE(145.0000000012)),
 .T.,.PARAMETER.);
#269=TRIMMED_CURVE('',#217,(PARAMETER_VALUE(0.)),(PARAMETER_VALUE(17.5)),
 .T.,.PARAMETER.);
#270=TRIMMED_CURVE('',#218,(PARAMETER_VALUE(0.)),(PARAMETER_VALUE(17.50000000017)),
 .T.,.PARAMETER.);
#271=TRIMMED_CURVE('',#219,(PARAMETER_VALUE(0.)),(PARAMETER_VALUE(145.0000000012)),
 .T.,.PARAMETER.);
#272=TRIMMED_CURVE('',#220,(PARAMETER_VALUE(0.)),(PARAMETER_VALUE(17.5)),
 .T.,.PARAMETER.);
#273=LINE('',#497,#295);
#274=LINE('',#498,#296);
#275=LINE('',#499,#297);
#276=LINE('',#500,#298);
#277=LINE('',#510,#299);
#278=LINE('',#515,#300);
#279=LINE('',#521,#301);
#280=LINE('',#525,#302);
#281=LINE('',#535,#303);
#282=LINE('',#541,#304);
#283=LINE('',#543,#305);
#284=LINE('',#545,#306);
#285=LINE('',#549,#307);
#286=LINE('',#551,#308);
#287=LINE('',#553,#309);
#288=LINE('',#559,#310);
#289=LINE('',#561,#311);
#290=LINE('',#563,#312);
#291=LINE('',#567,#313);
#292=LINE('',#569,#314);
#293=LINE('',#576,#315);
#294=LINE('',#577,#316);
#295=VECTOR('',#398,15.2115732917797);
#296=VECTOR('',#399,15.2115732918);
#297=VECTOR('',#400,15.2115732917797);
#298=VECTOR('',#401,15.2115732918);
#299=VECTOR('',#420,1.);
#300=VECTOR('',#423,1.);
#301=VECTOR('',#428,1.);
#302=VECTOR('',#431,1.);
#303=VECTOR('',#442,1.);
#304=VECTOR('',#447,1.);
#305=VECTOR('',#450,1.);
#306=VECTOR('',#451,1.);
#307=VECTOR('',#456,1.);
#308=VECTOR('',#459,1.);
#309=VECTOR('',#460,1.);
#310=VECTOR('',#467,1.);
#311=VECTOR('',#470,1.);
#312=VECTOR('',#471,1.);
#313=VECTOR('',#476,1.);
#314=VECTOR('',#479,1.);
#315=VECTOR('',#488,1.);
#316=VECTOR('',#489,1.);
#317=PRESENTATION_LAYER_ASSIGNMENT('5','Layer 5',(#495,#365));
#318=PRESENTATION_LAYER_ASSIGNMENT('1','Layer 1',(#496,#366,#367,#33));
#319=PRESENTATION_LAYER_ASSIGNMENT('2','Layer 2',(#263,#264,#265,#266,#267,
#268,#269,#270,#271,#272));
#320=STYLED_ITEM('',(#336),#495);
#321=STYLED_ITEM('',(#337),#496);
#322=STYLED_ITEM('',(#338),#263);
#323=STYLED_ITEM('',(#339),#264);
#324=STYLED_ITEM('',(#340),#265);
#325=STYLED_ITEM('',(#341),#266);
#326=STYLED_ITEM('',(#342),#267);
#327=STYLED_ITEM('',(#343),#268);
#328=STYLED_ITEM('',(#344),#269);
#329=STYLED_ITEM('',(#345),#270);
#330=STYLED_ITEM('',(#346),#271);
#331=STYLED_ITEM('',(#347),#272);
#332=STYLED_ITEM('',(#348),#365);
#333=STYLED_ITEM('',(#349),#366);
#334=STYLED_ITEM('',(#350),#367);
#335=STYLED_ITEM('',(#351),#33);
#336=PRESENTATION_STYLE_ASSIGNMENT((#352));
#337=PRESENTATION_STYLE_ASSIGNMENT((#353));
#338=PRESENTATION_STYLE_ASSIGNMENT((#237));
#339=PRESENTATION_STYLE_ASSIGNMENT((#238));
#340=PRESENTATION_STYLE_ASSIGNMENT((#239));
#341=PRESENTATION_STYLE_ASSIGNMENT((#240));
#342=PRESENTATION_STYLE_ASSIGNMENT((#241));
#343=PRESENTATION_STYLE_ASSIGNMENT((#242));
#344=PRESENTATION_STYLE_ASSIGNMENT((#243));
#345=PRESENTATION_STYLE_ASSIGNMENT((#244));
#346=PRESENTATION_STYLE_ASSIGNMENT((#245));
#347=PRESENTATION_STYLE_ASSIGNMENT((#246));
#348=PRESENTATION_STYLE_ASSIGNMENT((#247));
#349=PRESENTATION_STYLE_ASSIGNMENT((#248));
#350=PRESENTATION_STYLE_ASSIGNMENT((#249));
#351=PRESENTATION_STYLE_ASSIGNMENT((#28));
#352=POINT_STYLE('',#354,POSITIVE_LENGTH_MEASURE(3.),#356);
#353=POINT_STYLE('',#355,POSITIVE_LENGTH_MEASURE(3.),#356);
#354=PRE_DEFINED_POINT_MARKER_SYMBOL('plus');
#355=PRE_DEFINED_POINT_MARKER_SYMBOL('plus');
#356=DRAUGHTING_PRE_DEFINED_COLOUR('yellow');
#357=DRAUGHTING_PRE_DEFINED_COLOUR('blue');
#358=AXIS2_PLACEMENT_3D('',#494,#396,#397);
#359=AXIS2_PLACEMENT_3D('',#501,#402,#403);
#360=AXIS2_PLACEMENT_3D('',#502,#404,#405);
#361=AXIS2_PLACEMENT_3D('',#503,#406,#407);
#362=AXIS2_PLACEMENT_3D('',#504,#408,#409);
#363=AXIS2_PLACEMENT_3D('',#505,#410,#411);
#364=AXIS2_PLACEMENT_3D('',#506,#412,#413);
#365=AXIS2_PLACEMENT_3D('MCS',#507,#414,#415);
#366=AXIS2_PLACEMENT_3D('PCS',#508,#416,#417);
#367=AXIS2_PLACEMENT_3D('',#509,#418,#419);
#368=AXIS2_PLACEMENT_3D('',#513,#421,#422);
#369=AXIS2_PLACEMENT_3D('',#517,#424,#425);
#370=AXIS2_PLACEMENT_3D('',#519,#426,#427);
#371=AXIS2_PLACEMENT_3D('',#523,#429,#430);
#372=AXIS2_PLACEMENT_3D('',#527,#432,#433);
#373=AXIS2_PLACEMENT_3D('',#529,#434,#435);
#374=AXIS2_PLACEMENT_3D('',#530,#436,#437);
#375=AXIS2_PLACEMENT_3D('',#533,#438,#439);
#376=AXIS2_PLACEMENT_3D('',#534,#440,#441);
#377=AXIS2_PLACEMENT_3D('',#537,#443,#444);
#378=AXIS2_PLACEMENT_3D('',#539,#445,#446);
#379=AXIS2_PLACEMENT_3D('',#542,#448,#449);
#380=AXIS2_PLACEMENT_3D('',#546,#452,#453);
#381=AXIS2_PLACEMENT_3D('',#547,#454,#455);
#382=AXIS2_PLACEMENT_3D('',#550,#457,#458);
#383=AXIS2_PLACEMENT_3D('',#554,#461,#462);
#384=AXIS2_PLACEMENT_3D('',#555,#463,#464);
#385=AXIS2_PLACEMENT_3D('',#557,#465,#466);
#386=AXIS2_PLACEMENT_3D('',#560,#468,#469);
#387=AXIS2_PLACEMENT_3D('',#564,#472,#473);
#388=AXIS2_PLACEMENT_3D('',#565,#474,#475);
#389=AXIS2_PLACEMENT_3D('',#568,#477,#478);
#390=AXIS2_PLACEMENT_3D('',#570,#480,#481);
#391=AXIS2_PLACEMENT_3D('',#571,#482,#483);
#392=AXIS2_PLACEMENT_3D('',#574,#484,#485);
#393=AXIS2_PLACEMENT_3D('',#575,#486,#487);
#394=AXIS2_PLACEMENT_3D('',#578,#490,#491);
#395=AXIS2_PLACEMENT_3D('',#579,#492,#493);
#396=DIRECTION('',(0.,0.,1.));
#397=DIRECTION('',(1.,0.,0.));
#398=DIRECTION('',(0.819152044289016,0.573576436351011,0.));
#399=DIRECTION('',(-1.,0.,0.));
#400=DIRECTION('',(-0.819152044289016,-0.573576436351011,0.));
#401=DIRECTION('',(1.,0.,0.));
#402=DIRECTION('',(0.,0.,1.));
#403=DIRECTION('',(0.300705799504306,-0.953716950748217,0.));
#404=DIRECTION('',(0.,0.,1.));
#405=DIRECTION('',(0.573576436334014,-0.819152044300918,0.));
#406=DIRECTION('',(0.,0.,1.));
#407=DIRECTION('',(-2.05998412772246E-14,1.,0.));
#408=DIRECTION('',(0.,0.,1.));
#409=DIRECTION('',(-0.300705799504306,0.953716950748217,0.));
#410=DIRECTION('',(0.,0.,1.));
#411=DIRECTION('',(-0.573576436334014,0.819152044300918,0.));
#412=DIRECTION('',(0.,0.,1.));
#413=DIRECTION('',(0.,-1.,0.));
#414=DIRECTION('',(0.,0.,1.));
#415=DIRECTION('',(1.,0.,0.));
#416=DIRECTION('',(0.,0.,1.));
#417=DIRECTION('',(1.,0.,0.));
#418=DIRECTION('',(0.,0.,1.));
#419=DIRECTION('',(1.,0.,0.));
#420=DIRECTION('',(-0.819152044289016,-0.573576436351011,0.));
#421=DIRECTION('',(0.,0.,-1.));
#422=DIRECTION('',(0.,1.,0.));
#423=DIRECTION('',(1.,0.,0.));
#424=DIRECTION('',(0.,0.,-1.));
#425=DIRECTION('',(-0.300705799504305,0.953716950748216,0.));
#426=DIRECTION('',(0.,0.,-1.));
#427=DIRECTION('',(-0.573576436353535,0.819152044287249,0.));
#428=DIRECTION('',(0.819152044289016,0.573576436351011,0.));
#429=DIRECTION('',(0.,0.,-1.));
#430=DIRECTION('',(0.,-1.,0.));
#431=DIRECTION('',(-1.,0.,0.));
#432=DIRECTION('',(0.,0.,-1.));
#433=DIRECTION('',(0.300705799504305,-0.953716950748216,0.));
#434=DIRECTION('',(0.,0.,-1.));
#435=DIRECTION('',(0.573576436353535,-0.819152044287249,0.));
#436=DIRECTION('',(0.,0.,1.));
#437=DIRECTION('',(0.953716950748217,0.300705799504305,0.));
#438=DIRECTION('',(0.,0.,1.));
#439=DIRECTION('',(-0.953716950748217,-0.300705799504305,0.));
#440=DIRECTION('',(0.,0.,1.));
#441=DIRECTION('',(-0.300705799504305,0.953716950748217,0.));
#442=DIRECTION('',(0.,0.,1.));
#443=DIRECTION('',(0.,0.,1.));
#444=DIRECTION('',(0.,-1.,0.));
#445=DIRECTION('',(0.,0.,1.));
#446=DIRECTION('',(0.300705799504305,-0.953716950748216,0.));
#447=DIRECTION('',(0.,0.,-1.));
#448=DIRECTION('',(0.,0.,1.));
#449=DIRECTION('',(-0.300705799504305,0.953716950748216,0.));
#450=DIRECTION('',(0.819152044289016,0.573576436351011,0.));
#451=DIRECTION('',(0.,0.,1.));
#452=DIRECTION('',(0.573576436351011,-0.819152044289016,0.));
#453=DIRECTION('',(-0.819152044289016,-0.573576436351011,0.));
#454=DIRECTION('',(0.,0.,1.));
#455=DIRECTION('',(0.573576436333897,-0.819152044300999,0.));
#456=DIRECTION('',(0.,0.,-1.));
#457=DIRECTION('',(0.,0.,1.));
#458=DIRECTION('',(-0.300705799504307,0.953716950748216,0.));
#459=DIRECTION('',(-1.,0.,0.));
#460=DIRECTION('',(0.,0.,1.));
#461=DIRECTION('',(0.,1.,0.));
#462=DIRECTION('',(1.,0.,0.));
#463=DIRECTION('',(0.,0.,1.));
#464=DIRECTION('',(-2.05998412772246E-14,1.,0.));
#465=DIRECTION('',(0.,0.,1.));
#466=DIRECTION('',(-0.300705799504305,0.953716950748216,0.));
#467=DIRECTION('',(0.,0.,-1.));
#468=DIRECTION('',(0.,0.,1.));
#469=DIRECTION('',(-0.300705799504305,0.953716950748216,0.));
#470=DIRECTION('',(-0.819152044289016,-0.573576436351011,0.));
#471=DIRECTION('',(0.,0.,1.));
#472=DIRECTION('',(-0.573576436351011,0.819152044289016,0.));
#473=DIRECTION('',(0.819152044289016,0.573576436351011,0.));
#474=DIRECTION('',(0.,0.,1.));
#475=DIRECTION('',(-0.573576436334014,0.819152044300919,0.));
#476=DIRECTION('',(0.,0.,-1.));
#477=DIRECTION('',(0.,0.,1.));
#478=DIRECTION('',(-0.300705799504307,0.953716950748216,0.));
#479=DIRECTION('',(1.,0.,0.));
#480=DIRECTION('',(0.,-1.,0.));
#481=DIRECTION('',(-1.,0.,0.));
#482=DIRECTION('',(0.,0.,-1.));
#483=DIRECTION('',(-0.953716950748217,-0.300705799504305,0.));
#484=DIRECTION('',(0.,0.,-1.));
#485=DIRECTION('',(0.953716950748217,0.300705799504305,0.));
#486=DIRECTION('',(0.,0.,1.));
#487=DIRECTION('',(-0.300705799504305,0.953716950748217,0.));
#488=DIRECTION('',(0.,0.,1.));
#489=DIRECTION('',(0.,0.,1.));
#490=DIRECTION('',(0.,0.,-1.));
#491=DIRECTION('',(0.953716950748217,0.300705799504305,0.));
#492=DIRECTION('',(0.,0.,-1.));
#493=DIRECTION('',(0.953716950748217,0.300705799504305,0.));
#494=CARTESIAN_POINT('',(0.,0.,0.));
#495=CARTESIAN_POINT('',(0.,0.,0.));
#496=CARTESIAN_POINT('',(-15.10472024626,-4.7625,0.));
#497=CARTESIAN_POINT('',(1.604921541026,-4.690160817715,0.));
#498=CARTESIAN_POINT('',(13.83608232531,4.7625,0.));
#499=CARTESIAN_POINT('',(-1.604921541026,4.690160817715,0.));
#500=CARTESIAN_POINT('',(-13.83608232531,-4.7625,0.));
#501=CARTESIAN_POINT('',(1.375490966485,-4.3625,0.));
#502=CARTESIAN_POINT('',(13.83608232531,4.3625,0.));
#503=CARTESIAN_POINT('',(-1.375490966485,4.3625,0.));
#504=CARTESIAN_POINT('',(-1.375490966485,4.3625,0.));
#505=CARTESIAN_POINT('',(-13.83608232531,-4.3625,0.));
#506=CARTESIAN_POINT('',(1.375490966485,-4.3625,0.));
#507=CARTESIAN_POINT('',(0.,0.,0.));
#508=CARTESIAN_POINT('',(-15.10472024626,-4.7625,0.));
#509=CARTESIAN_POINT('',(0.,0.,0.));
#510=CARTESIAN_POINT('',(14.06551289985,4.034839182282,0.));
#511=CARTESIAN_POINT('',(14.06551289984,4.03483918228,0.));
#512=CARTESIAN_POINT('',(1.604921541026,-4.690160817715,0.));
#513=CARTESIAN_POINT('',(13.83608232531,4.3625,0.));
#514=CARTESIAN_POINT('',(13.83608232531,4.7625,0.));
#515=CARTESIAN_POINT('',(-1.375490966485,4.7625,0.));
#516=CARTESIAN_POINT('',(-1.375490966485,4.7625,0.));
#517=CARTESIAN_POINT('',(-1.375490966485,4.3625,0.));
#518=CARTESIAN_POINT('',(-1.495773286287,4.743986780299,0.));
#519=CARTESIAN_POINT('',(-1.375490966485,4.3625,0.));
#520=CARTESIAN_POINT('',(-1.604921541025,4.690160817716,0.));
#521=CARTESIAN_POINT('',(-14.06551289985,-4.034839182282,0.));
#522=CARTESIAN_POINT('',(-14.06551289984,-4.03483918228,0.));
#523=CARTESIAN_POINT('',(-13.83608232531,-4.3625,0.));
#524=CARTESIAN_POINT('',(-13.83608232531,-4.7625,0.));
#525=CARTESIAN_POINT('',(1.375490966485,-4.7625,0.));
#526=CARTESIAN_POINT('',(1.375490966485,-4.7625,0.));
#527=CARTESIAN_POINT('',(1.375490966485,-4.3625,0.));
#528=CARTESIAN_POINT('',(1.495773286287,-4.743986780299,0.));
#529=CARTESIAN_POINT('',(1.375490966485,-4.3625,0.));
#530=CARTESIAN_POINT('',(0.,0.,0.));
#531=CARTESIAN_POINT('',(1.816830791175,0.5728445480557,0.));
#532=CARTESIAN_POINT('',(-1.816830791175,-0.5728445480557,0.));
#533=CARTESIAN_POINT('',(0.,0.,0.));
#534=CARTESIAN_POINT('',(0.,0.,0.));
#535=CARTESIAN_POINT('',(1.375490966485,-4.7625,-4.76));
#536=CARTESIAN_POINT('',(1.375490966485,-4.7625,-4.76));
#537=CARTESIAN_POINT('',(1.375490966485,-4.3625,-4.76));
#538=CARTESIAN_POINT('',(1.495773286287,-4.743986780299,-4.76));
#539=CARTESIAN_POINT('',(1.375490966485,-4.3625,-4.76));
#540=CARTESIAN_POINT('',(1.604921541025,-4.690160817716,-4.76));
#541=CARTESIAN_POINT('',(1.604921541025,-4.690160817716,0.));
#542=CARTESIAN_POINT('',(1.375490966485,-4.3625,0.));
#543=CARTESIAN_POINT('',(1.604921541025,-4.690160817716,-4.76));
#544=CARTESIAN_POINT('',(14.06551289985,4.034839182282,-4.76));
#545=CARTESIAN_POINT('',(14.06551289985,4.034839182282,-4.76));
#546=CARTESIAN_POINT('',(1.604921541025,-4.690160817716,0.));
#547=CARTESIAN_POINT('',(13.83608232531,4.3625,-4.76));
#548=CARTESIAN_POINT('',(13.83608232531,4.7625,-4.76));
#549=CARTESIAN_POINT('',(13.83608232531,4.7625,0.));
#550=CARTESIAN_POINT('',(13.83608232531,4.3625,0.));
#551=CARTESIAN_POINT('',(13.83608232531,4.7625,-4.76));
#552=CARTESIAN_POINT('',(-1.375490966485,4.7625,-4.76));
#553=CARTESIAN_POINT('',(-1.375490966485,4.7625,-4.76));
#554=CARTESIAN_POINT('',(13.83608232531,4.7625,0.));
#555=CARTESIAN_POINT('',(-1.375490966485,4.3625,-4.76));
#556=CARTESIAN_POINT('',(-1.495773286287,4.743986780299,-4.76));
#557=CARTESIAN_POINT('',(-1.375490966485,4.3625,-4.76));
#558=CARTESIAN_POINT('',(-1.604921541025,4.690160817716,-4.76));
#559=CARTESIAN_POINT('',(-1.604921541025,4.690160817716,0.));
#560=CARTESIAN_POINT('',(-1.375490966485,4.3625,0.));
#561=CARTESIAN_POINT('',(-1.604921541025,4.690160817716,-4.76));
#562=CARTESIAN_POINT('',(-14.06551289985,-4.034839182282,-4.76));
#563=CARTESIAN_POINT('',(-14.06551289985,-4.034839182282,-4.76));
#564=CARTESIAN_POINT('',(-1.604921541025,4.690160817716,0.));
#565=CARTESIAN_POINT('',(-13.83608232531,-4.3625,-4.76));
#566=CARTESIAN_POINT('',(-13.83608232531,-4.7625,-4.76));
#567=CARTESIAN_POINT('',(-13.83608232531,-4.7625,0.));
#568=CARTESIAN_POINT('',(-13.83608232531,-4.3625,0.));
#569=CARTESIAN_POINT('',(-13.83608232531,-4.7625,-4.76));
#570=CARTESIAN_POINT('',(-13.83608232531,-4.7625,0.));
#571=CARTESIAN_POINT('',(0.,0.,-4.76));
#572=CARTESIAN_POINT('',(-1.816830791175,-0.5728445480557,-4.76));
#573=CARTESIAN_POINT('',(1.816830791175,0.5728445480557,-4.76));
#574=CARTESIAN_POINT('',(0.,0.,-4.76));
#575=CARTESIAN_POINT('',(0.,0.,-4.76));
#576=CARTESIAN_POINT('',(1.816830791175,0.5728445480557,0.));
#577=CARTESIAN_POINT('',(-1.816830791175,-0.5728445480557,0.));
#578=CARTESIAN_POINT('',(0.,0.,0.238));
#579=CARTESIAN_POINT('',(0.,0.,0.238));
#580=MECHANICAL_DESIGN_GEOMETRIC_PRESENTATION_REPRESENTATION('',(#320,#321,
#322,#323,#324,#325,#326,#327,#328,#329,#330,#331,#332,#333,#334,#335),
#581);
#581=(
GEOMETRIC_REPRESENTATION_CONTEXT(3)
GLOBAL_UNCERTAINTY_ASSIGNED_CONTEXT((#582))
GLOBAL_UNIT_ASSIGNED_CONTEXT((#588,#584,#583))
REPRESENTATION_CONTEXT('VN160404R','TOP_LEVEL_ASSEMBLY_PART')
);
#582=UNCERTAINTY_MEASURE_WITH_UNIT(LENGTH_MEASURE(2.E-5),#588,
'DISTANCE_ACCURACY_VALUE','Maximum Tolerance applied to model');
#583=(
NAMED_UNIT(*)
SI_UNIT($,.STERADIAN.)
SOLID_ANGLE_UNIT()
);
#584=(
CONVERSION_BASED_UNIT('DEGREE',#586)
NAMED_UNIT(#585)
PLANE_ANGLE_UNIT()
);
#585=DIMENSIONAL_EXPONENTS(0.,0.,0.,0.,0.,0.,0.);
#586=PLANE_ANGLE_MEASURE_WITH_UNIT(PLANE_ANGLE_MEASURE(0.0174532925),#587);
#587=(
NAMED_UNIT(*)
PLANE_ANGLE_UNIT()
SI_UNIT($,.RADIAN.)
);
#588=(
LENGTH_UNIT()
NAMED_UNIT(*)
SI_UNIT(.MILLI.,.METRE.)
);
ENDSEC;
END-ISO-10303-21;
