ISO-10303-21;
HEADER;
/* Generated by software containing ST-Developer
 * from STEP Tools, Inc. (www.steptools.com) 
 */
/* OPTION: using custom schema-name function */

FILE_DESCRIPTION(
/* description */ (''),
/* implementation_level */ '2;1');

FILE_NAME(
/* name */ 'RN120400N.stp',
/* time_stamp */ '2021-12-22T08:51:12+09:00',
/* author */ (''),
/* organization */ (''),
/* preprocessor_version */ 'ST-DEVELOPER v16',
/* originating_system */ 'SIEMENS PLM Software NX 10.0',
/* authorisation */ '');

FILE_SCHEMA (('AUTOMOTIVE_DESIGN { 1 0 10303 214 3 1 1 1 }'));
ENDSEC;

DATA;
#10=CONSTRUCTIVE_GEOMETRY_REPRESENTATION_RELATIONSHIP(
'supplemental geometry','',#26,#11);
#11=CONSTRUCTIVE_GEOMETRY_REPRESENTATION('supplemental geometry',(#166,
#167,#168),#262);
#12=GEOMETRICALLY_BOUNDED_WIREFRAME_SHAPE_REPRESENTATION(
'RN120400N-None',(#27),#262);
#13=SHAPE_REPRESENTATION_RELATIONSHIP('None',
'relationship between RN120400N-None and RN120400N-None',#26,#15);
#14=SHAPE_REPRESENTATION_RELATIONSHIP('None',
'relationship between RN120400N-None and RN120400N-None',#26,#12);
#15=ADVANCED_BREP_SHAPE_REPRESENTATION('RN120400N-None',(#33),#262);
#16=SHAPE_DEFINITION_REPRESENTATION(#17,#26);
#17=PRODUCT_DEFINITION_SHAPE('','',#18);
#18=PRODUCT_DEFINITION('part definition','',#20,#19);
#19=PRODUCT_DEFINITION_CONTEXT('part definition',#25,'design');
#20=PRODUCT_DEFINITION_FORMATION_WITH_SPECIFIED_SOURCE(' ',' ',#22,
 .NOT_KNOWN.);
#21=PRODUCT_RELATED_PRODUCT_CATEGORY('part','',(#22));
#22=PRODUCT('RN120400L','RN120400L','NOT SPECIFIED',(#23));
#23=PRODUCT_CONTEXT('',#25,'mechanical');
#24=APPLICATION_PROTOCOL_DEFINITION('international standard',
'automotive_design',2010,#25);
#25=APPLICATION_CONTEXT(
'core data for automotive mechanical design processes');
#26=SHAPE_REPRESENTATION('RN120400N-None',(#163),#262);
#27=GEOMETRIC_CURVE_SET('None',(#228,#229,#127,#128));
#28=SURFACE_STYLE_USAGE(.BOTH.,#29);
#29=SURFACE_SIDE_STYLE('',(#30));
#30=SURFACE_STYLE_FILL_AREA(#31);
#31=FILL_AREA_STYLE('',(#32));
#32=FILL_AREA_STYLE_COLOUR('',#116);
#33=MANIFOLD_SOLID_BREP('',#34);
#34=CLOSED_SHELL('',(#51,#52,#53,#54,#55,#56));
#35=CYLINDRICAL_SURFACE('',#175,6.35);
#36=CYLINDRICAL_SURFACE('',#177,6.35);
#37=CYLINDRICAL_SURFACE('',#181,2.58);
#38=CYLINDRICAL_SURFACE('',#182,2.58);
#39=FACE_OUTER_BOUND('',#65,.T.);
#40=FACE_OUTER_BOUND('',#66,.T.);
#41=FACE_OUTER_BOUND('',#69,.T.);
#42=FACE_OUTER_BOUND('',#70,.T.);
#43=LINE('',#244,#47);
#44=LINE('',#248,#48);
#45=LINE('',#257,#49);
#46=LINE('',#258,#50);
#47=VECTOR('',#205,1.);
#48=VECTOR('',#208,1.);
#49=VECTOR('',#221,1.);
#50=VECTOR('',#222,1.);
#51=ADVANCED_FACE('',(#59,#60),#57,.T.);
#52=ADVANCED_FACE('',(#39),#35,.T.);
#53=ADVANCED_FACE('',(#40),#36,.T.);
#54=ADVANCED_FACE('',(#61,#62),#58,.F.);
#55=ADVANCED_FACE('',(#41),#37,.F.);
#56=ADVANCED_FACE('',(#42),#38,.F.);
#57=PLANE('',#173);
#58=PLANE('',#180);
#59=FACE_BOUND('',#63,.T.);
#60=FACE_BOUND('',#64,.T.);
#61=FACE_BOUND('',#67,.T.);
#62=FACE_BOUND('',#68,.T.);
#63=EDGE_LOOP('',(#71,#72));
#64=EDGE_LOOP('',(#73,#74));
#65=EDGE_LOOP('',(#75,#76,#77,#78));
#66=EDGE_LOOP('',(#79,#80,#81,#82));
#67=EDGE_LOOP('',(#83,#84));
#68=EDGE_LOOP('',(#85,#86));
#69=EDGE_LOOP('',(#87,#88,#89,#90));
#70=EDGE_LOOP('',(#91,#92,#93,#94));
#71=ORIENTED_EDGE('',*,*,#103,.F.);
#72=ORIENTED_EDGE('',*,*,#104,.F.);
#73=ORIENTED_EDGE('',*,*,#105,.F.);
#74=ORIENTED_EDGE('',*,*,#106,.F.);
#75=ORIENTED_EDGE('',*,*,#107,.F.);
#76=ORIENTED_EDGE('',*,*,#108,.T.);
#77=ORIENTED_EDGE('',*,*,#109,.T.);
#78=ORIENTED_EDGE('',*,*,#104,.T.);
#79=ORIENTED_EDGE('',*,*,#109,.F.);
#80=ORIENTED_EDGE('',*,*,#110,.T.);
#81=ORIENTED_EDGE('',*,*,#107,.T.);
#82=ORIENTED_EDGE('',*,*,#103,.T.);
#83=ORIENTED_EDGE('',*,*,#110,.F.);
#84=ORIENTED_EDGE('',*,*,#108,.F.);
#85=ORIENTED_EDGE('',*,*,#111,.F.);
#86=ORIENTED_EDGE('',*,*,#112,.F.);
#87=ORIENTED_EDGE('',*,*,#113,.F.);
#88=ORIENTED_EDGE('',*,*,#112,.T.);
#89=ORIENTED_EDGE('',*,*,#114,.T.);
#90=ORIENTED_EDGE('',*,*,#106,.T.);
#91=ORIENTED_EDGE('',*,*,#114,.F.);
#92=ORIENTED_EDGE('',*,*,#111,.T.);
#93=ORIENTED_EDGE('',*,*,#113,.T.);
#94=ORIENTED_EDGE('',*,*,#105,.T.);
#95=VERTEX_POINT('',#236);
#96=VERTEX_POINT('',#237);
#97=VERTEX_POINT('',#240);
#98=VERTEX_POINT('',#241);
#99=VERTEX_POINT('',#245);
#100=VERTEX_POINT('',#247);
#101=VERTEX_POINT('',#253);
#102=VERTEX_POINT('',#254);
#103=EDGE_CURVE('',#95,#96,#131,.T.);
#104=EDGE_CURVE('',#96,#95,#132,.T.);
#105=EDGE_CURVE('',#97,#98,#133,.T.);
#106=EDGE_CURVE('',#98,#97,#134,.T.);
#107=EDGE_CURVE('',#99,#95,#43,.T.);
#108=EDGE_CURVE('',#99,#100,#135,.T.);
#109=EDGE_CURVE('',#100,#96,#44,.T.);
#110=EDGE_CURVE('',#100,#99,#136,.T.);
#111=EDGE_CURVE('',#101,#102,#137,.T.);
#112=EDGE_CURVE('',#102,#101,#138,.T.);
#113=EDGE_CURVE('',#102,#97,#45,.T.);
#114=EDGE_CURVE('',#101,#98,#46,.T.);
#115=COLOUR_RGB('Strong Stone',0.576470588235294,0.54508278019379,0.392156862745098);
#116=COLOUR_RGB('cutting part',0.8,0.8,0.8);
#117=CURVE_STYLE('',#122,POSITIVE_LENGTH_MEASURE(0.18),#162);
#118=CURVE_STYLE('',#123,POSITIVE_LENGTH_MEASURE(0.18),#162);
#119=CURVE_STYLE('',#124,POSITIVE_LENGTH_MEASURE(0.13),#161);
#120=CURVE_STYLE('',#125,POSITIVE_LENGTH_MEASURE(0.13),#161);
#121=CURVE_STYLE('',#126,POSITIVE_LENGTH_MEASURE(0.13),#115);
#122=DRAUGHTING_PRE_DEFINED_CURVE_FONT('continuous');
#123=DRAUGHTING_PRE_DEFINED_CURVE_FONT('continuous');
#124=DRAUGHTING_PRE_DEFINED_CURVE_FONT('continuous');
#125=DRAUGHTING_PRE_DEFINED_CURVE_FONT('continuous');
#126=DRAUGHTING_PRE_DEFINED_CURVE_FONT('continuous');
#127=TRIMMED_CURVE('',#129,(PARAMETER_VALUE(0.)),(PARAMETER_VALUE(180.)),
 .T.,.PARAMETER.);
#128=TRIMMED_CURVE('',#130,(PARAMETER_VALUE(0.)),(PARAMETER_VALUE(180.)),
 .T.,.PARAMETER.);
#129=CIRCLE('',#164,6.35);
#130=CIRCLE('',#165,6.35);
#131=CIRCLE('',#169,6.35);
#132=CIRCLE('',#170,6.35);
#133=CIRCLE('',#171,2.58);
#134=CIRCLE('',#172,2.58);
#135=CIRCLE('',#174,6.35);
#136=CIRCLE('',#176,6.35);
#137=CIRCLE('',#178,2.58);
#138=CIRCLE('',#179,2.58);
#139=PRESENTATION_LAYER_ASSIGNMENT('1','Layer 1',(#228,#229,#166,#167,#168,
#33));
#140=PRESENTATION_LAYER_ASSIGNMENT('2','Layer 2',(#127,#128));
#141=STYLED_ITEM('',(#149),#228);
#142=STYLED_ITEM('',(#150),#229);
#143=STYLED_ITEM('',(#151),#127);
#144=STYLED_ITEM('',(#152),#128);
#145=STYLED_ITEM('',(#153),#166);
#146=STYLED_ITEM('',(#154),#167);
#147=STYLED_ITEM('',(#155),#168);
#148=STYLED_ITEM('',(#156),#33);
#149=PRESENTATION_STYLE_ASSIGNMENT((#157));
#150=PRESENTATION_STYLE_ASSIGNMENT((#158));
#151=PRESENTATION_STYLE_ASSIGNMENT((#117));
#152=PRESENTATION_STYLE_ASSIGNMENT((#118));
#153=PRESENTATION_STYLE_ASSIGNMENT((#119));
#154=PRESENTATION_STYLE_ASSIGNMENT((#120));
#155=PRESENTATION_STYLE_ASSIGNMENT((#121));
#156=PRESENTATION_STYLE_ASSIGNMENT((#28));
#157=POINT_STYLE('',#159,POSITIVE_LENGTH_MEASURE(3.),#161);
#158=POINT_STYLE('',#160,POSITIVE_LENGTH_MEASURE(3.),#161);
#159=PRE_DEFINED_POINT_MARKER_SYMBOL('plus');
#160=PRE_DEFINED_POINT_MARKER_SYMBOL('plus');
#161=DRAUGHTING_PRE_DEFINED_COLOUR('yellow');
#162=DRAUGHTING_PRE_DEFINED_COLOUR('blue');
#163=AXIS2_PLACEMENT_3D('',#227,#183,#184);
#164=AXIS2_PLACEMENT_3D('',#230,#185,#186);
#165=AXIS2_PLACEMENT_3D('',#231,#187,#188);
#166=AXIS2_PLACEMENT_3D('MCS',#232,#189,#190);
#167=AXIS2_PLACEMENT_3D('PCS',#233,#191,#192);
#168=AXIS2_PLACEMENT_3D('',#234,#193,#194);
#169=AXIS2_PLACEMENT_3D('',#235,#195,#196);
#170=AXIS2_PLACEMENT_3D('',#238,#197,#198);
#171=AXIS2_PLACEMENT_3D('',#239,#199,#200);
#172=AXIS2_PLACEMENT_3D('',#242,#201,#202);
#173=AXIS2_PLACEMENT_3D('',#243,#203,#204);
#174=AXIS2_PLACEMENT_3D('',#246,#206,#207);
#175=AXIS2_PLACEMENT_3D('',#249,#209,#210);
#176=AXIS2_PLACEMENT_3D('',#250,#211,#212);
#177=AXIS2_PLACEMENT_3D('',#251,#213,#214);
#178=AXIS2_PLACEMENT_3D('',#252,#215,#216);
#179=AXIS2_PLACEMENT_3D('',#255,#217,#218);
#180=AXIS2_PLACEMENT_3D('',#256,#219,#220);
#181=AXIS2_PLACEMENT_3D('',#259,#223,#224);
#182=AXIS2_PLACEMENT_3D('',#260,#225,#226);
#183=DIRECTION('',(0.,0.,1.));
#184=DIRECTION('',(1.,0.,0.));
#185=DIRECTION('',(0.,0.,-1.));
#186=DIRECTION('',(0.,-1.,0.));
#187=DIRECTION('',(0.,0.,-1.));
#188=DIRECTION('',(0.,1.,0.));
#189=DIRECTION('',(0.,0.,1.));
#190=DIRECTION('',(1.,0.,0.));
#191=DIRECTION('',(0.,0.,1.));
#192=DIRECTION('',(1.,0.,0.));
#193=DIRECTION('',(0.,0.,1.));
#194=DIRECTION('',(1.,0.,0.));
#195=DIRECTION('',(0.,0.,-1.));
#196=DIRECTION('',(0.,1.,0.));
#197=DIRECTION('',(0.,0.,-1.));
#198=DIRECTION('',(0.,-1.,0.));
#199=DIRECTION('',(0.,0.,1.));
#200=DIRECTION('',(0.,1.,0.));
#201=DIRECTION('',(0.,0.,1.));
#202=DIRECTION('',(0.,-1.,0.));
#203=DIRECTION('',(0.,0.,1.));
#204=DIRECTION('',(0.,-1.,0.));
#205=DIRECTION('',(0.,0.,1.));
#206=DIRECTION('',(0.,0.,1.));
#207=DIRECTION('',(0.,1.,0.));
#208=DIRECTION('',(0.,0.,1.));
#209=DIRECTION('',(0.,0.,1.));
#210=DIRECTION('',(0.,-1.,0.));
#211=DIRECTION('',(0.,0.,1.));
#212=DIRECTION('',(0.,-1.,0.));
#213=DIRECTION('',(0.,0.,1.));
#214=DIRECTION('',(0.,-1.,0.));
#215=DIRECTION('',(0.,0.,-1.));
#216=DIRECTION('',(0.,-1.,0.));
#217=DIRECTION('',(0.,0.,-1.));
#218=DIRECTION('',(0.,1.,0.));
#219=DIRECTION('',(0.,0.,1.));
#220=DIRECTION('',(0.,-1.,0.));
#221=DIRECTION('',(0.,0.,1.));
#222=DIRECTION('',(0.,0.,1.));
#223=DIRECTION('',(0.,0.,-1.));
#224=DIRECTION('',(0.,1.,0.));
#225=DIRECTION('',(0.,0.,-1.));
#226=DIRECTION('',(0.,1.,0.));
#227=CARTESIAN_POINT('',(0.,0.,0.));
#228=CARTESIAN_POINT('',(0.,0.,0.));
#229=CARTESIAN_POINT('',(-6.35,-6.35,0.));
#230=CARTESIAN_POINT('',(0.,0.,0.));
#231=CARTESIAN_POINT('',(0.,0.,0.));
#232=CARTESIAN_POINT('',(0.,0.,0.));
#233=CARTESIAN_POINT('',(-6.35,-6.35,0.));
#234=CARTESIAN_POINT('',(0.,0.,0.));
#235=CARTESIAN_POINT('',(0.,0.,0.));
#236=CARTESIAN_POINT('',(0.,6.35,0.));
#237=CARTESIAN_POINT('',(0.,-6.35,0.));
#238=CARTESIAN_POINT('',(0.,0.,0.));
#239=CARTESIAN_POINT('',(0.,0.,0.));
#240=CARTESIAN_POINT('',(0.,2.58,0.));
#241=CARTESIAN_POINT('',(0.,-2.58,0.));
#242=CARTESIAN_POINT('',(0.,0.,0.));
#243=CARTESIAN_POINT('',(0.,0.,0.));
#244=CARTESIAN_POINT('',(0.,6.35,-4.76));
#245=CARTESIAN_POINT('',(0.,6.35,-4.76));
#246=CARTESIAN_POINT('',(0.,0.,-4.76));
#247=CARTESIAN_POINT('',(0.,-6.35,-4.76));
#248=CARTESIAN_POINT('',(0.,-6.35,-4.76));
#249=CARTESIAN_POINT('',(0.,0.,0.));
#250=CARTESIAN_POINT('',(0.,0.,-4.76));
#251=CARTESIAN_POINT('',(0.,0.,0.));
#252=CARTESIAN_POINT('',(0.,0.,-4.76));
#253=CARTESIAN_POINT('',(0.,-2.58,-4.76));
#254=CARTESIAN_POINT('',(0.,2.58,-4.76));
#255=CARTESIAN_POINT('',(0.,0.,-4.76));
#256=CARTESIAN_POINT('',(0.,0.,-4.76));
#257=CARTESIAN_POINT('',(0.,2.58,0.));
#258=CARTESIAN_POINT('',(0.,-2.58,0.));
#259=CARTESIAN_POINT('',(0.,0.,0.238));
#260=CARTESIAN_POINT('',(0.,0.,0.238));
#261=MECHANICAL_DESIGN_GEOMETRIC_PRESENTATION_REPRESENTATION('',(#141,#142,
#143,#144,#145,#146,#147,#148),#262);
#262=(
GEOMETRIC_REPRESENTATION_CONTEXT(3)
GLOBAL_UNCERTAINTY_ASSIGNED_CONTEXT((#263))
GLOBAL_UNIT_ASSIGNED_CONTEXT((#269,#265,#264))
REPRESENTATION_CONTEXT('RN120400N','TOP_LEVEL_ASSEMBLY_PART')
);
#263=UNCERTAINTY_MEASURE_WITH_UNIT(LENGTH_MEASURE(2.E-5),#269,
'DISTANCE_ACCURACY_VALUE','Maximum Tolerance applied to model');
#264=(
NAMED_UNIT(*)
SI_UNIT($,.STERADIAN.)
SOLID_ANGLE_UNIT()
);
#265=(
CONVERSION_BASED_UNIT('DEGREE',#267)
NAMED_UNIT(#266)
PLANE_ANGLE_UNIT()
);
#266=DIMENSIONAL_EXPONENTS(0.,0.,0.,0.,0.,0.,0.);
#267=PLANE_ANGLE_MEASURE_WITH_UNIT(PLANE_ANGLE_MEASURE(0.0174532925),#268);
#268=(
NAMED_UNIT(*)
PLANE_ANGLE_UNIT()
SI_UNIT($,.RADIAN.)
);
#269=(
LENGTH_UNIT()
NAMED_UNIT(*)
SI_UNIT(.MILLI.,.METRE.)
);
ENDSEC;
END-ISO-10303-21;
