ISO-10303-21;
HEADER;
FILE_DESCRIPTION((''),'2;1');
FILE_NAME('RN120300R','2014-05-14T',('tlyi02'),('PTC Japan'),
'PRO/ENGINEER BY PARAMETRIC TECHNOLOGY CORPORATION, 2011180',
'PRO/ENGINEER BY PARAMETRIC TECHNOLOGY CORPORATION, 2011180','');
FILE_SCHEMA(('AUTOMOTIVE_DESIGN { 1 0 10303 214 1 1 1 1 }'));
ENDSEC;
DATA;
#16=CARTESIAN_POINT('',(0.E0,0.E0,0.E0));
#17=DIRECTION('',(0.E0,0.E0,1.E0));
#18=DIRECTION('',(0.E0,1.E0,0.E0));
#19=AXIS2_PLACEMENT_3D('',#16,#17,#18);
#21=DRAUGHTING_PRE_DEFINED_CURVE_FONT('continuous');
#22=CURVE_STYLE('',#21,POSITIVE_LENGTH_MEASURE(2.E-2),#7);
#23=PRESENTATION_STYLE_ASSIGNMENT((#22));
#24=STYLED_ITEM('',(#23),#20);
#25=CARTESIAN_POINT('',(0.E0,0.E0,0.E0));
#26=DIRECTION('',(0.E0,0.E0,1.E0));
#27=DIRECTION('',(0.E0,-1.E0,0.E0));
#28=AXIS2_PLACEMENT_3D('',#25,#26,#27);
#30=CURVE_STYLE('',#21,POSITIVE_LENGTH_MEASURE(2.E-2),#7);
#31=PRESENTATION_STYLE_ASSIGNMENT((#30));
#32=STYLED_ITEM('',(#31),#29);
#33=DIRECTION('',(0.E0,0.E0,-1.E0));
#34=VECTOR('',#33,3.18E0);
#35=CARTESIAN_POINT('',(0.E0,6.35E0,0.E0));
#36=LINE('',#35,#34);
#37=CURVE_STYLE('',#21,POSITIVE_LENGTH_MEASURE(2.E-2),#7);
#38=PRESENTATION_STYLE_ASSIGNMENT((#37));
#39=STYLED_ITEM('',(#38),#36);
#40=DIRECTION('',(0.E0,0.E0,-1.E0));
#41=VECTOR('',#40,3.18E0);
#42=CARTESIAN_POINT('',(0.E0,-6.35E0,0.E0));
#43=LINE('',#42,#41);
#44=CURVE_STYLE('',#21,POSITIVE_LENGTH_MEASURE(2.E-2),#7);
#45=PRESENTATION_STYLE_ASSIGNMENT((#44));
#46=STYLED_ITEM('',(#45),#43);
#47=CARTESIAN_POINT('',(0.E0,0.E0,-3.18E0));
#48=DIRECTION('',(0.E0,0.E0,1.E0));
#49=DIRECTION('',(0.E0,1.E0,0.E0));
#50=AXIS2_PLACEMENT_3D('',#47,#48,#49);
#52=CURVE_STYLE('',#21,POSITIVE_LENGTH_MEASURE(2.E-2),#7);
#53=PRESENTATION_STYLE_ASSIGNMENT((#52));
#54=STYLED_ITEM('',(#53),#51);
#55=CARTESIAN_POINT('',(0.E0,0.E0,-3.18E0));
#56=DIRECTION('',(0.E0,0.E0,1.E0));
#57=DIRECTION('',(0.E0,-1.E0,0.E0));
#58=AXIS2_PLACEMENT_3D('',#55,#56,#57);
#60=CURVE_STYLE('',#21,POSITIVE_LENGTH_MEASURE(2.E-2),#7);
#61=PRESENTATION_STYLE_ASSIGNMENT((#60));
#62=STYLED_ITEM('',(#61),#59);
#63=CARTESIAN_POINT('',(0.E0,6.35E0,0.E0));
#64=CARTESIAN_POINT('',(0.E0,-6.35E0,0.E0));
#65=VERTEX_POINT('',#63);
#66=VERTEX_POINT('',#64);
#67=CARTESIAN_POINT('',(0.E0,6.35E0,-3.18E0));
#68=CARTESIAN_POINT('',(0.E0,-6.35E0,-3.18E0));
#69=VERTEX_POINT('',#67);
#70=VERTEX_POINT('',#68);
#71=CARTESIAN_POINT('',(0.E0,0.E0,0.E0));
#72=DIRECTION('',(0.E0,0.E0,1.E0));
#73=DIRECTION('',(0.E0,1.E0,0.E0));
#74=AXIS2_PLACEMENT_3D('',#71,#72,#73);
#75=PLANE('',#74);
#77=ORIENTED_EDGE('',*,*,#76,.F.);
#79=ORIENTED_EDGE('',*,*,#78,.F.);
#80=EDGE_LOOP('',(#77,#79));
#81=FACE_OUTER_BOUND('',#80,.F.);
#83=CARTESIAN_POINT('',(0.E0,0.E0,0.E0));
#84=DIRECTION('',(0.E0,0.E0,1.E0));
#85=DIRECTION('',(0.E0,1.E0,0.E0));
#86=AXIS2_PLACEMENT_3D('',#83,#84,#85);
#87=CYLINDRICAL_SURFACE('',#86,6.35E0);
#88=ORIENTED_EDGE('',*,*,#76,.T.);
#90=ORIENTED_EDGE('',*,*,#89,.T.);
#92=ORIENTED_EDGE('',*,*,#91,.F.);
#94=ORIENTED_EDGE('',*,*,#93,.F.);
#95=EDGE_LOOP('',(#88,#90,#92,#94));
#96=FACE_OUTER_BOUND('',#95,.F.);
#98=CARTESIAN_POINT('',(0.E0,0.E0,0.E0));
#99=DIRECTION('',(0.E0,0.E0,1.E0));
#100=DIRECTION('',(0.E0,1.E0,0.E0));
#101=AXIS2_PLACEMENT_3D('',#98,#99,#100);
#102=CYLINDRICAL_SURFACE('',#101,6.35E0);
#103=ORIENTED_EDGE('',*,*,#78,.T.);
#104=ORIENTED_EDGE('',*,*,#93,.T.);
#106=ORIENTED_EDGE('',*,*,#105,.F.);
#107=ORIENTED_EDGE('',*,*,#89,.F.);
#108=EDGE_LOOP('',(#103,#104,#106,#107));
#109=FACE_OUTER_BOUND('',#108,.F.);
#111=CARTESIAN_POINT('',(0.E0,0.E0,-3.18E0));
#112=DIRECTION('',(0.E0,0.E0,1.E0));
#113=DIRECTION('',(0.E0,1.E0,0.E0));
#114=AXIS2_PLACEMENT_3D('',#111,#112,#113);
#115=PLANE('',#114);
#116=ORIENTED_EDGE('',*,*,#91,.T.);
#117=ORIENTED_EDGE('',*,*,#105,.T.);
#118=EDGE_LOOP('',(#116,#117));
#119=FACE_OUTER_BOUND('',#118,.F.);
#121=CLOSED_SHELL('',(#82,#97,#110,#120));
#122=MANIFOLD_SOLID_BREP('',#121);
#123=FILL_AREA_STYLE_COLOUR('',#7);
#124=FILL_AREA_STYLE('',(#123));
#125=SURFACE_STYLE_FILL_AREA(#124);
#126=SURFACE_SIDE_STYLE('',(#125));
#127=SURFACE_STYLE_USAGE(.BOTH.,#126);
#128=PRESENTATION_STYLE_ASSIGNMENT((#127));
#15=STYLED_ITEM('',(#128),#122);
#129=CARTESIAN_POINT('',(0.E0,0.E0,0.E0));
#130=DIRECTION('',(0.E0,0.E0,1.E0));
#131=DIRECTION('',(1.E0,0.E0,0.E0));
#132=AXIS2_PLACEMENT_3D('MCS',#129,#130,#131);
#133=CURVE_STYLE('',#21,POSITIVE_LENGTH_MEASURE(2.E-2),#13);
#134=PRESENTATION_STYLE_ASSIGNMENT((#133));
#135=STYLED_ITEM('',(#134),#132);
#136=PRESENTATION_LAYER_ASSIGNMENT('ALL_CSYS','',(#132));
#137=PRESENTATION_LAYER_ASSIGNMENT('ALL_FEATURES','',(#132));
#140=PLANE_ANGLE_MEASURE_WITH_UNIT(PLANE_ANGLE_MEASURE(1.745329251994E-2),#139);
#141=(CONVERSION_BASED_UNIT('DEGREE',#140)NAMED_UNIT(*)PLANE_ANGLE_UNIT());
#143=UNCERTAINTY_MEASURE_WITH_UNIT(LENGTH_MEASURE(1.E-3),#138,
'distance_accuracy_value',
'Maximum model space distance between geometric entities at asserted connectivities');
#147=CARTESIAN_POINT('',(0.E0,0.E0,0.E0));
#148=DIRECTION('',(0.E0,0.E0,1.E0));
#149=DIRECTION('',(1.E0,0.E0,0.E0));
#152=SHAPE_REPRESENTATION_RELATIONSHIP('','',#151,#145);
#153=CONSTRUCTIVE_GEOMETRY_REPRESENTATION_RELATIONSHIP('','',#151,#146);
#154=MECHANICAL_DESIGN_GEOMETRIC_PRESENTATION_REPRESENTATION('',(#24,#32,#39,
#46,#54,#62,#15,#135),#144);
#155=APPLICATION_CONTEXT('automotive_design');
#156=APPLICATION_PROTOCOL_DEFINITION('international standard',
'automotive_design',2001,#155);
#157=PRODUCT_DEFINITION_CONTEXT('part definition',#155,'design');
#158=PRODUCT_CONTEXT('',#155,'mechanical');
#159=PRODUCT('RN120300R','RN120300R','NOT SPECIFIED',(#158));
#160=PRODUCT_DEFINITION_FORMATION('6','LAST_VERSION',#159);
#168=DERIVED_UNIT_ELEMENT(#167,2.E0);
#169=DERIVED_UNIT((#168));
#170=MEASURE_REPRESENTATION_ITEM('surface area measure',AREA_MEASURE(
3.802301004566E2),#169);
#175=DERIVED_UNIT_ELEMENT(#174,3.E0);
#176=DERIVED_UNIT((#175));
#177=MEASURE_REPRESENTATION_ITEM('volume measure',VOLUME_MEASURE(
4.028324458825E2),#176);
#181=CARTESIAN_POINT('centre point',(4.848248767731E-8,1.575291475042E-8,
-1.59E0));
#186=DERIVED_UNIT_ELEMENT(#185,2.E0);
#187=DERIVED_UNIT((#186));
#188=MEASURE_REPRESENTATION_ITEM('surface area measure',AREA_MEASURE(
3.802301004566E2),#187);
#193=DERIVED_UNIT_ELEMENT(#192,3.E0);
#194=DERIVED_UNIT((#193));
#195=MEASURE_REPRESENTATION_ITEM('volume measure',VOLUME_MEASURE(
4.028324458825E2),#194);
#199=CARTESIAN_POINT('centre point',(4.848248767731E-8,1.575291475042E-8,
-1.59E0));
#204=PRODUCT_RELATED_PRODUCT_CATEGORY('part','',(#159));
#206=GENERAL_PROPERTY('','DESCRIPTION','user defined attribute');
#207=GENERAL_PROPERTY_ASSOCIATION('user defined attribute','',#206,#205);
#208=DESCRIPTIVE_REPRESENTATION_ITEM('DESCRIPTION','');
#212=GENERAL_PROPERTY('','MODELED_BY','user defined attribute');
#213=GENERAL_PROPERTY_ASSOCIATION('user defined attribute','',#212,#211);
#214=DESCRIPTIVE_REPRESENTATION_ITEM('MODELED_BY','');
#1=DRAUGHTING_PRE_DEFINED_COLOUR('green');
#2=COLOUR_RGB('',3.01961E-1,3.01961E-1,3.01961E-1);
#3=COLOUR_RGB('',3.92157E-1,3.92157E-1,3.92157E-1);
#4=COLOUR_RGB('',5.01961E-1,5.01961E-1,5.01961E-1);
#5=COLOUR_RGB('',7.05882E-1,7.05882E-1,7.05882E-1);
#6=COLOUR_RGB('',7.84314E-1,5.29412E-1,7.84314E-1);
#7=COLOUR_RGB('',8.E-1,8.E-1,8.E-1);
#8=COLOUR_RGB('',8.784E-1,9.49E-1,1.E0);
#9=COLOUR_RGB('',9.80392E-1,9.80392E-1,9.80392E-1);
#10=COLOUR_RGB('',1.E0,6.66667E-1,0.E0);
#11=COLOUR_RGB('',1.E0,7.63913E-1,1.92109E-1);
#12=COLOUR_RGB('',1.E0,8.39216E-1,8.90196E-1);
#13=DRAUGHTING_PRE_DEFINED_COLOUR('yellow');
#14=COLOUR_RGB('',1.E0,1.E0,9.41176E-1);
#20=CIRCLE('',#19,6.35E0);
#29=CIRCLE('',#28,6.35E0);
#51=CIRCLE('',#50,6.35E0);
#59=CIRCLE('',#58,6.35E0);
#76=EDGE_CURVE('',#65,#66,#20,.T.);
#78=EDGE_CURVE('',#66,#65,#29,.T.);
#82=ADVANCED_FACE('',(#81),#75,.T.);
#89=EDGE_CURVE('',#66,#70,#43,.T.);
#91=EDGE_CURVE('',#69,#70,#51,.T.);
#93=EDGE_CURVE('',#65,#69,#36,.T.);
#97=ADVANCED_FACE('',(#96),#87,.T.);
#105=EDGE_CURVE('',#70,#69,#59,.T.);
#110=ADVANCED_FACE('',(#109),#102,.T.);
#120=ADVANCED_FACE('',(#119),#115,.F.);
#138=(LENGTH_UNIT()NAMED_UNIT(*)SI_UNIT(.MILLI.,.METRE.));
#139=(NAMED_UNIT(*)PLANE_ANGLE_UNIT()SI_UNIT($,.RADIAN.));
#142=(NAMED_UNIT(*)SI_UNIT($,.STERADIAN.)SOLID_ANGLE_UNIT());
#144=(GEOMETRIC_REPRESENTATION_CONTEXT(3)GLOBAL_UNCERTAINTY_ASSIGNED_CONTEXT((
#143))GLOBAL_UNIT_ASSIGNED_CONTEXT((#138,#141,#142))REPRESENTATION_CONTEXT
('ID1','3'));
#145=ADVANCED_BREP_SHAPE_REPRESENTATION('',(#122),#144);
#146=CONSTRUCTIVE_GEOMETRY_REPRESENTATION('supplemental geometry',(#132),#144);
#150=AXIS2_PLACEMENT_3D('',#147,#148,#149);
#151=SHAPE_REPRESENTATION('',(#150),#144);
#161=PRODUCT_DEFINITION('part definition','',#160,#157);
#162=PRODUCT_DEFINITION_SHAPE('','SHAPE FOR RN120300R.',#161);
#163=SHAPE_ASPECT('','solid data associated with RN120300R',#162,.F.);
#164=PROPERTY_DEFINITION('',
'shape for solid data with which properties are associated',#163);
#165=SHAPE_REPRESENTATION('',(#122),#144);
#166=SHAPE_DEFINITION_REPRESENTATION(#164,#165);
#167=(LENGTH_UNIT()NAMED_UNIT(*)SI_UNIT(.MILLI.,.METRE.));
#171=PROPERTY_DEFINITION('geometric validation property','area of RN120300R',
#163);
#172=REPRESENTATION('surface area',(#170),#144);
#173=PROPERTY_DEFINITION_REPRESENTATION(#171,#172);
#174=(LENGTH_UNIT()NAMED_UNIT(*)SI_UNIT(.MILLI.,.METRE.));
#178=PROPERTY_DEFINITION('geometric validation property','volume of RN120300R',
#163);
#179=REPRESENTATION('volume',(#177),#144);
#180=PROPERTY_DEFINITION_REPRESENTATION(#178,#179);
#182=PROPERTY_DEFINITION('geometric validation property',
'centroid of RN120300R',#163);
#183=REPRESENTATION('centroid',(#181),#144);
#184=PROPERTY_DEFINITION_REPRESENTATION(#182,#183);
#185=(LENGTH_UNIT()NAMED_UNIT(*)SI_UNIT(.MILLI.,.METRE.));
#189=PROPERTY_DEFINITION('geometric validation property','area of RN120300R',
#162);
#190=REPRESENTATION('surface area',(#188),#144);
#191=PROPERTY_DEFINITION_REPRESENTATION(#189,#190);
#192=(LENGTH_UNIT()NAMED_UNIT(*)SI_UNIT(.MILLI.,.METRE.));
#196=PROPERTY_DEFINITION('geometric validation property','volume of RN120300R',
#162);
#197=REPRESENTATION('volume',(#195),#144);
#198=PROPERTY_DEFINITION_REPRESENTATION(#196,#197);
#200=PROPERTY_DEFINITION('geometric validation property',
'centroid of RN120300R',#162);
#201=REPRESENTATION('centroid',(#199),#144);
#202=PROPERTY_DEFINITION_REPRESENTATION(#200,#201);
#203=SHAPE_DEFINITION_REPRESENTATION(#162,#151);
#205=PROPERTY_DEFINITION('DESCRIPTION','user defined attribute',#161);
#209=REPRESENTATION('',(#208),#144);
#210=PROPERTY_DEFINITION_REPRESENTATION(#205,#209);
#211=PROPERTY_DEFINITION('MODELED_BY','user defined attribute',#161);
#215=REPRESENTATION('',(#214),#144);
#216=PROPERTY_DEFINITION_REPRESENTATION(#211,#215);
ENDSEC;
END-ISO-10303-21;
