ISO-10303-21;
HEADER;
FILE_DESCRIPTION((''),'2;1');
FILE_NAME('TPGN090208','2025-01-22T09:53:54',('tlyae0012'),('PTC Japan'),
'CREO PARAMETRIC BY PTC INC, 2021424','CREO PARAMETRIC BY PTC INC, 2021424','');
FILE_SCHEMA(('AUTOMOTIVE_DESIGN { 1 0 10303 214 1 1 1 1 }'));
ENDSEC;
DATA;
#19=DIRECTION('',(5.E-1,8.660254037844E-1,0.E0));
#20=VECTOR('',#19,6.874509655241E0);
#21=CARTESIAN_POINT('',(-4.130075150648E0,-1.5845E0,0.E0));
#22=LINE('',#21,#20);
#23=DRAUGHTING_PRE_DEFINED_CURVE_FONT('continuous');
#24=CURVE_STYLE('',#23,POSITIVE_LENGTH_MEASURE(2.E-2),#10);
#25=PRESENTATION_STYLE_ASSIGNMENT((#24));
#26=STYLED_ITEM('',(#25),#22);
#27=CARTESIAN_POINT('',(0.E0,3.969E0,0.E0));
#28=DIRECTION('',(0.E0,0.E0,-1.E0));
#29=DIRECTION('',(-8.660254037844E-1,5.E-1,0.E0));
#30=AXIS2_PLACEMENT_3D('',#27,#28,#29);
#32=CURVE_STYLE('',#23,POSITIVE_LENGTH_MEASURE(2.E-2),#10);
#33=PRESENTATION_STYLE_ASSIGNMENT((#32));
#34=STYLED_ITEM('',(#33),#31);
#35=DIRECTION('',(5.E-1,-8.660254037844E-1,0.E0));
#36=VECTOR('',#35,6.874509655241E0);
#37=CARTESIAN_POINT('',(6.928203230276E-1,4.369E0,0.E0));
#38=LINE('',#37,#36);
#39=CURVE_STYLE('',#23,POSITIVE_LENGTH_MEASURE(2.E-2),#10);
#40=PRESENTATION_STYLE_ASSIGNMENT((#39));
#41=STYLED_ITEM('',(#40),#38);
#42=CARTESIAN_POINT('',(3.437254827620E0,-1.9845E0,0.E0));
#43=DIRECTION('',(0.E0,0.E0,-1.E0));
#44=DIRECTION('',(8.660254037844E-1,5.E-1,0.E0));
#45=AXIS2_PLACEMENT_3D('',#42,#43,#44);
#47=CURVE_STYLE('',#23,POSITIVE_LENGTH_MEASURE(2.E-2),#10);
#48=PRESENTATION_STYLE_ASSIGNMENT((#47));
#49=STYLED_ITEM('',(#48),#46);
#50=DIRECTION('',(-1.E0,0.E0,0.E0));
#51=VECTOR('',#50,6.874509655241E0);
#52=CARTESIAN_POINT('',(3.437254827620E0,-2.7845E0,0.E0));
#53=LINE('',#52,#51);
#54=CURVE_STYLE('',#23,POSITIVE_LENGTH_MEASURE(2.E-2),#10);
#55=PRESENTATION_STYLE_ASSIGNMENT((#54));
#56=STYLED_ITEM('',(#55),#53);
#57=CARTESIAN_POINT('',(-3.437254827620E0,-1.9845E0,0.E0));
#58=DIRECTION('',(0.E0,0.E0,-1.E0));
#59=DIRECTION('',(0.E0,-1.E0,0.E0));
#60=AXIS2_PLACEMENT_3D('',#57,#58,#59);
#62=CURVE_STYLE('',#23,POSITIVE_LENGTH_MEASURE(2.E-2),#10);
#63=PRESENTATION_STYLE_ASSIGNMENT((#62));
#64=STYLED_ITEM('',(#63),#61);
#65=DIRECTION('',(-5.E-1,-8.660254037844E-1,0.E0));
#66=VECTOR('',#65,6.874509655241E0);
#67=CARTESIAN_POINT('',(-6.928203230276E-1,4.369E0,-1.E-1));
#68=LINE('',#67,#66);
#69=CURVE_STYLE('',#23,POSITIVE_LENGTH_MEASURE(2.E-2),#10);
#70=PRESENTATION_STYLE_ASSIGNMENT((#69));
#71=STYLED_ITEM('',(#70),#68);
#72=DIRECTION('',(0.E0,0.E0,1.E0));
#73=VECTOR('',#72,1.E-1);
#74=CARTESIAN_POINT('',(-6.928203230276E-1,4.369E0,-1.E-1));
#75=LINE('',#74,#73);
#76=CURVE_STYLE('',#23,POSITIVE_LENGTH_MEASURE(2.E-2),#10);
#77=PRESENTATION_STYLE_ASSIGNMENT((#76));
#78=STYLED_ITEM('',(#77),#75);
#79=DIRECTION('',(0.E0,2.220446049250E-14,1.E0));
#80=VECTOR('',#79,1.E-1);
#81=CARTESIAN_POINT('',(-4.130075150648E0,-1.5845E0,-1.E-1));
#82=LINE('',#81,#80);
#83=CURVE_STYLE('',#23,POSITIVE_LENGTH_MEASURE(2.E-2),#10);
#84=PRESENTATION_STYLE_ASSIGNMENT((#83));
#85=STYLED_ITEM('',(#84),#82);
#86=CARTESIAN_POINT('',(-3.437254827620E0,-1.9845E0,-1.E-1));
#87=DIRECTION('',(0.E0,0.E0,1.E0));
#88=DIRECTION('',(-8.660254037844E-1,5.E-1,0.E0));
#89=AXIS2_PLACEMENT_3D('',#86,#87,#88);
#91=CURVE_STYLE('',#23,POSITIVE_LENGTH_MEASURE(2.E-2),#10);
#92=PRESENTATION_STYLE_ASSIGNMENT((#91));
#93=STYLED_ITEM('',(#92),#90);
#94=DIRECTION('',(-1.652454372667E-1,9.540449768827E-2,9.816271834477E-1));
#95=VECTOR('',#94,2.322674064498E0);
#96=CARTESIAN_POINT('',(-3.746263859232E0,-1.806093552417E0,-2.38E0));
#97=LINE('',#96,#95);
#98=CURVE_STYLE('',#23,POSITIVE_LENGTH_MEASURE(2.E-2),#10);
#99=PRESENTATION_STYLE_ASSIGNMENT((#98));
#100=STYLED_ITEM('',(#99),#97);
#101=DIRECTION('',(0.E0,-1.908089953765E-1,9.816271834477E-1));
#102=VECTOR('',#101,2.322674064498E0);
#103=CARTESIAN_POINT('',(-3.437254827620E0,-2.341312895166E0,-2.38E0));
#104=LINE('',#103,#102);
#105=CURVE_STYLE('',#23,POSITIVE_LENGTH_MEASURE(2.E-2),#10);
#106=PRESENTATION_STYLE_ASSIGNMENT((#105));
#107=STYLED_ITEM('',(#106),#104);
#108=DIRECTION('',(1.332267629550E-14,0.E0,1.E0));
#109=VECTOR('',#108,1.E-1);
#110=CARTESIAN_POINT('',(-3.437254827620E0,-2.7845E0,-1.E-1));
#111=LINE('',#110,#109);
#112=CURVE_STYLE('',#23,POSITIVE_LENGTH_MEASURE(2.E-2),#10);
#113=PRESENTATION_STYLE_ASSIGNMENT((#112));
#114=STYLED_ITEM('',(#113),#111);
#115=DIRECTION('',(1.E0,0.E0,0.E0));
#116=VECTOR('',#115,6.874509655241E0);
#117=CARTESIAN_POINT('',(-3.437254827620E0,-2.7845E0,-1.E-1));
#118=LINE('',#117,#116);
#119=CURVE_STYLE('',#23,POSITIVE_LENGTH_MEASURE(2.E-2),#10);
#120=PRESENTATION_STYLE_ASSIGNMENT((#119));
#121=STYLED_ITEM('',(#120),#118);
#122=DIRECTION('',(0.E0,0.E0,1.E0));
#123=VECTOR('',#122,1.E-1);
#124=CARTESIAN_POINT('',(3.437254827620E0,-2.7845E0,-1.E-1));
#125=LINE('',#124,#123);
#126=CURVE_STYLE('',#23,POSITIVE_LENGTH_MEASURE(2.E-2),#10);
#127=PRESENTATION_STYLE_ASSIGNMENT((#126));
#128=STYLED_ITEM('',(#127),#125);
#129=DIRECTION('',(0.E0,-1.998401444325E-14,1.E0));
#130=VECTOR('',#129,1.E-1);
#131=CARTESIAN_POINT('',(4.130075150648E0,-1.5845E0,-1.E-1));
#132=LINE('',#131,#130);
#133=CURVE_STYLE('',#23,POSITIVE_LENGTH_MEASURE(2.E-2),#10);
#134=PRESENTATION_STYLE_ASSIGNMENT((#133));
#135=STYLED_ITEM('',(#134),#132);
#136=DIRECTION('',(-5.E-1,8.660254037844E-1,0.E0));
#137=VECTOR('',#136,6.874509655241E0);
#138=CARTESIAN_POINT('',(4.130075150648E0,-1.5845E0,-1.E-1));
#139=LINE('',#138,#137);
#140=CURVE_STYLE('',#23,POSITIVE_LENGTH_MEASURE(2.E-2),#10);
#141=PRESENTATION_STYLE_ASSIGNMENT((#140));
#142=STYLED_ITEM('',(#141),#139);
#143=DIRECTION('',(0.E0,0.E0,1.E0));
#144=VECTOR('',#143,1.E-1);
#145=CARTESIAN_POINT('',(6.928203230276E-1,4.369E0,-1.E-1));
#146=LINE('',#145,#144);
#147=CURVE_STYLE('',#23,POSITIVE_LENGTH_MEASURE(2.E-2),#10);
#148=PRESENTATION_STYLE_ASSIGNMENT((#147));
#149=STYLED_ITEM('',(#148),#146);
#150=DIRECTION('',(1.652454372667E-1,9.540449768827E-2,9.816271834477E-1));
#151=VECTOR('',#150,2.322674064498E0);
#152=CARTESIAN_POINT('',(3.090090316116E-1,4.147406447583E0,-2.38E0));
#153=LINE('',#152,#151);
#154=CURVE_STYLE('',#23,POSITIVE_LENGTH_MEASURE(2.E-2),#10);
#155=PRESENTATION_STYLE_ASSIGNMENT((#154));
#156=STYLED_ITEM('',(#155),#153);
#157=CARTESIAN_POINT('',(0.E0,3.969E0,-1.E-1));
#158=DIRECTION('',(0.E0,0.E0,1.E0));
#159=DIRECTION('',(8.660254037844E-1,5.E-1,0.E0));
#160=AXIS2_PLACEMENT_3D('',#157,#158,#159);
#162=CURVE_STYLE('',#23,POSITIVE_LENGTH_MEASURE(2.E-2),#10);
#163=PRESENTATION_STYLE_ASSIGNMENT((#162));
#164=STYLED_ITEM('',(#163),#161);
#165=DIRECTION('',(-1.652454372667E-1,9.540449768827E-2,9.816271834477E-1));
#166=VECTOR('',#165,2.322674064498E0);
#167=CARTESIAN_POINT('',(-3.090090316116E-1,4.147406447583E0,-2.38E0));
#168=LINE('',#167,#166);
#169=CURVE_STYLE('',#23,POSITIVE_LENGTH_MEASURE(2.E-2),#10);
#170=PRESENTATION_STYLE_ASSIGNMENT((#169));
#171=STYLED_ITEM('',(#170),#168);
#172=DIRECTION('',(5.E-1,8.660254037844E-1,0.E0));
#173=VECTOR('',#172,6.874509655241E0);
#174=CARTESIAN_POINT('',(-3.746263859232E0,-1.806093552417E0,-2.38E0));
#175=LINE('',#174,#173);
#176=CURVE_STYLE('',#23,POSITIVE_LENGTH_MEASURE(2.E-2),#10);
#177=PRESENTATION_STYLE_ASSIGNMENT((#176));
#178=STYLED_ITEM('',(#177),#175);
#179=CARTESIAN_POINT('',(-3.437254827620E0,-1.9845E0,-2.38E0));
#180=DIRECTION('',(0.E0,0.E0,-1.E0));
#181=DIRECTION('',(0.E0,-1.E0,0.E0));
#182=AXIS2_PLACEMENT_3D('',#179,#180,#181);
#184=CURVE_STYLE('',#23,POSITIVE_LENGTH_MEASURE(2.E-2),#10);
#185=PRESENTATION_STYLE_ASSIGNMENT((#184));
#186=STYLED_ITEM('',(#185),#183);
#187=DIRECTION('',(-1.E0,0.E0,0.E0));
#188=VECTOR('',#187,6.874509655241E0);
#189=CARTESIAN_POINT('',(3.437254827620E0,-2.341312895166E0,-2.38E0));
#190=LINE('',#189,#188);
#191=CURVE_STYLE('',#23,POSITIVE_LENGTH_MEASURE(2.E-2),#10);
#192=PRESENTATION_STYLE_ASSIGNMENT((#191));
#193=STYLED_ITEM('',(#192),#190);
#194=CARTESIAN_POINT('',(3.437254827620E0,-1.9845E0,-2.38E0));
#195=DIRECTION('',(0.E0,0.E0,-1.E0));
#196=DIRECTION('',(8.660254037844E-1,5.E-1,0.E0));
#197=AXIS2_PLACEMENT_3D('',#194,#195,#196);
#199=CURVE_STYLE('',#23,POSITIVE_LENGTH_MEASURE(2.E-2),#10);
#200=PRESENTATION_STYLE_ASSIGNMENT((#199));
#201=STYLED_ITEM('',(#200),#198);
#202=DIRECTION('',(5.E-1,-8.660254037844E-1,0.E0));
#203=VECTOR('',#202,6.874509655241E0);
#204=CARTESIAN_POINT('',(3.090090316116E-1,4.147406447583E0,-2.38E0));
#205=LINE('',#204,#203);
#206=CURVE_STYLE('',#23,POSITIVE_LENGTH_MEASURE(2.E-2),#10);
#207=PRESENTATION_STYLE_ASSIGNMENT((#206));
#208=STYLED_ITEM('',(#207),#205);
#209=CARTESIAN_POINT('',(0.E0,3.969E0,-2.38E0));
#210=DIRECTION('',(0.E0,0.E0,-1.E0));
#211=DIRECTION('',(-8.660254037844E-1,5.E-1,0.E0));
#212=AXIS2_PLACEMENT_3D('',#209,#210,#211);
#214=CURVE_STYLE('',#23,POSITIVE_LENGTH_MEASURE(2.E-2),#10);
#215=PRESENTATION_STYLE_ASSIGNMENT((#214));
#216=STYLED_ITEM('',(#215),#213);
#217=DIRECTION('',(0.E0,-1.908089953765E-1,9.816271834477E-1));
#218=VECTOR('',#217,2.322674064498E0);
#219=CARTESIAN_POINT('',(3.437254827620E0,-2.341312895166E0,-2.38E0));
#220=LINE('',#219,#218);
#221=CURVE_STYLE('',#23,POSITIVE_LENGTH_MEASURE(2.E-2),#10);
#222=PRESENTATION_STYLE_ASSIGNMENT((#221));
#223=STYLED_ITEM('',(#222),#220);
#224=CARTESIAN_POINT('',(3.437254827620E0,-1.9845E0,-1.E-1));
#225=DIRECTION('',(0.E0,0.E0,1.E0));
#226=DIRECTION('',(0.E0,-1.E0,0.E0));
#227=AXIS2_PLACEMENT_3D('',#224,#225,#226);
#229=CURVE_STYLE('',#23,POSITIVE_LENGTH_MEASURE(2.E-2),#10);
#230=PRESENTATION_STYLE_ASSIGNMENT((#229));
#231=STYLED_ITEM('',(#230),#228);
#232=DIRECTION('',(1.652454372667E-1,9.540449768827E-2,9.816271834477E-1));
#233=VECTOR('',#232,2.322674064498E0);
#234=CARTESIAN_POINT('',(3.746263859232E0,-1.806093552417E0,-2.38E0));
#235=LINE('',#234,#233);
#236=CURVE_STYLE('',#23,POSITIVE_LENGTH_MEASURE(2.E-2),#10);
#237=PRESENTATION_STYLE_ASSIGNMENT((#236));
#238=STYLED_ITEM('',(#237),#235);
#239=CARTESIAN_POINT('',(-4.130075150648E0,-1.5845E0,0.E0));
#240=CARTESIAN_POINT('',(-6.928203230275E-1,4.369E0,0.E0));
#241=VERTEX_POINT('',#239);
#242=VERTEX_POINT('',#240);
#243=CARTESIAN_POINT('',(-3.437254827620E0,-2.7845E0,0.E0));
#244=VERTEX_POINT('',#243);
#245=CARTESIAN_POINT('',(3.437254827620E0,-2.7845E0,0.E0));
#246=VERTEX_POINT('',#245);
#247=CARTESIAN_POINT('',(4.130075150648E0,-1.5845E0,0.E0));
#248=VERTEX_POINT('',#247);
#249=CARTESIAN_POINT('',(6.928203230276E-1,4.369E0,0.E0));
#250=VERTEX_POINT('',#249);
#251=CARTESIAN_POINT('',(-3.746263859232E0,-1.806093552417E0,-2.38E0));
#252=CARTESIAN_POINT('',(-3.090090316116E-1,4.147406447583E0,-2.38E0));
#253=VERTEX_POINT('',#251);
#254=VERTEX_POINT('',#252);
#255=CARTESIAN_POINT('',(-3.437254827620E0,-2.341312895166E0,-2.38E0));
#256=VERTEX_POINT('',#255);
#257=CARTESIAN_POINT('',(3.437254827620E0,-2.341312895166E0,-2.38E0));
#258=VERTEX_POINT('',#257);
#259=CARTESIAN_POINT('',(3.746263859232E0,-1.806093552417E0,-2.38E0));
#260=VERTEX_POINT('',#259);
#261=CARTESIAN_POINT('',(3.090090316116E-1,4.147406447583E0,-2.38E0));
#262=VERTEX_POINT('',#261);
#263=CARTESIAN_POINT('',(4.130075150648E0,-1.5845E0,-1.E-1));
#264=CARTESIAN_POINT('',(6.928203230276E-1,4.369E0,-1.E-1));
#265=VERTEX_POINT('',#263);
#266=VERTEX_POINT('',#264);
#267=CARTESIAN_POINT('',(-6.928203230276E-1,4.369E0,-1.E-1));
#268=VERTEX_POINT('',#267);
#269=CARTESIAN_POINT('',(3.437254827620E0,-2.7845E0,-1.E-1));
#270=VERTEX_POINT('',#269);
#271=CARTESIAN_POINT('',(-4.130075150648E0,-1.5845E0,-1.E-1));
#272=VERTEX_POINT('',#271);
#273=CARTESIAN_POINT('',(-3.437254827620E0,-2.7845E0,-1.E-1));
#274=VERTEX_POINT('',#273);
#275=CARTESIAN_POINT('',(0.E0,0.E0,0.E0));
#276=DIRECTION('',(0.E0,0.E0,1.E0));
#277=DIRECTION('',(1.E0,0.E0,0.E0));
#278=AXIS2_PLACEMENT_3D('',#275,#276,#277);
#279=PLANE('',#278);
#281=ORIENTED_EDGE('',*,*,#280,.T.);
#283=ORIENTED_EDGE('',*,*,#282,.T.);
#285=ORIENTED_EDGE('',*,*,#284,.T.);
#287=ORIENTED_EDGE('',*,*,#286,.T.);
#289=ORIENTED_EDGE('',*,*,#288,.T.);
#291=ORIENTED_EDGE('',*,*,#290,.T.);
#292=EDGE_LOOP('',(#281,#283,#285,#287,#289,#291));
#293=FACE_OUTER_BOUND('',#292,.F.);
#295=CARTESIAN_POINT('',(-6.928203230276E-1,4.369E0,0.E0));
#296=DIRECTION('',(-8.660254037844E-1,5.E-1,0.E0));
#297=DIRECTION('',(-5.E-1,-8.660254037844E-1,0.E0));
#298=AXIS2_PLACEMENT_3D('',#295,#296,#297);
#299=PLANE('',#298);
#301=ORIENTED_EDGE('',*,*,#300,.F.);
#303=ORIENTED_EDGE('',*,*,#302,.F.);
#305=ORIENTED_EDGE('',*,*,#304,.T.);
#306=ORIENTED_EDGE('',*,*,#280,.F.);
#307=EDGE_LOOP('',(#301,#303,#305,#306));
#308=FACE_OUTER_BOUND('',#307,.F.);
#310=CARTESIAN_POINT('',(-3.437254827620E0,-1.9845E0,0.E0));
#311=DIRECTION('',(0.E0,0.E0,1.E0));
#312=DIRECTION('',(1.E0,0.E0,0.E0));
#313=AXIS2_PLACEMENT_3D('',#310,#311,#312);
#314=CYLINDRICAL_SURFACE('',#313,8.E-1);
#316=ORIENTED_EDGE('',*,*,#315,.F.);
#317=ORIENTED_EDGE('',*,*,#300,.T.);
#318=ORIENTED_EDGE('',*,*,#290,.F.);
#320=ORIENTED_EDGE('',*,*,#319,.F.);
#321=EDGE_LOOP('',(#316,#317,#318,#320));
#322=FACE_OUTER_BOUND('',#321,.F.);
#324=CARTESIAN_POINT('',(-3.437254827620E0,-1.9845E0,-1.24E0));
#325=DIRECTION('',(0.E0,0.E0,1.E0));
#326=DIRECTION('',(1.E0,0.E0,0.E0));
#327=AXIS2_PLACEMENT_3D('',#324,#325,#326);
#328=CONICAL_SURFACE('',#327,5.784064475830E-1,1.1E1);
#329=ORIENTED_EDGE('',*,*,#315,.T.);
#331=ORIENTED_EDGE('',*,*,#330,.F.);
#333=ORIENTED_EDGE('',*,*,#332,.T.);
#335=ORIENTED_EDGE('',*,*,#334,.T.);
#336=EDGE_LOOP('',(#329,#331,#333,#335));
#337=FACE_OUTER_BOUND('',#336,.F.);
#339=CARTESIAN_POINT('',(-3.437254827620E0,-2.7845E0,-1.E-1));
#340=DIRECTION('',(0.E0,-9.816271834477E-1,-1.908089953765E-1));
#341=DIRECTION('',(1.E0,0.E0,0.E0));
#342=AXIS2_PLACEMENT_3D('',#339,#340,#341);
#343=PLANE('',#342);
#344=ORIENTED_EDGE('',*,*,#330,.T.);
#346=ORIENTED_EDGE('',*,*,#345,.T.);
#348=ORIENTED_EDGE('',*,*,#347,.F.);
#350=ORIENTED_EDGE('',*,*,#349,.T.);
#351=EDGE_LOOP('',(#344,#346,#348,#350));
#352=FACE_OUTER_BOUND('',#351,.F.);
#354=CARTESIAN_POINT('',(-3.437254827620E0,-2.7845E0,0.E0));
#355=DIRECTION('',(0.E0,-1.E0,0.E0));
#356=DIRECTION('',(1.E0,0.E0,0.E0));
#357=AXIS2_PLACEMENT_3D('',#354,#355,#356);
#358=PLANE('',#357);
#359=ORIENTED_EDGE('',*,*,#319,.T.);
#360=ORIENTED_EDGE('',*,*,#288,.F.);
#362=ORIENTED_EDGE('',*,*,#361,.F.);
#363=ORIENTED_EDGE('',*,*,#345,.F.);
#364=EDGE_LOOP('',(#359,#360,#362,#363));
#365=FACE_OUTER_BOUND('',#364,.F.);
#367=CARTESIAN_POINT('',(3.437254827620E0,-1.9845E0,0.E0));
#368=DIRECTION('',(0.E0,0.E0,1.E0));
#369=DIRECTION('',(1.E0,0.E0,0.E0));
#370=AXIS2_PLACEMENT_3D('',#367,#368,#369);
#371=CYLINDRICAL_SURFACE('',#370,8.E-1);
#372=ORIENTED_EDGE('',*,*,#361,.T.);
#373=ORIENTED_EDGE('',*,*,#286,.F.);
#375=ORIENTED_EDGE('',*,*,#374,.F.);
#377=ORIENTED_EDGE('',*,*,#376,.F.);
#378=EDGE_LOOP('',(#372,#373,#375,#377));
#379=FACE_OUTER_BOUND('',#378,.F.);
#381=CARTESIAN_POINT('',(4.130075150648E0,-1.5845E0,0.E0));
#382=DIRECTION('',(8.660254037844E-1,5.E-1,0.E0));
#383=DIRECTION('',(-5.E-1,8.660254037844E-1,0.E0));
#384=AXIS2_PLACEMENT_3D('',#381,#382,#383);
#385=PLANE('',#384);
#386=ORIENTED_EDGE('',*,*,#374,.T.);
#387=ORIENTED_EDGE('',*,*,#284,.F.);
#389=ORIENTED_EDGE('',*,*,#388,.F.);
#391=ORIENTED_EDGE('',*,*,#390,.F.);
#392=EDGE_LOOP('',(#386,#387,#389,#391));
#393=FACE_OUTER_BOUND('',#392,.F.);
#395=CARTESIAN_POINT('',(0.E0,3.969E0,0.E0));
#396=DIRECTION('',(0.E0,0.E0,1.E0));
#397=DIRECTION('',(1.E0,0.E0,0.E0));
#398=AXIS2_PLACEMENT_3D('',#395,#396,#397);
#399=CYLINDRICAL_SURFACE('',#398,8.E-1);
#400=ORIENTED_EDGE('',*,*,#304,.F.);
#402=ORIENTED_EDGE('',*,*,#401,.F.);
#403=ORIENTED_EDGE('',*,*,#388,.T.);
#404=ORIENTED_EDGE('',*,*,#282,.F.);
#405=EDGE_LOOP('',(#400,#402,#403,#404));
#406=FACE_OUTER_BOUND('',#405,.F.);
#408=CARTESIAN_POINT('',(0.E0,3.969E0,-1.24E0));
#409=DIRECTION('',(0.E0,0.E0,1.E0));
#410=DIRECTION('',(1.E0,0.E0,0.E0));
#411=AXIS2_PLACEMENT_3D('',#408,#409,#410);
#412=CONICAL_SURFACE('',#411,5.784064475830E-1,1.1E1);
#414=ORIENTED_EDGE('',*,*,#413,.F.);
#416=ORIENTED_EDGE('',*,*,#415,.T.);
#418=ORIENTED_EDGE('',*,*,#417,.T.);
#419=ORIENTED_EDGE('',*,*,#401,.T.);
#420=EDGE_LOOP('',(#414,#416,#418,#419));
#421=FACE_OUTER_BOUND('',#420,.F.);
#423=CARTESIAN_POINT('',(-6.928203230276E-1,4.369E0,-1.E-1));
#424=DIRECTION('',(-8.501140779110E-1,4.908135917238E-1,-1.908089953765E-1));
#425=DIRECTION('',(-5.E-1,-8.660254037844E-1,0.E0));
#426=AXIS2_PLACEMENT_3D('',#423,#424,#425);
#427=PLANE('',#426);
#428=ORIENTED_EDGE('',*,*,#334,.F.);
#430=ORIENTED_EDGE('',*,*,#429,.T.);
#431=ORIENTED_EDGE('',*,*,#413,.T.);
#432=ORIENTED_EDGE('',*,*,#302,.T.);
#433=EDGE_LOOP('',(#428,#430,#431,#432));
#434=FACE_OUTER_BOUND('',#433,.F.);
#436=CARTESIAN_POINT('',(0.E0,0.E0,-2.38E0));
#437=DIRECTION('',(0.E0,0.E0,1.E0));
#438=DIRECTION('',(1.E0,0.E0,0.E0));
#439=AXIS2_PLACEMENT_3D('',#436,#437,#438);
#440=PLANE('',#439);
#441=ORIENTED_EDGE('',*,*,#429,.F.);
#442=ORIENTED_EDGE('',*,*,#332,.F.);
#443=ORIENTED_EDGE('',*,*,#349,.F.);
#445=ORIENTED_EDGE('',*,*,#444,.F.);
#447=ORIENTED_EDGE('',*,*,#446,.F.);
#448=ORIENTED_EDGE('',*,*,#415,.F.);
#449=EDGE_LOOP('',(#441,#442,#443,#445,#447,#448));
#450=FACE_OUTER_BOUND('',#449,.F.);
#452=CARTESIAN_POINT('',(3.437254827620E0,-1.9845E0,-1.24E0));
#453=DIRECTION('',(0.E0,0.E0,1.E0));
#454=DIRECTION('',(1.E0,0.E0,0.E0));
#455=AXIS2_PLACEMENT_3D('',#452,#453,#454);
#456=CONICAL_SURFACE('',#455,5.784064475830E-1,1.1E1);
#457=ORIENTED_EDGE('',*,*,#347,.T.);
#458=ORIENTED_EDGE('',*,*,#376,.T.);
#460=ORIENTED_EDGE('',*,*,#459,.F.);
#461=ORIENTED_EDGE('',*,*,#444,.T.);
#462=EDGE_LOOP('',(#457,#458,#460,#461));
#463=FACE_OUTER_BOUND('',#462,.F.);
#465=CARTESIAN_POINT('',(4.130075150648E0,-1.5845E0,-1.E-1));
#466=DIRECTION('',(8.501140779110E-1,4.908135917238E-1,-1.908089953765E-1));
#467=DIRECTION('',(-5.E-1,8.660254037844E-1,0.E0));
#468=AXIS2_PLACEMENT_3D('',#465,#466,#467);
#469=PLANE('',#468);
#470=ORIENTED_EDGE('',*,*,#459,.T.);
#471=ORIENTED_EDGE('',*,*,#390,.T.);
#472=ORIENTED_EDGE('',*,*,#417,.F.);
#473=ORIENTED_EDGE('',*,*,#446,.T.);
#474=EDGE_LOOP('',(#470,#471,#472,#473));
#475=FACE_OUTER_BOUND('',#474,.F.);
#479=FILL_AREA_STYLE_COLOUR('',#10);
#480=FILL_AREA_STYLE('',(#479));
#481=SURFACE_STYLE_FILL_AREA(#480);
#482=SURFACE_SIDE_STYLE('',(#481));
#483=SURFACE_STYLE_USAGE(.BOTH.,#482);
#484=PRESENTATION_STYLE_ASSIGNMENT((#483));
#18=STYLED_ITEM('',(#484),#478);
#485=CARTESIAN_POINT('',(0.E0,0.E0,0.E0));
#486=DIRECTION('',(0.E0,0.E0,1.E0));
#487=DIRECTION('',(1.E0,0.E0,0.E0));
#488=AXIS2_PLACEMENT_3D('MCS',#485,#486,#487);
#489=CURVE_STYLE('',#23,POSITIVE_LENGTH_MEASURE(2.E-2),#16);
#490=PRESENTATION_STYLE_ASSIGNMENT((#489));
#491=STYLED_ITEM('',(#490),#488);
#492=CARTESIAN_POINT('',(-3.437254827620E0,-1.9845E0,0.E0));
#493=DIRECTION('',(0.E0,0.E0,1.E0));
#494=DIRECTION('',(-8.660254037844E-1,5.E-1,0.E0));
#495=AXIS2_PLACEMENT_3D('',#492,#493,#494);
#498=CURVE_STYLE('',#23,POSITIVE_LENGTH_MEASURE(2.E-2),#1);
#499=PRESENTATION_STYLE_ASSIGNMENT((#498));
#500=STYLED_ITEM('',(#499),#497);
#502=DIRECTION('',(1.E0,0.E0,0.E0));
#503=VECTOR('',#502,6.874509655241E0);
#504=CARTESIAN_POINT('',(-3.437254827620E0,-2.7845E0,0.E0));
#505=LINE('',#504,#503);
#507=CURVE_STYLE('',#23,POSITIVE_LENGTH_MEASURE(2.E-2),#1);
#508=PRESENTATION_STYLE_ASSIGNMENT((#507));
#509=STYLED_ITEM('',(#508),#506);
#511=CARTESIAN_POINT('',(3.437254827620E0,-1.9845E0,0.E0));
#512=DIRECTION('',(0.E0,0.E0,1.E0));
#513=DIRECTION('',(0.E0,-1.E0,0.E0));
#514=AXIS2_PLACEMENT_3D('',#511,#512,#513);
#517=CURVE_STYLE('',#23,POSITIVE_LENGTH_MEASURE(2.E-2),#1);
#518=PRESENTATION_STYLE_ASSIGNMENT((#517));
#519=STYLED_ITEM('',(#518),#516);
#521=DIRECTION('',(-5.E-1,8.660254037844E-1,0.E0));
#522=VECTOR('',#521,6.874509655241E0);
#523=CARTESIAN_POINT('',(4.130075150648E0,-1.5845E0,0.E0));
#524=LINE('',#523,#522);
#526=CURVE_STYLE('',#23,POSITIVE_LENGTH_MEASURE(2.E-2),#1);
#527=PRESENTATION_STYLE_ASSIGNMENT((#526));
#528=STYLED_ITEM('',(#527),#525);
#530=CARTESIAN_POINT('',(0.E0,3.969E0,0.E0));
#531=DIRECTION('',(0.E0,0.E0,1.E0));
#532=DIRECTION('',(8.660254037844E-1,5.E-1,0.E0));
#533=AXIS2_PLACEMENT_3D('',#530,#531,#532);
#536=CURVE_STYLE('',#23,POSITIVE_LENGTH_MEASURE(2.E-2),#1);
#537=PRESENTATION_STYLE_ASSIGNMENT((#536));
#538=STYLED_ITEM('',(#537),#535);
#540=DIRECTION('',(-5.E-1,-8.660254037844E-1,0.E0));
#541=VECTOR('',#540,6.874509655241E0);
#542=CARTESIAN_POINT('',(-6.928203230275E-1,4.369E0,0.E0));
#543=LINE('',#542,#541);
#545=CURVE_STYLE('',#23,POSITIVE_LENGTH_MEASURE(2.E-2),#1);
#546=PRESENTATION_STYLE_ASSIGNMENT((#545));
#547=STYLED_ITEM('',(#546),#544);
#551=CARTESIAN_POINT('',(-4.822895473676E0,-2.7845E0,0.E0));
#552=DIRECTION('',(0.E0,0.E0,1.E0));
#553=DIRECTION('',(1.E0,0.E0,0.E0));
#554=AXIS2_PLACEMENT_3D('PCS',#551,#552,#553);
#555=CURVE_STYLE('',#23,POSITIVE_LENGTH_MEASURE(2.E-2),#16);
#556=PRESENTATION_STYLE_ASSIGNMENT((#555));
#557=STYLED_ITEM('',(#556),#554);
#558=PRESENTATION_LAYER_ASSIGNMENT('ALL_CSYS','',(#488,#554));
#559=PRESENTATION_LAYER_ASSIGNMENT('ALL_CURVES','',(#549));
#560=PRESENTATION_LAYER_ASSIGNMENT('ALL_FEATURES','',(#488,#549,#554));
#563=PLANE_ANGLE_MEASURE_WITH_UNIT(PLANE_ANGLE_MEASURE(1.745329251994E-2),#562);
#564=(CONVERSION_BASED_UNIT('DEGREE',#563)NAMED_UNIT(*)PLANE_ANGLE_UNIT());
#566=UNCERTAINTY_MEASURE_WITH_UNIT(LENGTH_MEASURE(1.E-3),#561,
'distance_accuracy_value',
'Maximum model space distance between geometric entities at asserted connectivities');
#550=GEOMETRIC_CURVE_SET('',(#549));
#571=CARTESIAN_POINT('',(0.E0,0.E0,0.E0));
#572=DIRECTION('',(0.E0,0.E0,1.E0));
#573=DIRECTION('',(1.E0,0.E0,0.E0));
#576=SHAPE_REPRESENTATION_RELATIONSHIP('','',#575,#568);
#577=SHAPE_REPRESENTATION_RELATIONSHIP('','',#575,#569);
#578=CONSTRUCTIVE_GEOMETRY_REPRESENTATION_RELATIONSHIP('','',#575,#570);
#579=MECHANICAL_DESIGN_GEOMETRIC_PRESENTATION_REPRESENTATION('',(#26,#34,#41,
#49,#56,#64,#71,#78,#85,#93,#100,#107,#114,#121,#128,#135,#142,#149,#156,#164,
#171,#178,#186,#193,#201,#208,#216,#223,#231,#238,#18,#491,#500,#509,#519,#528,
#538,#547,#557),#567);
#580=APPLICATION_CONTEXT('automotive_design');
#581=APPLICATION_PROTOCOL_DEFINITION('international standard',
'automotive_design',2001,#580);
#582=PRODUCT_DEFINITION_CONTEXT('part definition',#580,'design');
#583=PRODUCT_CONTEXT('',#580,'mechanical');
#584=PRODUCT('TPGN090208','TPGN090208','NOT SPECIFIED',(#583));
#585=PRODUCT_DEFINITION_FORMATION('1','LAST_VERSION',#584);
#593=DERIVED_UNIT_ELEMENT(#592,2.E0);
#594=DERIVED_UNIT((#593));
#595=MEASURE_REPRESENTATION_ITEM('surface area measure',AREA_MEASURE(
1.261034367158E2),#594);
#600=DERIVED_UNIT_ELEMENT(#599,3.E0);
#601=DERIVED_UNIT((#600));
#602=MEASURE_REPRESENTATION_ITEM('volume measure',VOLUME_MEASURE(
8.026575972620E1),#601);
#606=CARTESIAN_POINT('centre point',(3.177204828333E-8,-2.109026098207E-8,
-1.124196960053E0));
#611=DERIVED_UNIT_ELEMENT(#610,2.E0);
#612=DERIVED_UNIT((#611));
#613=MEASURE_REPRESENTATION_ITEM('surface area measure',AREA_MEASURE(
1.261034367158E2),#612);
#618=DERIVED_UNIT_ELEMENT(#617,3.E0);
#619=DERIVED_UNIT((#618));
#620=MEASURE_REPRESENTATION_ITEM('volume measure',VOLUME_MEASURE(
8.026575972620E1),#619);
#624=CARTESIAN_POINT('centre point',(3.177204828333E-8,-2.109026098207E-8,
-1.124196960053E0));
#629=PRODUCT_RELATED_PRODUCT_CATEGORY('part','',(#584));
#1=DRAUGHTING_PRE_DEFINED_COLOUR('blue');
#2=DRAUGHTING_PRE_DEFINED_COLOUR('green');
#3=COLOUR_RGB('',3.01961E-1,3.01961E-1,3.01961E-1);
#4=COLOUR_RGB('',3.92157E-1,3.92157E-1,3.92157E-1);
#5=COLOUR_RGB('',5.01961E-1,5.01961E-1,5.01961E-1);
#6=COLOUR_RGB('',5.764705882353E-1,5.450980392157E-1,3.921568627451E-1);
#7=COLOUR_RGB('',6.35294E-1,6.86275E-1,7.4902E-1);
#8=COLOUR_RGB('',7.05882E-1,7.05882E-1,7.05882E-1);
#9=COLOUR_RGB('',7.84314E-1,5.29412E-1,7.84314E-1);
#10=COLOUR_RGB('',8.E-1,8.E-1,8.E-1);
#11=COLOUR_RGB('',8.23529E-1,8.23529E-1,8.23529E-1);
#12=COLOUR_RGB('',9.80392E-1,9.80392E-1,9.80392E-1);
#13=COLOUR_RGB('',1.E0,6.66667E-1,0.E0);
#14=COLOUR_RGB('',1.E0,7.63913E-1,1.92109E-1);
#15=COLOUR_RGB('',1.E0,8.39216E-1,8.90196E-1);
#16=DRAUGHTING_PRE_DEFINED_COLOUR('yellow');
#17=COLOUR_RGB('',1.E0,1.E0,9.41176E-1);
#31=CIRCLE('',#30,8.E-1);
#46=CIRCLE('',#45,8.E-1);
#61=CIRCLE('',#60,8.E-1);
#90=CIRCLE('',#89,8.E-1);
#161=CIRCLE('',#160,8.E-1);
#183=CIRCLE('',#182,3.568128951660E-1);
#198=CIRCLE('',#197,3.568128951660E-1);
#213=CIRCLE('',#212,3.568128951660E-1);
#228=CIRCLE('',#227,8.E-1);
#280=EDGE_CURVE('',#241,#242,#22,.T.);
#282=EDGE_CURVE('',#242,#250,#31,.T.);
#284=EDGE_CURVE('',#250,#248,#38,.T.);
#286=EDGE_CURVE('',#248,#246,#46,.T.);
#288=EDGE_CURVE('',#246,#244,#53,.T.);
#290=EDGE_CURVE('',#244,#241,#61,.T.);
#294=ADVANCED_FACE('',(#293),#279,.T.);
#300=EDGE_CURVE('',#272,#241,#82,.T.);
#302=EDGE_CURVE('',#268,#272,#68,.T.);
#304=EDGE_CURVE('',#268,#242,#75,.T.);
#309=ADVANCED_FACE('',(#308),#299,.T.);
#315=EDGE_CURVE('',#272,#274,#90,.T.);
#319=EDGE_CURVE('',#274,#244,#111,.T.);
#323=ADVANCED_FACE('',(#322),#314,.T.);
#330=EDGE_CURVE('',#256,#274,#104,.T.);
#332=EDGE_CURVE('',#256,#253,#183,.T.);
#334=EDGE_CURVE('',#253,#272,#97,.T.);
#338=ADVANCED_FACE('',(#337),#328,.T.);
#345=EDGE_CURVE('',#274,#270,#118,.T.);
#347=EDGE_CURVE('',#258,#270,#220,.T.);
#349=EDGE_CURVE('',#258,#256,#190,.T.);
#353=ADVANCED_FACE('',(#352),#343,.T.);
#361=EDGE_CURVE('',#270,#246,#125,.T.);
#366=ADVANCED_FACE('',(#365),#358,.T.);
#374=EDGE_CURVE('',#265,#248,#132,.T.);
#376=EDGE_CURVE('',#270,#265,#228,.T.);
#380=ADVANCED_FACE('',(#379),#371,.T.);
#388=EDGE_CURVE('',#266,#250,#146,.T.);
#390=EDGE_CURVE('',#265,#266,#139,.T.);
#394=ADVANCED_FACE('',(#393),#385,.T.);
#401=EDGE_CURVE('',#266,#268,#161,.T.);
#407=ADVANCED_FACE('',(#406),#399,.T.);
#413=EDGE_CURVE('',#254,#268,#168,.T.);
#415=EDGE_CURVE('',#254,#262,#213,.T.);
#417=EDGE_CURVE('',#262,#266,#153,.T.);
#422=ADVANCED_FACE('',(#421),#412,.T.);
#429=EDGE_CURVE('',#253,#254,#175,.T.);
#435=ADVANCED_FACE('',(#434),#427,.T.);
#444=EDGE_CURVE('',#260,#258,#198,.T.);
#446=EDGE_CURVE('',#262,#260,#205,.T.);
#451=ADVANCED_FACE('',(#450),#440,.F.);
#459=EDGE_CURVE('',#260,#265,#235,.T.);
#464=ADVANCED_FACE('',(#463),#456,.T.);
#476=ADVANCED_FACE('',(#475),#469,.T.);
#477=CLOSED_SHELL('',(#294,#309,#323,#338,#353,#366,#380,#394,#407,#422,#435,
#451,#464,#476));
#478=MANIFOLD_SOLID_BREP('',#477);
#496=CIRCLE('',#495,8.E-1);
#497=TRIMMED_CURVE('',#496,(PARAMETER_VALUE(0.E0)),(PARAMETER_VALUE(1.2E2)),.T.,
.UNSPECIFIED.);
#501=COMPOSITE_CURVE_SEGMENT(.CONTINUOUS.,.T.,#497);
#506=TRIMMED_CURVE('',#505,(PARAMETER_VALUE(0.E0)),(PARAMETER_VALUE(1.E0)),.T.,
.UNSPECIFIED.);
#510=COMPOSITE_CURVE_SEGMENT(.CONTINUOUS.,.T.,#506);
#515=CIRCLE('',#514,8.E-1);
#516=TRIMMED_CURVE('',#515,(PARAMETER_VALUE(0.E0)),(PARAMETER_VALUE(1.2E2)),.T.,
.UNSPECIFIED.);
#520=COMPOSITE_CURVE_SEGMENT(.CONTINUOUS.,.T.,#516);
#525=TRIMMED_CURVE('',#524,(PARAMETER_VALUE(0.E0)),(PARAMETER_VALUE(1.E0)),.T.,
.UNSPECIFIED.);
#529=COMPOSITE_CURVE_SEGMENT(.CONTINUOUS.,.T.,#525);
#534=CIRCLE('',#533,8.E-1);
#535=TRIMMED_CURVE('',#534,(PARAMETER_VALUE(0.E0)),(PARAMETER_VALUE(1.2E2)),.T.,
.UNSPECIFIED.);
#539=COMPOSITE_CURVE_SEGMENT(.CONTINUOUS.,.T.,#535);
#544=TRIMMED_CURVE('',#543,(PARAMETER_VALUE(0.E0)),(PARAMETER_VALUE(1.E0)),.T.,
.UNSPECIFIED.);
#548=COMPOSITE_CURVE_SEGMENT(.CONTINUOUS.,.T.,#544);
#549=COMPOSITE_CURVE('',(#501,#510,#520,#529,#539,#548),.F.);
#561=(LENGTH_UNIT()NAMED_UNIT(*)SI_UNIT(.MILLI.,.METRE.));
#562=(NAMED_UNIT(*)PLANE_ANGLE_UNIT()SI_UNIT($,.RADIAN.));
#565=(NAMED_UNIT(*)SI_UNIT($,.STERADIAN.)SOLID_ANGLE_UNIT());
#567=(GEOMETRIC_REPRESENTATION_CONTEXT(3)GLOBAL_UNCERTAINTY_ASSIGNED_CONTEXT((
#566))GLOBAL_UNIT_ASSIGNED_CONTEXT((#561,#564,#565))REPRESENTATION_CONTEXT
('ID1','3'));
#568=ADVANCED_BREP_SHAPE_REPRESENTATION('',(#478),#567);
#569=GEOMETRICALLY_BOUNDED_WIREFRAME_SHAPE_REPRESENTATION('',(#550),#567);
#570=CONSTRUCTIVE_GEOMETRY_REPRESENTATION('supplemental geometry',(#488,#554),
#567);
#574=AXIS2_PLACEMENT_3D('',#571,#572,#573);
#575=SHAPE_REPRESENTATION('',(#574),#567);
#586=PRODUCT_DEFINITION('part definition','',#585,#582);
#587=PRODUCT_DEFINITION_SHAPE('','SHAPE FOR TPGN090208.',#586);
#588=SHAPE_ASPECT('','solid data associated with TPGN090208',#587,.F.);
#589=PROPERTY_DEFINITION('',
'shape for solid data with which properties are associated',#588);
#590=SHAPE_REPRESENTATION('',(#478),#567);
#591=SHAPE_DEFINITION_REPRESENTATION(#589,#590);
#592=(LENGTH_UNIT()NAMED_UNIT(*)SI_UNIT(.MILLI.,.METRE.));
#596=PROPERTY_DEFINITION('geometric validation property','area of TPGN090208',
#588);
#597=REPRESENTATION('surface area',(#595),#567);
#598=PROPERTY_DEFINITION_REPRESENTATION(#596,#597);
#599=(LENGTH_UNIT()NAMED_UNIT(*)SI_UNIT(.MILLI.,.METRE.));
#603=PROPERTY_DEFINITION('geometric validation property','volume of TPGN090208',
#588);
#604=REPRESENTATION('volume',(#602),#567);
#605=PROPERTY_DEFINITION_REPRESENTATION(#603,#604);
#607=PROPERTY_DEFINITION('geometric validation property',
'centroid of TPGN090208',#588);
#608=REPRESENTATION('centroid',(#606),#567);
#609=PROPERTY_DEFINITION_REPRESENTATION(#607,#608);
#610=(LENGTH_UNIT()NAMED_UNIT(*)SI_UNIT(.MILLI.,.METRE.));
#614=PROPERTY_DEFINITION('geometric validation property','area of TPGN090208',
#587);
#615=REPRESENTATION('surface area',(#613),#567);
#616=PROPERTY_DEFINITION_REPRESENTATION(#614,#615);
#617=(LENGTH_UNIT()NAMED_UNIT(*)SI_UNIT(.MILLI.,.METRE.));
#621=PROPERTY_DEFINITION('geometric validation property','volume of TPGN090208',
#587);
#622=REPRESENTATION('volume',(#620),#567);
#623=PROPERTY_DEFINITION_REPRESENTATION(#621,#622);
#625=PROPERTY_DEFINITION('geometric validation property',
'centroid of TPGN090208',#587);
#626=REPRESENTATION('centroid',(#624),#567);
#627=PROPERTY_DEFINITION_REPRESENTATION(#625,#626);
#628=SHAPE_DEFINITION_REPRESENTATION(#587,#575);
ENDSEC;
END-ISO-10303-21;
